  0
SECTION
  2
HEADER
  9
$ACADVER
  1
AC1012
  9
$DWGCODEPAGE
  3
ansi_932
  9
$INSBASE
 10
0.0
 20
0.0
 30
0.0
  9
$EXTMIN
 10
0.0
 20
0.0
 30
0.0
  9
$EXTMAX
 10
267.269
 20
107.734706
 30
0.0
  9
$LIMMIN
 10
0.0
 20
0.0
  9
$LIMMAX
 10
267.269
 20
107.734706
  9
$ORTHOMODE
 70
     0
  9
$REGENMODE
 70
     1
  9
$FILLMODE
 70
     1
  9
$QTEXTMODE
 70
     0
  9
$MIRRTEXT
 70
     1
  9
$DRAGMODE
 70
     2
  9
$LTSCALE
 40
1.0
  9
$OSMODE
 70
    37
  9
$ATTMODE
 70
     1
  9
$TEXTSIZE
 40
0.2
  9
$TRACEWID
 40
0.05
  9
$TEXTSTYLE
  7
ED_VECTOR
  9
$CLAYER
  8
0
  9
$CELTYPE
  6
BYLAYER
  9
$CECOLOR
 62
   256
  9
$CELTSCALE
 40
1.0
  9
$DELOBJ
 70
     1
  9
$DISPSILH
 70
     0
  9
$DIMSCALE
 40
1.0
  9
$DIMASZ
 40
3.0
  9
$DIMEXO
 40
1.0
  9
$DIMDLI
 40
10.0
  9
$DIMRND
 40
0.0
  9
$DIMDLE
 40
5.0
  9
$DIMEXE
 40
1.0
  9
$DIMTP
 40
0.0
  9
$DIMTM
 40
0.0
  9
$DIMTXT
 40
4.0
  9
$DIMCEN
 40
2.5
  9
$DIMTSZ
 40
0.0
  9
$DIMTOL
 70
     0
  9
$DIMLIM
 70
     0
  9
$DIMTIH
 70
     0
  9
$DIMTOH
 70
     0
  9
$DIMSE1
 70
     0
  9
$DIMSE2
 70
     0
  9
$DIMTAD
 70
     1
  9
$DIMZIN
 70
     8
  9
$DIMBLK
  1

  9
$DIMASO
 70
     1
  9
$DIMSHO
 70
     1
  9
$DIMPOST
  1

  9
$DIMAPOST
  1

  9
$DIMALT
 70
     0
  9
$DIMALTD
 70
     3
  9
$DIMALTF
 40
0.03937
  9
$DIMLFAC
 40
1.0
  9
$DIMTOFL
 70
     1
  9
$DIMTVP
 40
0.0
  9
$DIMTIX
 70
     0
  9
$DIMSOXD
 70
     0
  9
$DIMSAH
 70
     1
  9
$DIMBLK1
  1
EDTIP_ARROW_S
  9
$DIMBLK2
  1
EDTIP_ARROW_E
  9
$DIMSTYLE
  2
EDDIMINFO
  9
$DIMCLRD
 70
     7
  9
$DIMCLRE
 70
     7
  9
$DIMCLRT
 70
     7
  9
$DIMTFAC
 40
1.0
  9
$DIMGAP
 40
1.0
  9
$DIMJUST
 70
     0
  9
$DIMSD1
 70
     0
  9
$DIMSD2
 70
     0
  9
$DIMTOLJ
 70
     0
  9
$DIMTZIN
 70
     8
  9
$DIMALTZ
 70
     0
  9
$DIMALTTZ
 70
     0
  9
$DIMFIT
 70
     3
  9
$DIMUPT
 70
     0
  9
$DIMUNIT
 70
     2
  9
$DIMDEC
 70
     2
  9
$DIMTDEC
 70
     2
  9
$DIMALTU
 70
     2
  9
$DIMALTTD
 70
     3
  9
$DIMTXSTY
  7
ED_VECTOR
  9
$DIMAUNIT
 70
     0
  9
$LUNITS
 70
     2
  9
$LUPREC
 70
     4
  9
$SKETCHINC
 40
0.1
  9
$FILLETRAD
 40
0.5
  9
$AUNITS
 70
     0
  9
$AUPREC
 70
     0
  9
$MENU
  1
.
  9
$ELEVATION
 40
0.0
  9
$PELEVATION
 40
0.0
  9
$THICKNESS
 40
0.0
  9
$LIMCHECK
 70
     0
  9
$CHAMFERA
 40
0.5
  9
$CHAMFERB
 40
0.5
  9
$CHAMFERC
 40
1.0
  9
$CHAMFERD
 40
0.0
  9
$SKPOLY
 70
     0
  9
$TDCREATE
 40
2457268.414936053
  9
$TDUPDATE
 40
2457268.414936065
  9
$TDINDWG
 40
0.0000000116
  9
$TDUSRTIMER
 40
0.0000000116
  9
$USRTIMER
 70
     1
  9
$ANGBASE
 50
0.0
  9
$ANGDIR
 70
     0
  9
$PDMODE
 70
     0
  9
$PDSIZE
 40
0.0
  9
$PLINEWID
 40
0.0
  9
$COORDS
 70
     1
  9
$SPLFRAME
 70
     0
  9
$SPLINETYPE
 70
     6
  9
$SPLINESEGS
 70
     8
  9
$ATTDIA
 70
     0
  9
$ATTREQ
 70
     1
  9
$HANDLING
 70
     1
  9
$HANDSEED
  5
18D
  9
$SURFTAB1
 70
     6
  9
$SURFTAB2
 70
     6
  9
$SURFTYPE
 70
     6
  9
$SURFU
 70
     6
  9
$SURFV
 70
     6
  9
$UCSNAME
  2

  9
$UCSORG
 10
0.0
 20
0.0
 30
0.0
  9
$UCSXDIR
 10
1.0
 20
0.0
 30
0.0
  9
$UCSYDIR
 10
0.0
 20
1.0
 30
0.0
  9
$PUCSNAME
  2

  9
$PUCSORG
 10
0.0
 20
0.0
 30
0.0
  9
$PUCSXDIR
 10
1.0
 20
0.0
 30
0.0
  9
$PUCSYDIR
 10
0.0
 20
1.0
 30
0.0
  9
$USERI1
 70
     0
  9
$USERI2
 70
     0
  9
$USERI3
 70
     0
  9
$USERI4
 70
     0
  9
$USERI5
 70
     0
  9
$USERR1
 40
0.0
  9
$USERR2
 40
0.0
  9
$USERR3
 40
0.0
  9
$USERR4
 40
0.0
  9
$USERR5
 40
0.0
  9
$WORLDVIEW
 70
     1
  9
$SHADEDGE
 70
     3
  9
$SHADEDIF
 70
    70
  9
$TILEMODE
 70
     1
  9
$MAXACTVP
 70
    64
  9
$PINSBASE
 10
0.0
 20
0.0
 30
0.0
  9
$PLIMCHECK
 70
     0
  9
$PEXTMIN
 10
1.000000E+20
 20
1.000000E+20
 30
1.000000E+20
  9
$PEXTMAX
 10
-1.000000E+20
 20
-1.000000E+20
 30
-1.000000E+20
  9
$PLIMMIN
 10
0.0
 20
0.0
  9
$PLIMMAX
 10
12.0
 20
9.0
  9
$UNITMODE
 70
     0
  9
$VISRETAIN
 70
     1
  9
$PLINEGEN
 70
     0
  9
$PSLTSCALE
 70
     1
  9
$TREEDEPTH
 70
  3020
  9
$PICKSTYLE
 70
     1
  9
$CMLSTYLE
  2
STANDARD
  9
$CMLJUST
 70
     0
  9
$CMLSCALE
 40
1.0
  9
$SAVEIMAGES
 70
     1
  0
ENDSEC
  0
SECTION
  2
CLASSES
  0
CLASS
  1
ACDBDICTIONARYWDFLT
  2
AcDbDictionaryWithDefault
  3
ObjectDBX Classes
 90
    32768
280
     0
281
     0
  0
CLASS
  1
XRECORD
  2
AcDbXrecord
  3
AutoCAD 2000
 90
    32768
280
     0
281
     0
  0
CLASS
  1
LWPOLYLINE
  2
AcDbPolyline
  3
AutoCAD 2000
 90
    32768
280
     0
281
     1
  0
CLASS
  1
HATCH
  2
AcDbHatch
  3
AutoCAD 2000
 90
    32768
280
     0
281
     1
  0
CLASS
  1
ACDBPLACEHOLDER
  2
AcDbPlaceHolder
  3
ObjectDBX Classes
 90
        0
280
     0
281
     0
  0
CLASS
  1
LAYOUT
  2
AcDbLayout
  3
ObjectDBX Classes
 90
        0
280
     0
281
     0
  0
ENDSEC
  0
SECTION
  2
TABLES
  0
TABLE
  2
VPORT
  5
8
330
0
100
AcDbSymbolTable
 70
     1
  0
VPORT
  5
29
330
8
100
AcDbSymbolTableRecord
100
AcDbViewportTableRecord
  2
*ACTIVE
 70
     0
 10
0.0
 20
0.0
 11
1.0
 21
1.0
 12
133.6345
 22
53.867353
 13
0.0
 23
0.0
 14
0.5
 24
0.5
 15
0.5
 25
0.5
 16
0.0
 26
0.0
 36
1.0
 17
0.0
 27
0.0
 37
0.0
 40
107.734706
 41
2.480807
 42
50.0
 43
0.0
 44
0.0
 50
0.0
 51
0.0
 71
     0
 72
   100
 73
     1
 74
     3
 75
     0
 76
     0
 77
     0
 78
     0
  0
ENDTAB
  0
TABLE
  2
LTYPE
  5
5
330
0
100
AcDbSymbolTable
 70
     5
  0
LTYPE
  5
14
330
5
100
AcDbSymbolTableRecord
100
AcDbLinetypeTableRecord
  2
BYBLOCK
 70
     0
  3

 72
    65
 73
     0
 40
0.0
  0
LTYPE
  5
15
330
5
100
AcDbSymbolTableRecord
100
AcDbLinetypeTableRecord
  2
BYLAYER
 70
     0
  3

 72
    65
 73
     0
 40
0.0
  0
LTYPE
  5
16
330
5
100
AcDbSymbolTableRecord
100
AcDbLinetypeTableRecord
  2
CONTINUOUS
 70
     0
  3
--------------------
 72
    65
 73
     0
 40
0.0
  0
LTYPE
  5
2A
330
5
100
AcDbSymbolTableRecord
100
AcDbLinetypeTableRecord
  2
DASHED
 70
     0
  3
- - - - - - - - - - -
 72
    65
 73
     2
 40
19.1
 49
12.7
 74
     0
 49
-6.4
 74
     0
  0
LTYPE
  5
2B
330
5
100
AcDbSymbolTableRecord
100
AcDbLinetypeTableRecord
  2
CENTER
 70
     0
  3
- ･ - ･ - ･ - ･ - ･ - ･ - ･ - ･ - ･ - ･ -
 72
    65
 73
     4
 40
51.0
 49
31.8
 74
     0
 49
-6.4
 74
     0
 49
6.4
 74
     0
 49
-6.4
 74
     0
  0
LTYPE
  5
2C
330
5
100
AcDbSymbolTableRecord
100
AcDbLinetypeTableRecord
  2
PHANTOM
 70
     0
  3
- ･ ･ - ･ ･ - ･ ･ - ･ ･ - ･ ･ - ･ ･ - ･ ･ - 
 72
    65
 73
     6
 40
63.8
 49
31.8
 74
     0
 49
-6.4
 74
     0
 49
6.4
 74
     0
 49
-6.4
 74
     0
 49
6.4
 74
     0
 49
-6.4
 74
     0
  0
LTYPE
  5
2D
330
5
100
AcDbSymbolTableRecord
100
AcDbLinetypeTableRecord
  2
DOT
 70
     0
  3
・・・・・・・・・・・・・・・
 72
    65
 73
     2
 40
6.5
 49
0.1
 74
     0
 49
-6.4
 74
     0
  0
ENDTAB
  0
TABLE
  2
LAYER
  5
2
330
0
100
AcDbSymbolTable
 70
    16
  0
LAYER
  5
10
330
2
100
AcDbSymbolTableRecord
100
AcDbLayerTableRecord
  2
0
 70
     0
 62
     7
  6
CONTINUOUS
  0
LAYER
  5
2E
330
2
100
AcDbSymbolTableRecord
100
AcDbLayerTableRecord
  2
CSLAYER2
 70
     0
 62
     7
  6
CONTINUOUS
  0
ENDTAB
  0
TABLE
  2
STYLE
  5
3
330
0
100
AcDbSymbolTable
 70
     2
  0
STYLE
  5
11
330
3
100
AcDbSymbolTableRecord
100
AcDbTextStyleTableRecord
  2
STANDARD
 70
     0
 40
0.0
 41
1.0
 50
0.0
 71
     0
 42
0.2
  3
txt
  4

  0
STYLE
  5
3D
330
3
100
AcDbSymbolTableRecord
100
AcDbTextStyleTableRecord
  2
ED_VECTOR
 70
     0
 40
0.0
 41
1.0
 50
0.0
 71
     0
 42
0.2
  3
MONOTXT.SHX
  4
BIGFONT.SHX
  0
ENDTAB
  0
TABLE
  2
VIEW
  5
6
330
0
100
AcDbSymbolTable
 70
     0
  0
ENDTAB
  0
TABLE
  2
UCS
  5
7
330
0
100
AcDbSymbolTable
 70
     0
  0
ENDTAB
  0
TABLE
  2
APPID
  5
9
330
0
100
AcDbSymbolTable
 70
     1
  0
APPID
  5
12
330
9
100
AcDbSymbolTableRecord
100
AcDbRegAppTableRecord
  2
ACAD
 70
     0
  0
ENDTAB
  0
TABLE
  2
DIMSTYLE
  5
A
330
0
100
AcDbSymbolTable
 70
     2
  0
DIMSTYLE
105
27
330
A
100
AcDbSymbolTableRecord
100
AcDbDimStyleTableRecord
  2
STANDARD
 70
     0
  3

  4

  5

  6

  7

 40
1.0
 41
0.18
 42
0.0625
 43
0.38
 44
0.18
 45
0.0
 46
0.0
 47
0.0
 48
0.0
140
0.18
141
0.09
142
0.0
143
25.4
144
1.0
145
0.0
146
1.0
147
0.09
 71
     0
 72
     0
 73
     1
 74
     1
 75
     0
 76
     0
 77
     0
 78
     0
170
     0
171
     2
172
     0
173
     0
174
     0
175
     0
176
     0
177
     0
178
     0
270
     2
271
     4
272
     4
273
     2
274
     2
340
11
275
     0
280
     0
281
     0
282
     0
283
     1
284
     0
285
     0
286
     0
287
     3
288
     0
  0
DIMSTYLE
105
6E
330
A
100
AcDbSymbolTableRecord
100
AcDbDimStyleTableRecord
  2
EDDIMINFO
 70
     0
  3

  4

  5

  6
EDTIP_ARROW_S
  7
EDTIP_ARROW_E
 40
1.0
 41
3.0
 42
1.0
 43
10.0
 44
1.0
 45
0.0
 46
5.0
 47
0.0
 48
0.0
140
4.0
141
2.5
142
0.0
143
0.03937
144
1.0
145
0.0
146
1.0
147
1.0
 71
     0
 72
     0
 73
     0
 74
     0
 75
     0
 76
     0
 77
     1
 78
     8
170
     0
171
     3
172
     1
173
     1
174
     0
175
     0
176
     7
177
     7
178
     7
179
     2
270
     2
271
     2
272
     2
273
     2
274
     3
340
3D
275
     0
280
     0
281
     0
282
     0
283
     0
284
     8
285
     0
286
     0
287
     3
288
     0
  0
ENDTAB
  0
TABLE
  2
BLOCK_RECORD
  5
1
330
0
100
AcDbSymbolTable
 70
    15
  0
BLOCK_RECORD
  5
1F
330
1
100
AcDbSymbolTableRecord
100
AcDbBlockTableRecord
  2
*MODEL_SPACE
  0
BLOCK_RECORD
  5
1B
330
1
100
AcDbSymbolTableRecord
100
AcDbBlockTableRecord
  2
*PAPER_SPACE
  0
BLOCK_RECORD
  5
3E
330
1
100
AcDbSymbolTableRecord
100
AcDbBlockTableRecord
  2
EDTIP_ARROW_S
  0
BLOCK_RECORD
  5
44
330
1
100
AcDbSymbolTableRecord
100
AcDbBlockTableRecord
  2
EDTIP_ARROW_E
  0
BLOCK_RECORD
  5
4A
330
1
100
AcDbSymbolTableRecord
100
AcDbBlockTableRecord
  2
EDTIP_BLACKDOT_S
  0
BLOCK_RECORD
  5
50
330
1
100
AcDbSymbolTableRecord
100
AcDbBlockTableRecord
  2
EDTIP_BLACKDOT_E
  0
BLOCK_RECORD
  5
56
330
1
100
AcDbSymbolTableRecord
100
AcDbBlockTableRecord
  2
EDTIP_ARCHITECT_S
  0
BLOCK_RECORD
  5
5C
330
1
100
AcDbSymbolTableRecord
100
AcDbBlockTableRecord
  2
EDTIP_ARCHITECT_E
  0
BLOCK_RECORD
  5
62
330
1
100
AcDbSymbolTableRecord
100
AcDbBlockTableRecord
  2
EDTIP_CIVIL_S
  0
BLOCK_RECORD
  5
68
330
1
100
AcDbSymbolTableRecord
100
AcDbBlockTableRecord
  2
EDTIP_CIVIL_E
  0
BLOCK_RECORD
  5
BF
330
1
100
AcDbSymbolTableRecord
100
AcDbBlockTableRecord
  2
BLKF011
  0
BLOCK_RECORD
  5
CC
330
1
100
AcDbSymbolTableRecord
100
AcDbBlockTableRecord
  2
BLKF012
  0
BLOCK_RECORD
  5
135
330
1
100
AcDbSymbolTableRecord
100
AcDbBlockTableRecord
  2
BLKF013
  0
BLOCK_RECORD
  5
143
330
1
100
AcDbSymbolTableRecord
100
AcDbBlockTableRecord
  2
BLKF014
  0
BLOCK_RECORD
  5
152
330
1
100
AcDbSymbolTableRecord
100
AcDbBlockTableRecord
  2
BLKF015
  0
BLOCK_RECORD
  5
16C
330
1
100
AcDbSymbolTableRecord
100
AcDbBlockTableRecord
  2
BLKF016
  0
ENDTAB
  0
ENDSEC
  0
SECTION
  2
BLOCKS
  0
BLOCK
  5
20
330
1F
100
AcDbEntity
  8
0
100
AcDbBlockBegin
  2
*MODEL_SPACE
 70
     0
 71
     0
 10
0.0
 20
0.0
 30
0.0
  3
*MODEL_SPACE
  1

  0
ENDBLK
  5
21
330
1F
100
AcDbEntity
  8
0
100
AcDbBlockEnd
  0
BLOCK
  5
1C
330
1B
100
AcDbEntity
 67
     1
  8
0
100
AcDbBlockBegin
  2
*PAPER_SPACE
 70
     0
 71
     0
 10
0.0
 20
0.0
 30
0.0
  3
*PAPER_SPACE
  1

  0
ENDBLK
  5
1D
330
1B
100
AcDbEntity
 67
     1
  8
0
100
AcDbBlockEnd
  0
BLOCK
  5
3F
330
3E
100
AcDbEntity
  8
0
100
AcDbBlockBegin
  2
EDTIP_ARROW_S
 70
     0
 71
     0
 10
0.0
 20
0.0
 30
0.0
  3
EDTIP_ARROW_S
  1

  0
LINE
  5
41
330
3E
100
AcDbEntity
  8
0
  6
CONTINUOUS
 62
     0
100
AcDbLine
 10
0.0
 20
0.0
 30
0.0
 11
-1.0
 21
0.0
 31
0.0
  0
LINE
  5
42
330
3E
100
AcDbEntity
  8
0
  6
CONTINUOUS
 62
     0
100
AcDbLine
 10
0.0
 20
0.0
 30
0.0
 11
-0.965926
 21
0.258819
 31
0.0
  0
LINE
  5
43
330
3E
100
AcDbEntity
  8
0
  6
CONTINUOUS
 62
     0
100
AcDbLine
 10
0.0
 20
0.0
 30
0.0
 11
-0.965926
 21
-0.258819
 31
0.0
  0
ENDBLK
  5
40
330
3E
100
AcDbEntity
  8
0
100
AcDbBlockEnd
  0
BLOCK
  5
45
330
44
100
AcDbEntity
  8
0
100
AcDbBlockBegin
  2
EDTIP_ARROW_E
 70
     0
 71
     0
 10
0.0
 20
0.0
 30
0.0
  3
EDTIP_ARROW_E
  1

  0
LINE
  5
47
330
44
100
AcDbEntity
  8
0
  6
CONTINUOUS
 62
     0
100
AcDbLine
 10
0.0
 20
0.0
 30
0.0
 11
-1.0
 21
0.0
 31
0.0
  0
LINE
  5
48
330
44
100
AcDbEntity
  8
0
  6
CONTINUOUS
 62
     0
100
AcDbLine
 10
0.0
 20
0.0
 30
0.0
 11
-0.965926
 21
-0.258819
 31
0.0
  0
LINE
  5
49
330
44
100
AcDbEntity
  8
0
  6
CONTINUOUS
 62
     0
100
AcDbLine
 10
0.0
 20
0.0
 30
0.0
 11
-0.965926
 21
0.258819
 31
0.0
  0
ENDBLK
  5
46
330
44
100
AcDbEntity
  8
0
100
AcDbBlockEnd
  0
BLOCK
  5
4B
330
4A
100
AcDbEntity
  8
0
100
AcDbBlockBegin
  2
EDTIP_BLACKDOT_S
 70
     0
 71
     0
 10
0.0
 20
0.0
 30
0.0
  3
EDTIP_BLACKDOT_S
  1

  0
LINE
  5
4D
330
4A
100
AcDbEntity
  8
0
  6
CONTINUOUS
 62
     0
100
AcDbLine
 10
0.0
 20
0.0
 30
0.0
 11
-1.0
 21
0.0
 31
0.0
  0
CIRCLE
  5
4E
330
4A
100
AcDbEntity
  8
0
  6
CONTINUOUS
 62
     0
100
AcDbCircle
 10
0.0
 20
0.0
 30
0.0
 40
0.5
  0
CIRCLE
  5
4F
330
4A
100
AcDbEntity
  8
0
  6
CONTINUOUS
 62
     0
100
AcDbCircle
 10
0.0
 20
0.0
 30
0.0
 40
0.25
  0
ENDBLK
  5
4C
330
4A
100
AcDbEntity
  8
0
100
AcDbBlockEnd
  0
BLOCK
  5
51
330
50
100
AcDbEntity
  8
0
100
AcDbBlockBegin
  2
EDTIP_BLACKDOT_E
 70
     0
 71
     0
 10
0.0
 20
0.0
 30
0.0
  3
EDTIP_BLACKDOT_E
  1

  0
LINE
  5
53
330
50
100
AcDbEntity
  8
0
  6
CONTINUOUS
 62
     0
100
AcDbLine
 10
0.0
 20
0.0
 30
0.0
 11
-1.0
 21
0.0
 31
0.0
  0
CIRCLE
  5
54
330
50
100
AcDbEntity
  8
0
  6
CONTINUOUS
 62
     0
100
AcDbCircle
 10
0.0
 20
0.0
 30
0.0
 40
0.5
  0
CIRCLE
  5
55
330
50
100
AcDbEntity
  8
0
  6
CONTINUOUS
 62
     0
100
AcDbCircle
 10
0.0
 20
0.0
 30
0.0
 40
0.25
  0
ENDBLK
  5
52
330
50
100
AcDbEntity
  8
0
100
AcDbBlockEnd
  0
BLOCK
  5
57
330
56
100
AcDbEntity
  8
0
100
AcDbBlockBegin
  2
EDTIP_ARCHITECT_S
 70
     0
 71
     0
 10
0.0
 20
0.0
 30
0.0
  3
EDTIP_ARCHITECT_S
  1

  0
LINE
  5
59
330
56
100
AcDbEntity
  8
0
  6
CONTINUOUS
 62
     0
100
AcDbLine
 10
0.0
 20
0.0
 30
0.0
 11
-1.0
 21
0.0
 31
0.0
  0
LINE
  5
5A
330
56
100
AcDbEntity
  8
0
  6
CONTINUOUS
 62
     0
100
AcDbLine
 10
0.0
 20
0.0
 30
0.0
 11
-0.707107
 21
-0.707107
 31
0.0
  0
LINE
  5
5B
330
56
100
AcDbEntity
  8
0
  6
CONTINUOUS
 62
     0
100
AcDbLine
 10
0.0
 20
0.0
 30
0.0
 11
0.707107
 21
0.707107
 31
0.0
  0
ENDBLK
  5
58
330
56
100
AcDbEntity
  8
0
100
AcDbBlockEnd
  0
BLOCK
  5
5D
330
5C
100
AcDbEntity
  8
0
100
AcDbBlockBegin
  2
EDTIP_ARCHITECT_E
 70
     0
 71
     0
 10
0.0
 20
0.0
 30
0.0
  3
EDTIP_ARCHITECT_E
  1

  0
LINE
  5
5F
330
5C
100
AcDbEntity
  8
0
  6
CONTINUOUS
 62
     0
100
AcDbLine
 10
0.0
 20
0.0
 30
0.0
 11
-1.0
 21
0.0
 31
0.0
  0
LINE
  5
60
330
5C
100
AcDbEntity
  8
0
  6
CONTINUOUS
 62
     0
100
AcDbLine
 10
0.0
 20
0.0
 30
0.0
 11
-0.707107
 21
-0.707107
 31
0.0
  0
LINE
  5
61
330
5C
100
AcDbEntity
  8
0
  6
CONTINUOUS
 62
     0
100
AcDbLine
 10
0.0
 20
0.0
 30
0.0
 11
0.707107
 21
0.707107
 31
0.0
  0
ENDBLK
  5
5E
330
5C
100
AcDbEntity
  8
0
100
AcDbBlockEnd
  0
BLOCK
  5
63
330
62
100
AcDbEntity
  8
0
100
AcDbBlockBegin
  2
EDTIP_CIVIL_S
 70
     0
 71
     0
 10
0.0
 20
0.0
 30
0.0
  3
EDTIP_CIVIL_S
  1

  0
LINE
  5
65
330
62
100
AcDbEntity
  8
0
  6
CONTINUOUS
 62
     0
100
AcDbLine
 10
0.0
 20
0.0
 30
0.0
 11
-1.0
 21
0.0
 31
0.0
  0
LINE
  5
66
330
62
100
AcDbEntity
  8
0
  6
CONTINUOUS
 62
     0
100
AcDbLine
 10
0.0
 20
-0.083333
 30
0.0
 11
-1.0
 21
-0.083333
 31
0.0
  0
LINE
  5
67
330
62
100
AcDbEntity
  8
0
  6
CONTINUOUS
 62
     0
100
AcDbLine
 10
0.0
 20
-0.166667
 30
0.0
 11
-1.0
 21
-0.166667
 31
0.0
  0
ENDBLK
  5
64
330
62
100
AcDbEntity
  8
0
100
AcDbBlockEnd
  0
BLOCK
  5
69
330
68
100
AcDbEntity
  8
0
100
AcDbBlockBegin
  2
EDTIP_CIVIL_E
 70
     0
 71
     0
 10
0.0
 20
0.0
 30
0.0
  3
EDTIP_CIVIL_E
  1

  0
LINE
  5
6B
330
68
100
AcDbEntity
  8
0
  6
CONTINUOUS
 62
     0
100
AcDbLine
 10
0.0
 20
0.0
 30
0.0
 11
-1.0
 21
0.0
 31
0.0
  0
LINE
  5
6C
330
68
100
AcDbEntity
  8
0
  6
CONTINUOUS
 62
     0
100
AcDbLine
 10
0.0
 20
0.083333
 30
0.0
 11
-1.0
 21
0.083333
 31
0.0
  0
LINE
  5
6D
330
68
100
AcDbEntity
  8
0
  6
CONTINUOUS
 62
     0
100
AcDbLine
 10
0.0
 20
0.166667
 30
0.0
 11
-1.0
 21
0.166667
 31
0.0
  0
ENDBLK
  5
6A
330
68
100
AcDbEntity
  8
0
100
AcDbBlockEnd
  0
BLOCK
  5
C0
330
BF
100
AcDbEntity
  8
0
100
AcDbBlockBegin
  2
BLKF011
 70
     0
 71
     0
 10
0.0
 20
0.0
 30
0.0
  3
BLKF011
  1

  0
TEXT
  5
C3
330
BF
100
AcDbEntity
  8
CSLAYER2
 62
     4
100
AcDbText
 10
112.737396
 20
41.939709
 30
0.0
 40
2.8
  1
(
 41
1.145455
  7
ED_VECTOR
 72
     5
 11
114.417396
 21
41.939709
 31
0.0
100
AcDbText
  0
TEXT
  5
C4
330
BF
100
AcDbEntity
  8
CSLAYER2
 62
     4
100
AcDbText
 10
115.257401
 20
41.939709
 30
0.0
 40
2.8
  1
27.8
 41
1.034328
  7
ED_VECTOR
 72
     5
 11
124.497398
 21
41.939709
 31
0.0
100
AcDbText
  0
TEXT
  5
C5
330
BF
100
AcDbEntity
  8
CSLAYER2
 62
     4
100
AcDbText
 10
125.337402
 20
41.939709
 30
0.0
 40
2.8
  1
)
 41
1.26
  7
ED_VECTOR
 72
     5
 11
127.017402
 21
41.939709
 31
0.0
100
AcDbText
  0
LINE
  5
C6
330
BF
100
AcDbEntity
  8
CSLAYER2
  6
CONTINUOUS
 62
     4
100
AcDbLine
 10
107.969
 20
40.034706
 30
0.0
 11
105.969
 21
39.734706
 31
0.0
  0
LINE
  5
C7
330
BF
100
AcDbEntity
  8
CSLAYER2
  6
CONTINUOUS
 62
     4
100
AcDbLine
 10
105.969
 20
39.734706
 30
0.0
 11
107.969
 21
39.434706
 31
0.0
  0
LINE
  5
C8
330
BF
100
AcDbEntity
  8
CSLAYER2
  6
CONTINUOUS
 62
     4
100
AcDbLine
 10
105.969
 20
39.734706
 30
0.0
 11
133.769
 21
39.734706
 31
0.0
  0
LINE
  5
C9
330
BF
100
AcDbEntity
  8
CSLAYER2
  6
CONTINUOUS
 62
     4
100
AcDbLine
 10
131.769
 20
39.434706
 30
0.0
 11
133.769
 21
39.734706
 31
0.0
  0
LINE
  5
CA
330
BF
100
AcDbEntity
  8
CSLAYER2
  6
CONTINUOUS
 62
     4
100
AcDbLine
 10
133.769
 20
39.734706
 30
0.0
 11
131.769
 21
40.034706
 31
0.0
  0
LINE
  5
CB
330
BF
100
AcDbEntity
  8
CSLAYER2
  6
CONTINUOUS
 62
     4
100
AcDbLine
 10
133.769
 20
58.084706
 30
0.0
 11
133.769
 21
37.734706
 31
0.0
  0
ENDBLK
  5
C1
330
BF
100
AcDbEntity
  8
0
100
AcDbBlockEnd
  0
BLOCK
  5
CD
330
CC
100
AcDbEntity
  8
0
100
AcDbBlockBegin
  2
BLKF012
 70
     0
 71
     0
 10
0.0
 20
0.0
 30
0.0
  3
BLKF012
  1

  0
TEXT
  5
D0
330
CC
100
AcDbEntity
  8
CSLAYER2
 62
     4
100
AcDbText
 10
115.523224
 20
63.220737
 30
0.0
 40
2.8
  1
φ
 50
90.0
 41
1.679999
  7
ED_VECTOR
 72
     5
 11
115.523224
 21
66.580736
 31
0.0
100
AcDbText
  0
TEXT
  5
D1
330
CC
100
AcDbEntity
  8
CSLAYER2
 62
     4
100
AcDbText
 10
115.523224
 20
68.260735
 30
0.0
 40
2.8
  1
29.9
 50
90.0
 41
1.05
  7
ED_VECTOR
 72
     5
 11
115.523224
 21
77.500734
 31
0.0
100
AcDbText
  0
LINE
  5
D2
330
CC
100
AcDbEntity
  8
CSLAYER2
  6
CONTINUOUS
 62
     4
100
AcDbLine
 10
118.028223
 20
85.684706
 30
0.0
 11
117.728223
 21
87.684706
 31
0.0
  0
LINE
  5
D3
330
CC
100
AcDbEntity
  8
CSLAYER2
  6
CONTINUOUS
 62
     4
100
AcDbLine
 10
117.728223
 20
87.684706
 30
0.0
 11
117.428223
 21
85.684706
 31
0.0
  0
LINE
  5
D4
330
CC
100
AcDbEntity
  8
CSLAYER2
  6
CONTINUOUS
 62
     4
100
AcDbLine
 10
117.728223
 20
87.684706
 30
0.0
 11
117.728223
 21
57.784706
 31
0.0
  0
LINE
  5
D5
330
CC
100
AcDbEntity
  8
CSLAYER2
  6
CONTINUOUS
 62
     4
100
AcDbLine
 10
117.428223
 20
59.784706
 30
0.0
 11
117.728223
 21
57.784706
 31
0.0
  0
LINE
  5
D6
330
CC
100
AcDbEntity
  8
CSLAYER2
  6
CONTINUOUS
 62
     4
100
AcDbLine
 10
117.728223
 20
57.784706
 30
0.0
 11
118.028223
 21
59.784706
 31
0.0
  0
ENDBLK
  5
CE
330
CC
100
AcDbEntity
  8
0
100
AcDbBlockEnd
  0
BLOCK
  5
136
330
135
100
AcDbEntity
  8
0
100
AcDbBlockBegin
  2
BLKF013
 70
     0
 71
     0
 10
0.0
 20
0.0
 30
0.0
  3
BLKF013
  1

  0
TEXT
  5
139
330
135
100
AcDbEntity
  8
CSLAYER2
 62
     4
100
AcDbText
 10
173.697403
 20
33.939705
 30
0.0
 40
2.8
  1
(
 41
1.145455
  7
ED_VECTOR
 72
     5
 11
175.377403
 21
33.939705
 31
0.0
100
AcDbText
  0
TEXT
  5
13A
330
135
100
AcDbEntity
  8
CSLAYER2
 62
     4
100
AcDbText
 10
176.217407
 20
33.939705
 30
0.0
 40
2.8
  1
300
 41
0.884211
  7
ED_VECTOR
 72
     5
 11
182.937407
 21
33.939705
 31
0.0
100
AcDbText
  0
TEXT
  5
13B
330
135
100
AcDbEntity
  8
CSLAYER2
 62
     4
100
AcDbText
 10
183.777405
 20
33.939705
 30
0.0
 40
2.8
  1
)
 41
1.26
  7
ED_VECTOR
 72
     5
 11
185.457405
 21
33.939705
 31
0.0
100
AcDbText
  0
LINE
  5
13C
330
135
100
AcDbEntity
  8
CSLAYER2
  6
CONTINUOUS
 62
     4
100
AcDbLine
 10
133.769
 20
58.084706
 30
0.0
 11
133.769
 21
29.734706
 31
0.0
  0
LINE
  5
13D
330
135
100
AcDbEntity
  8
CSLAYER2
  6
CONTINUOUS
 62
     4
100
AcDbLine
 10
135.769
 20
32.034706
 30
0.0
 11
133.769
 21
31.734706
 31
0.0
  0
LINE
  5
13E
330
135
100
AcDbEntity
  8
CSLAYER2
  6
CONTINUOUS
 62
     4
100
AcDbLine
 10
133.769
 20
31.734706
 30
0.0
 11
135.769
 21
31.434706
 31
0.0
  0
LINE
  5
13F
330
135
100
AcDbEntity
  8
CSLAYER2
  6
CONTINUOUS
 62
     4
100
AcDbLine
 10
133.769
 20
31.734706
 30
0.0
 11
225.369
 21
31.734706
 31
0.0
  0
LINE
  5
140
330
135
100
AcDbEntity
  8
CSLAYER2
  6
CONTINUOUS
 62
     4
100
AcDbLine
 10
223.369
 20
31.434706
 30
0.0
 11
225.369
 21
31.734706
 31
0.0
  0
LINE
  5
141
330
135
100
AcDbEntity
  8
CSLAYER2
  6
CONTINUOUS
 62
     4
100
AcDbLine
 10
225.369
 20
31.734706
 30
0.0
 11
223.369
 21
32.034706
 31
0.0
  0
LINE
  5
142
330
135
100
AcDbEntity
  8
CSLAYER2
  6
CONTINUOUS
 62
     4
100
AcDbLine
 10
225.369
 20
63.484706
 30
0.0
 11
225.369
 21
29.734706
 31
0.0
  0
ENDBLK
  5
137
330
135
100
AcDbEntity
  8
0
100
AcDbBlockEnd
  0
BLOCK
  5
144
330
143
100
AcDbEntity
  8
0
100
AcDbBlockBegin
  2
BLKF014
 70
     0
 71
     0
 10
0.0
 20
0.0
 30
0.0
  3
BLKF014
  1

  0
TEXT
  5
147
330
143
100
AcDbEntity
  8
CSLAYER2
 62
     4
100
AcDbText
 10
243.063995
 20
65.603104
 30
0.0
 40
2.8
  1
φ
 50
90.0
 41
1.679999
  7
ED_VECTOR
 72
     5
 11
243.063995
 21
68.963103
 31
0.0
100
AcDbText
  0
TEXT
  5
148
330
143
100
AcDbEntity
  8
CSLAYER2
 62
     4
100
AcDbText
 10
243.063995
 20
70.643105
 30
0.0
 40
2.8
  1
18.5
 50
90.0
 41
1.034328
  7
ED_VECTOR
 72
     5
 11
243.063995
 21
79.883104
 31
0.0
100
AcDbText
  0
LINE
  5
149
330
143
100
AcDbEntity
  8
CSLAYER2
  6
CONTINUOUS
 62
     4
100
AcDbLine
 10
225.369
 20
81.984706
 30
0.0
 11
247.269
 21
81.984706
 31
0.0
  0
LINE
  5
14A
330
143
100
AcDbEntity
  8
CSLAYER2
  6
CONTINUOUS
 62
     4
100
AcDbLine
 10
245.569
 20
79.984706
 30
0.0
 11
245.269
 21
81.984706
 31
0.0
  0
LINE
  5
14B
330
143
100
AcDbEntity
  8
CSLAYER2
  6
CONTINUOUS
 62
     4
100
AcDbLine
 10
245.269
 20
81.984706
 30
0.0
 11
244.969
 21
79.984706
 31
0.0
  0
LINE
  5
14C
330
143
100
AcDbEntity
  8
CSLAYER2
  6
CONTINUOUS
 62
     4
100
AcDbLine
 10
245.269
 20
81.984706
 30
0.0
 11
245.269
 21
63.484706
 31
0.0
  0
LINE
  5
14D
330
143
100
AcDbEntity
  8
CSLAYER2
  6
CONTINUOUS
 62
     4
100
AcDbLine
 10
244.969
 20
65.484706
 30
0.0
 11
245.269
 21
63.484706
 31
0.0
  0
LINE
  5
14E
330
143
100
AcDbEntity
  8
CSLAYER2
  6
CONTINUOUS
 62
     4
100
AcDbLine
 10
245.269
 20
63.484706
 30
0.0
 11
245.569
 21
65.484706
 31
0.0
  0
LINE
  5
14F
330
143
100
AcDbEntity
  8
CSLAYER2
  6
CONTINUOUS
 62
     4
100
AcDbLine
 10
225.369
 20
63.484706
 30
0.0
 11
247.269
 21
63.484706
 31
0.0
  0
ENDBLK
  5
145
330
143
100
AcDbEntity
  8
0
100
AcDbBlockEnd
  0
BLOCK
  5
153
330
152
100
AcDbEntity
  8
0
100
AcDbBlockBegin
  2
BLKF015
 70
     0
 71
     0
 10
0.0
 20
0.0
 30
0.0
  3
BLKF015
  1

  0
TEXT
  5
156
330
152
100
AcDbEntity
  8
CSLAYER2
 62
     4
100
AcDbText
 10
134.657394
 20
41.939709
 30
0.0
 40
2.8
  1
(
 41
1.145455
  7
ED_VECTOR
 72
     5
 11
136.337394
 21
41.939709
 31
0.0
100
AcDbText
  0
TEXT
  5
157
330
152
100
AcDbEntity
  8
CSLAYER2
 62
     4
100
AcDbText
 10
137.177399
 20
41.939709
 30
0.0
 40
2.8
  1
11
 41
1.016129
  7
ED_VECTOR
 72
     5
 11
141.377398
 21
41.939709
 31
0.0
100
AcDbText
  0
TEXT
  5
158
330
152
100
AcDbEntity
  8
CSLAYER2
 62
     4
100
AcDbText
 10
142.217407
 20
41.939709
 30
0.0
 40
2.8
  1
)
 41
1.26
  7
ED_VECTOR
 72
     5
 11
143.897407
 21
41.939709
 31
0.0
100
AcDbText
  0
LINE
  5
159
330
152
100
AcDbEntity
  8
CSLAYER2
  6
CONTINUOUS
 62
     4
100
AcDbLine
 10
133.769
 20
58.084706
 30
0.0
 11
133.769
 21
37.734706
 31
0.0
  0
LINE
  5
15A
330
152
100
AcDbEntity
  8
CSLAYER2
  6
CONTINUOUS
 62
     4
100
AcDbLine
 10
135.769
 20
40.034706
 30
0.0
 11
133.769
 21
39.734706
 31
0.0
  0
LINE
  5
15B
330
152
100
AcDbEntity
  8
CSLAYER2
  6
CONTINUOUS
 62
     4
100
AcDbLine
 10
133.769
 20
39.734706
 30
0.0
 11
135.769
 21
39.434706
 31
0.0
  0
LINE
  5
15C
330
152
100
AcDbEntity
  8
CSLAYER2
  6
CONTINUOUS
 62
     4
100
AcDbLine
 10
133.769
 20
39.734706
 30
0.0
 11
144.769
 21
39.734706
 31
0.0
  0
LINE
  5
15D
330
152
100
AcDbEntity
  8
CSLAYER2
  6
CONTINUOUS
 62
     4
100
AcDbLine
 10
142.769
 20
39.434706
 30
0.0
 11
144.769
 21
39.734706
 31
0.0
  0
LINE
  5
15E
330
152
100
AcDbEntity
  8
CSLAYER2
  6
CONTINUOUS
 62
     4
100
AcDbLine
 10
144.769
 20
39.734706
 30
0.0
 11
142.769
 21
40.034706
 31
0.0
  0
LINE
  5
15F
330
152
100
AcDbEntity
  8
CSLAYER2
  6
CONTINUOUS
 62
     4
100
AcDbLine
 10
144.769
 20
66.984706
 30
0.0
 11
144.769
 21
37.734706
 31
0.0
  0
ENDBLK
  5
154
330
152
100
AcDbEntity
  8
0
100
AcDbBlockEnd
  0
BLOCK
  5
16D
330
16C
100
AcDbEntity
  8
0
100
AcDbBlockBegin
  2
BLKF016
 70
     0
 71
     0
 10
0.0
 20
0.0
 30
0.0
  3
BLKF016
  1

  0
TEXT
  5
170
330
16C
100
AcDbEntity
  8
CSLAYER2
 62
     4
100
AcDbText
 10
23.164
 20
64.771507
 30
0.0
 40
2.8
  1
φ
 50
90.0
 41
1.68
  7
ED_VECTOR
 72
     5
 11
23.164
 21
68.131507
 31
0.0
100
AcDbText
  0
TEXT
  5
171
330
16C
100
AcDbEntity
  8
CSLAYER2
 62
     4
100
AcDbText
 10
23.164
 20
69.811508
 30
0.0
 40
2.8
  1
30
 50
90.0
 41
0.851351
  7
ED_VECTOR
 72
     5
 11
23.164
 21
74.011508
 31
0.0
100
AcDbText
  0
TEXT
  5
172
330
16C
100
AcDbEntity
  8
CSLAYER2
 62
     4
100
AcDbText
 10
21.4
 20
74.851501
 30
0.0
 40
1.4
  1
-0.02
 50
90.0
 41
1.287097
  7
ED_VECTOR
 72
     5
 11
21.4
 21
82.831501
 31
0.0
100
AcDbText
  0
TEXT
  5
173
330
16C
100
AcDbEntity
  8
CSLAYER2
 62
     4
100
AcDbText
 10
23.542
 20
74.851501
 30
0.0
 40
1.4
  1
-0.03
 50
90.0
 41
1.287097
  7
ED_VECTOR
 72
     5
 11
23.542
 21
82.831501
 31
0.0
100
AcDbText
  0
LINE
  5
174
330
16C
100
AcDbEntity
  8
CSLAYER2
  6
CONTINUOUS
 62
     4
100
AcDbLine
 10
37.269
 20
87.734706
 30
0.0
 11
23.369
 21
87.734706
 31
0.0
  0
LINE
  5
175
330
16C
100
AcDbEntity
  8
CSLAYER2
  6
CONTINUOUS
 62
     4
100
AcDbLine
 10
25.669
 20
85.734706
 30
0.0
 11
25.369
 21
87.734706
 31
0.0
  0
LINE
  5
176
330
16C
100
AcDbEntity
  8
CSLAYER2
  6
CONTINUOUS
 62
     4
100
AcDbLine
 10
25.369
 20
87.734706
 30
0.0
 11
25.069
 21
85.734706
 31
0.0
  0
LINE
  5
177
330
16C
100
AcDbEntity
  8
CSLAYER2
  6
CONTINUOUS
 62
     4
100
AcDbLine
 10
25.369
 20
87.734706
 30
0.0
 11
25.369
 21
57.734706
 31
0.0
  0
LINE
  5
178
330
16C
100
AcDbEntity
  8
CSLAYER2
  6
CONTINUOUS
 62
     4
100
AcDbLine
 10
25.069
 20
59.734706
 30
0.0
 11
25.369
 21
57.734706
 31
0.0
  0
LINE
  5
179
330
16C
100
AcDbEntity
  8
CSLAYER2
  6
CONTINUOUS
 62
     4
100
AcDbLine
 10
25.369
 20
57.734706
 30
0.0
 11
25.669
 21
59.734706
 31
0.0
  0
LINE
  5
17A
330
16C
100
AcDbEntity
  8
CSLAYER2
  6
CONTINUOUS
 62
     4
100
AcDbLine
 10
37.269
 20
57.734706
 30
0.0
 11
23.369
 21
57.734706
 31
0.0
  0
ENDBLK
  5
16E
330
16C
100
AcDbEntity
  8
0
100
AcDbBlockEnd
  0
ENDSEC
  0
SECTION
  2
ENTITIES
  0
LINE
  5
6F
330
1F
100
AcDbEntity
  8
CSLAYER2
  6
CONTINUOUS
 62
     6
100
AcDbLine
 10
37.269
 20
87.734706
 30
0.0
 11
37.169
 21
87.634706
 31
0.0
  0
LINE
  5
70
330
1F
100
AcDbEntity
  8
CSLAYER2
  6
CONTINUOUS
 62
     6
100
AcDbLine
 10
105.869
 20
87.734706
 30
0.0
 11
105.969
 21
87.634706
 31
0.0
  0
LINE
  5
71
330
1F
100
AcDbEntity
  8
CSLAYER2
  6
CONTINUOUS
 62
     6
100
AcDbLine
 10
105.969
 20
57.834706
 30
0.0
 11
105.969
 21
87.634706
 31
0.0
  0
LINE
  5
72
330
1F
100
AcDbEntity
  8
CSLAYER2
  6
CONTINUOUS
 62
     6
100
AcDbLine
 10
105.869
 20
87.734706
 30
0.0
 11
37.269
 21
87.734706
 31
0.0
  0
LINE
  5
73
330
1F
100
AcDbEntity
  8
CSLAYER2
  6
CONTINUOUS
 62
     6
100
AcDbLine
 10
105.869
 20
57.734706
 30
0.0
 11
105.969
 21
57.834706
 31
0.0
  0
LINE
  5
74
330
1F
100
AcDbEntity
  8
CSLAYER2
  6
CONTINUOUS
 62
     6
100
AcDbLine
 10
105.869
 20
57.734706
 30
0.0
 11
37.269
 21
57.734706
 31
0.0
  0
LINE
  5
75
330
1F
100
AcDbEntity
  8
CSLAYER2
  6
CONTINUOUS
 62
     6
100
AcDbLine
 10
52.869
 20
79.273054
 30
0.0
 11
52.869
 21
66.196358
 31
0.0
  0
LINE
  5
76
330
1F
100
AcDbEntity
  8
CSLAYER2
  6
CONTINUOUS
 62
     6
100
AcDbLine
 10
49.369
 20
79.273054
 30
0.0
 11
49.369
 21
66.196358
 31
0.0
  0
LINE
  5
77
330
1F
100
AcDbEntity
  8
CSLAYER2
  6
CONTINUOUS
 62
     6
100
AcDbLine
 10
52.869
 20
66.196358
 30
0.0
 11
49.369
 21
66.196358
 31
0.0
  0
ARC
  5
78
330
1F
100
AcDbEntity
  8
CSLAYER2
  6
CONTINUOUS
 62
     6
100
AcDbCircle
 10
28.620289
 20
72.734706
 30
0.0
 40
25.114736709
100
AcDbArc
 50
-15.090185
 51
15.090185
  0
ARC
  5
79
330
1F
100
AcDbEntity
  8
CSLAYER2
  6
CONTINUOUS
 62
     6
100
AcDbCircle
 10
73.617711
 20
72.734706
 30
0.0
 40
25.114736709
100
AcDbArc
 50
164.909815
 51
195.090185
  0
LINE
  5
7A
330
1F
100
AcDbEntity
  8
CSLAYER2
  6
CENTER
 62
     1
100
AcDbLine
 10
34.369
 20
72.734706
 30
0.0
 11
236.269
 21
72.734706
 31
0.0
  0
LINE
  5
7B
330
1F
100
AcDbEntity
  8
CSLAYER2
  6
CONTINUOUS
 62
     6
100
AcDbLine
 10
134.769
 20
79.234706
 30
0.0
 11
134.769
 21
66.234706
 31
0.0
  0
ARC
  5
7C
330
1F
100
AcDbEntity
  8
CSLAYER2
  6
CONTINUOUS
 62
     4
100
AcDbCircle
 10
169.769
 20
83.334706
 30
0.0
 40
1.0
100
AcDbArc
 50
-53.130102
 51
53.130102
  0
LINE
  5
7D
330
1F
100
AcDbEntity
  8
CSLAYER2
  6
CONTINUOUS
 62
     6
100
AcDbLine
 10
105.969
 20
87.684706
 30
0.0
 11
105.969
 21
57.784706
 31
0.0
  0
ARC
  5
7E
330
1F
100
AcDbEntity
  8
CSLAYER2
  6
CONTINUOUS
 62
     6
100
AcDbCircle
 10
106.578024
 20
72.734706
 30
0.0
 40
24.999266656
100
AcDbArc
 50
-14.609483
 51
14.609483
  0
ARC
  5
7F
330
1F
100
AcDbEntity
  8
CSLAYER2
  6
CONTINUOUS
 62
     6
100
AcDbCircle
 10
151.459976
 20
72.734706
 30
0.0
 40
24.999266656
100
AcDbArc
 50
165.390517
 51
194.609483
  0
LINE
  5
80
330
1F
100
AcDbEntity
  8
CSLAYER2
  6
CONTINUOUS
 62
     6
100
AcDbLine
 10
130.769
 20
66.429153
 30
0.0
 11
130.769
 21
79.040259
 31
0.0
  0
LINE
  5
81
330
1F
100
AcDbEntity
  8
CSLAYER2
  6
CONTINUOUS
 62
     6
100
AcDbLine
 10
127.269
 20
79.040259
 30
0.0
 11
127.269
 21
66.429153
 31
0.0
  0
LINE
  5
82
330
1F
100
AcDbEntity
  8
CSLAYER2
  6
CONTINUOUS
 62
     6
100
AcDbLine
 10
127.269
 20
66.429153
 30
0.0
 11
130.769
 21
66.429153
 31
0.0
  0
LINE
  5
83
330
1F
100
AcDbEntity
  8
CSLAYER2
  6
CONTINUOUS
 62
     6
100
AcDbLine
 10
127.269
 20
79.040259
 30
0.0
 11
130.769
 21
79.040259
 31
0.0
  0
LINE
  5
84
330
1F
100
AcDbEntity
  8
CSLAYER2
  6
CONTINUOUS
 62
     6
100
AcDbLine
 10
133.769
 20
87.384706
 30
0.0
 11
133.769
 21
58.084706
 31
0.0
  0
LINE
  5
85
330
1F
100
AcDbEntity
  8
CSLAYER2
  6
CONTINUOUS
 62
     6
100
AcDbLine
 10
143.369
 20
80.634706
 30
0.0
 11
143.369
 21
87.634706
 31
0.0
  0
ARC
  5
86
330
1F
100
AcDbEntity
  8
CSLAYER2
  6
CONTINUOUS
 62
     4
100
AcDbCircle
 10
161.269
 20
74.734706
 30
0.0
 40
2.500000051
100
AcDbArc
 50
126.869898
 51
233.130103
  0
LINE
  5
87
330
1F
100
AcDbEntity
  8
CSLAYER2
  6
CONTINUOUS
 62
     6
100
AcDbLine
 10
133.869
 20
80.634706
 30
0.0
 11
133.869
 21
87.634706
 31
0.0
  0
ARC
  5
88
330
1F
100
AcDbEntity
  8
CSLAYER2
  6
CONTINUOUS
 62
     4
100
AcDbCircle
 10
158.269
 20
70.734706
 30
0.0
 40
2.500000051
100
AcDbArc
 50
-53.130102
 51
53.130103
  0
LINE
  5
89
330
1F
100
AcDbEntity
  8
CSLAYER2
  6
CONTINUOUS
 62
     6
100
AcDbLine
 10
143.769
 20
80.634706
 30
0.0
 11
143.769
 21
87.634706
 31
0.0
  0
ARC
  5
8A
330
1F
100
AcDbEntity
  8
CSLAYER2
  6
CONTINUOUS
 62
     4
100
AcDbCircle
 10
158.269
 20
74.734706
 30
0.0
 40
2.500000051
100
AcDbArc
 50
-53.130102
 51
53.130103
  0
LINE
  5
8B
330
1F
100
AcDbEntity
  8
CSLAYER2
  6
CONTINUOUS
 62
     6
100
AcDbLine
 10
145.369
 20
87.134706
 30
0.0
 11
145.369
 21
81.134706
 31
0.0
  0
LINE
  5
8C
330
1F
100
AcDbEntity
  8
CSLAYER2
  6
CONTINUOUS
 62
     6
100
AcDbLine
 10
140.969
 20
79.114338
 30
0.0
 11
144.069
 21
79.114338
 31
0.0
  0
LINE
  5
8D
330
1F
100
AcDbEntity
  8
CSLAYER2
  6
CONTINUOUS
 62
     6
100
AcDbLine
 10
140.769
 20
78.805859
 30
0.0
 11
140.969
 21
79.114338
 31
0.0
  0
LINE
  5
8E
330
1F
100
AcDbEntity
  8
CSLAYER2
  6
CONTINUOUS
 62
     6
100
AcDbLine
 10
140.769
 20
66.434706
 30
0.0
 11
140.769
 21
79.034706
 31
0.0
  0
LINE
  5
8F
330
1F
100
AcDbEntity
  8
CSLAYER2
  6
CONTINUOUS
 62
     6
100
AcDbLine
 10
144.069
 20
66.355074
 30
0.0
 11
140.969
 21
66.355074
 31
0.0
  0
LINE
  5
90
330
1F
100
AcDbEntity
  8
CSLAYER2
  6
CONTINUOUS
 62
     6
100
AcDbLine
 10
140.969
 20
66.355074
 30
0.0
 11
140.769
 21
66.663553
 31
0.0
  0
LINE
  5
91
330
1F
100
AcDbEntity
  8
CSLAYER2
  6
CONTINUOUS
 62
     6
100
AcDbLine
 10
140.969
 20
68.722034
 30
0.0
 11
144.069
 21
68.722034
 31
0.0
  0
LINE
  5
92
330
1F
100
AcDbEntity
  8
CSLAYER2
  6
CONTINUOUS
 62
     6
100
AcDbLine
 10
144.069
 20
76.747378
 30
0.0
 11
140.969
 21
76.747378
 31
0.0
  0
LINE
  5
93
330
1F
100
AcDbEntity
  8
CSLAYER2
  6
CONTINUOUS
 62
     6
100
AcDbLine
 10
140.769
 20
68.413554
 30
0.0
 11
140.969
 21
68.722034
 31
0.0
  0
LINE
  5
94
330
1F
100
AcDbEntity
  8
CSLAYER2
  6
CONTINUOUS
 62
     6
100
AcDbLine
 10
140.969
 20
70.367746
 30
0.0
 11
140.969
 21
68.722034
 31
0.0
  0
LINE
  5
95
330
1F
100
AcDbEntity
  8
CSLAYER2
  6
CONTINUOUS
 62
     6
100
AcDbLine
 10
140.969
 20
76.747378
 30
0.0
 11
140.969
 21
75.101666
 31
0.0
  0
LINE
  5
96
330
1F
100
AcDbEntity
  8
CSLAYER2
  6
CONTINUOUS
 62
     6
100
AcDbLine
 10
140.969
 20
76.747378
 30
0.0
 11
140.769
 21
77.055858
 31
0.0
  0
LINE
  5
97
330
1F
100
AcDbEntity
  8
CSLAYER2
  6
CONTINUOUS
 62
     6
100
AcDbLine
 10
144.069
 20
70.367746
 30
0.0
 11
140.969
 21
70.367746
 31
0.0
  0
LINE
  5
98
330
1F
100
AcDbEntity
  8
CSLAYER2
  6
CONTINUOUS
 62
     6
100
AcDbLine
 10
140.969
 20
75.101666
 30
0.0
 11
144.069
 21
75.101666
 31
0.0
  0
LINE
  5
99
330
1F
100
AcDbEntity
  8
CSLAYER2
  6
CONTINUOUS
 62
     6
100
AcDbLine
 10
140.769
 20
74.484706
 30
0.0
 11
140.969
 21
75.101666
 31
0.0
  0
LINE
  5
9A
330
1F
100
AcDbEntity
  8
CSLAYER2
  6
CONTINUOUS
 62
     6
100
AcDbLine
 10
144.069
 20
66.284706
 30
0.0
 11
144.769
 21
66.984706
 31
0.0
  0
LINE
  5
9B
330
1F
100
AcDbEntity
  8
CSLAYER2
  6
CONTINUOUS
 62
     6
100
AcDbLine
 10
144.769
 20
78.484706
 30
0.0
 11
144.069
 21
79.184706
 31
0.0
  0
LINE
  5
9C
330
1F
100
AcDbEntity
  8
CSLAYER2
  6
CONTINUOUS
 62
     6
100
AcDbLine
 10
140.969
 20
79.184706
 30
0.0
 11
140.769
 21
78.984706
 31
0.0
  0
LINE
  5
9D
330
1F
100
AcDbEntity
  8
CSLAYER2
  6
CONTINUOUS
 62
     6
100
AcDbLine
 10
140.769
 20
66.484706
 30
0.0
 11
140.969
 21
66.284706
 31
0.0
  0
LINE
  5
9E
330
1F
100
AcDbEntity
  8
CSLAYER2
  6
CONTINUOUS
 62
     6
100
AcDbLine
 10
144.069
 20
79.184706
 30
0.0
 11
140.969
 21
79.184706
 31
0.0
  0
LINE
  5
9F
330
1F
100
AcDbEntity
  8
CSLAYER2
  6
CONTINUOUS
 62
     6
100
AcDbLine
 10
140.969
 20
66.284706
 30
0.0
 11
144.069
 21
66.284706
 31
0.0
  0
LINE
  5
A0
330
1F
100
AcDbEntity
  8
CSLAYER2
  6
CONTINUOUS
 62
     6
100
AcDbLine
 10
144.769
 20
78.484706
 30
0.0
 11
144.769
 21
66.984706
 31
0.0
  0
LINE
  5
A1
330
1F
100
AcDbEntity
  8
CSLAYER2
  6
CONTINUOUS
 62
     6
100
AcDbLine
 10
144.069
 20
66.284706
 30
0.0
 11
144.069
 21
66.355074
 31
0.0
  0
ARC
  5
A2
330
1F
100
AcDbEntity
  8
CSLAYER2
  6
CONTINUOUS
 62
     6
100
AcDbCircle
 10
142.688063
 20
67.538554
 30
0.0
 40
1.81868376
100
AcDbArc
 50
-40.596993
 51
40.596993
  0
LINE
  5
A3
330
1F
100
AcDbEntity
  8
CSLAYER2
  6
CONTINUOUS
 62
     6
100
AcDbLine
 10
144.069
 20
68.722034
 30
0.0
 11
144.069
 21
70.367746
 31
0.0
  0
ARC
  5
A4
330
1F
100
AcDbEntity
  8
CSLAYER2
  6
CONTINUOUS
 62
     6
100
AcDbCircle
 10
137.853437
 20
72.734706
 30
0.0
 40
6.650993756
100
AcDbArc
 50
-20.847428
 51
20.847428
  0
LINE
  5
A5
330
1F
100
AcDbEntity
  8
CSLAYER2
  6
CONTINUOUS
 62
     6
100
AcDbLine
 10
144.069
 20
75.101666
 30
0.0
 11
144.069
 21
76.747378
 31
0.0
  0
ARC
  5
A6
330
1F
100
AcDbEntity
  8
CSLAYER2
  6
CONTINUOUS
 62
     6
100
AcDbCircle
 10
142.688063
 20
77.930858
 30
0.0
 40
1.818683538
100
AcDbArc
 50
-40.596999
 51
40.596999
  0
LINE
  5
A7
330
1F
100
AcDbEntity
  8
CSLAYER2
  6
CONTINUOUS
 62
     6
100
AcDbLine
 10
144.069
 20
79.114338
 30
0.0
 11
144.069
 21
79.184706
 31
0.0
  0
LINE
  5
A8
330
1F
100
AcDbEntity
  8
CSLAYER2
  6
CONTINUOUS
 62
     6
100
AcDbLine
 10
140.969
 20
70.367746
 30
0.0
 11
140.769
 21
70.984706
 31
0.0
  0
LINE
  5
A9
330
1F
100
AcDbEntity
  8
CSLAYER2
  6
CONTINUOUS
 62
     6
100
AcDbLine
 10
159.769
 20
76.734706
 30
0.0
 11
144.769
 21
76.734706
 31
0.0
  0
LINE
  5
AA
330
1F
100
AcDbEntity
  8
CSLAYER2
  6
CONTINUOUS
 62
     6
100
AcDbLine
 10
144.769
 20
68.734706
 30
0.0
 11
159.769
 21
68.734706
 31
0.0
  0
LINE
  5
AB
330
1F
100
AcDbEntity
  8
CSLAYER2
  6
CONTINUOUS
 62
     6
100
AcDbLine
 10
134.769
 20
66.234706
 30
0.0
 11
140.569
 21
66.234706
 31
0.0
  0
LINE
  5
AC
330
1F
100
AcDbEntity
  8
CSLAYER2
  6
CONTINUOUS
 62
     6
100
AcDbLine
 10
140.569
 20
79.234706
 30
0.0
 11
134.769
 21
79.234706
 31
0.0
  0
LINE
  5
AD
330
1F
100
AcDbEntity
  8
CSLAYER2
  6
CONTINUOUS
 62
     6
100
AcDbLine
 10
140.769
 20
79.034706
 30
0.0
 11
140.569
 21
79.234706
 31
0.0
  0
LINE
  5
AE
330
1F
100
AcDbEntity
  8
CSLAYER2
  6
CONTINUOUS
 62
     6
100
AcDbLine
 10
140.569
 20
66.234706
 30
0.0
 11
140.769
 21
66.434706
 31
0.0
  0
ARC
  5
AF
330
1F
100
AcDbEntity
  8
CSLAYER2
  6
CONTINUOUS
 62
     6
100
AcDbCircle
 10
134.769
 20
80.234706
 30
0.0
 40
1.0
100
AcDbArc
 50
180.0
 51
270.0
  0
ARC
  5
B0
330
1F
100
AcDbEntity
  8
CSLAYER2
  6
CONTINUOUS
 62
     6
100
AcDbCircle
 10
134.769
 20
65.234706
 30
0.0
 40
1.0
100
AcDbArc
 50
90.0
 51
180.0
  0
LINE
  5
B1
330
1F
100
AcDbEntity
  8
CSLAYER2
  6
CONTINUOUS
 62
     6
100
AcDbLine
 10
105.969
 20
57.784706
 30
0.0
 11
133.469
 21
57.784706
 31
0.0
  0
LINE
  5
B2
330
1F
100
AcDbEntity
  8
CSLAYER2
  6
CONTINUOUS
 62
     6
100
AcDbLine
 10
133.469
 20
87.684706
 30
0.0
 11
105.969
 21
87.684706
 31
0.0
  0
LINE
  5
B3
330
1F
100
AcDbEntity
  8
CSLAYER2
  6
CONTINUOUS
 62
     6
100
AcDbLine
 10
133.769
 20
87.384706
 30
0.0
 11
133.469
 21
87.684706
 31
0.0
  0
LINE
  5
B4
330
1F
100
AcDbEntity
  8
CSLAYER2
  6
CONTINUOUS
 62
     6
100
AcDbLine
 10
133.469
 20
57.784706
 30
0.0
 11
133.769
 21
58.084706
 31
0.0
  0
LINE
  5
B5
330
1F
100
AcDbEntity
  8
CSLAYER2
  6
CONTINUOUS
 62
     6
100
AcDbLine
 10
143.769
 20
86.209706
 30
0.0
 11
143.369001
 21
86.209706
 31
0.0
  0
LINE
  5
B6
330
1F
100
AcDbEntity
  8
CSLAYER2
  6
CONTINUOUS
 62
     6
100
AcDbLine
 10
143.369001
 20
82.059706
 30
0.0
 11
143.769
 21
82.059706
 31
0.0
  0
LINE
  5
B7
330
1F
100
AcDbEntity
  8
CSLAYER2
  6
CONTINUOUS
 62
     6
100
AcDbLine
 10
133.869
 20
86.884706
 30
0.0
 11
133.769
 21
86.884706
 31
0.0
  0
LINE
  5
B8
330
1F
100
AcDbEntity
  8
CSLAYER2
  6
CONTINUOUS
 62
     6
100
AcDbLine
 10
133.769
 20
81.384706
 30
0.0
 11
133.869
 21
81.384706
 31
0.0
  0
LINE
  5
B9
330
1F
100
AcDbEntity
  8
CSLAYER2
  6
CONTINUOUS
 62
     6
100
AcDbLine
 10
143.369
 20
87.634706
 30
0.0
 11
133.869
 21
87.634706
 31
0.0
  0
LINE
  5
BA
330
1F
100
AcDbEntity
  8
CSLAYER2
  6
CONTINUOUS
 62
     6
100
AcDbLine
 10
133.869
 20
80.634706
 30
0.0
 11
143.369
 21
80.634706
 31
0.0
  0
LINE
  5
BB
330
1F
100
AcDbEntity
  8
CSLAYER2
  6
CONTINUOUS
 62
     6
100
AcDbLine
 10
144.869
 20
87.634706
 30
0.0
 11
143.769
 21
87.634706
 31
0.0
  0
LINE
  5
BC
330
1F
100
AcDbEntity
  8
CSLAYER2
  6
CONTINUOUS
 62
     6
100
AcDbLine
 10
143.769
 20
80.634706
 30
0.0
 11
144.869
 21
80.634706
 31
0.0
  0
ARC
  5
BD
330
1F
100
AcDbEntity
  8
CSLAYER2
  6
CONTINUOUS
 62
     6
100
AcDbCircle
 10
144.869
 20
81.134706
 30
0.0
 40
0.5
100
AcDbArc
 50
270.0
 51
360.0
  0
ARC
  5
BE
330
1F
100
AcDbEntity
  8
CSLAYER2
  6
CONTINUOUS
 62
     6
100
AcDbCircle
 10
144.869
 20
87.134706
 30
0.0
 40
0.5
100
AcDbArc
 50
0.0
 51
90.0
  0
INSERT
  5
C2
330
1F
100
AcDbEntity
  8
0
100
AcDbBlockReference
  2
BLKF011
 10
0.0
 20
0.0
 30
0.0
  0
INSERT
  5
CF
330
1F
100
AcDbEntity
  8
0
100
AcDbBlockReference
  2
BLKF012
 10
0.0
 20
0.0
 30
0.0
  0
LINE
  5
D7
330
1F
100
AcDbEntity
  8
CSLAYER2
  6
CONTINUOUS
 62
     6
100
AcDbLine
 10
37.269
 20
57.734706
 30
0.0
 11
37.169
 21
57.834706
 31
0.0
  0
LINE
  5
D8
330
1F
100
AcDbEntity
  8
CSLAYER2
  6
CONTINUOUS
 62
     1
100
AcDbLine
 10
228.124788
 20
68.960225
 30
0.0
 11
228.197274
 21
65.438582
 31
0.0
  0
LINE
  5
D9
330
1F
100
AcDbEntity
  8
CSLAYER2
  6
CONTINUOUS
 62
     6
100
AcDbLine
 10
225.369
 20
63.484706
 30
0.0
 11
202.769
 21
63.484706
 31
0.0
  0
LINE
  5
DA
330
1F
100
AcDbEntity
  8
CSLAYER2
  6
CONTINUOUS
 62
     6
100
AcDbLine
 10
202.769
 20
63.484706
 30
0.0
 11
202.769
 21
81.984706
 31
0.0
  0
LINE
  5
DB
330
1F
100
AcDbEntity
  8
CSLAYER2
  6
CONTINUOUS
 62
     6
100
AcDbLine
 10
202.769
 20
81.984706
 30
0.0
 11
225.369
 21
81.984706
 31
0.0
  0
LINE
  5
DC
330
1F
100
AcDbEntity
  8
CSLAYER2
  6
CONTINUOUS
 62
     4
100
AcDbLine
 10
221.369
 20
81.234706
 30
0.0
 11
220.619
 21
81.984706
 31
0.0
  0
LINE
  5
DD
330
1F
100
AcDbEntity
  8
CSLAYER2
  6
CONTINUOUS
 62
     4
100
AcDbLine
 10
215.369
 20
76.734706
 30
0.0
 11
220.619
 21
81.984706
 31
0.0
  0
LINE
  5
DE
330
1F
100
AcDbEntity
  8
CSLAYER2
  6
CONTINUOUS
 62
     6
100
AcDbLine
 10
212.369
 20
81.984706
 30
0.0
 11
212.369
 21
63.484706
 31
0.0
  0
LINE
  5
DF
330
1F
100
AcDbEntity
  8
CSLAYER2
  6
CONTINUOUS
 62
     6
100
AcDbLine
 10
206.369
 20
81.984706
 30
0.0
 11
206.369
 21
63.484706
 31
0.0
  0
LINE
  5
E0
330
1F
100
AcDbEntity
  8
CSLAYER2
  6
CONTINUOUS
 62
     4
100
AcDbLine
 10
215.369
 20
80.734706
 30
0.0
 11
216.619
 21
81.984706
 31
0.0
  0
LINE
  5
E1
330
1F
100
AcDbEntity
  8
CSLAYER2
  6
CONTINUOUS
 62
     4
100
AcDbLine
 10
219.119
 20
63.484706
 30
0.0
 11
215.369
 21
67.234706
 31
0.0
  0
LINE
  5
E2
330
1F
100
AcDbEntity
  8
CSLAYER2
  6
CONTINUOUS
 62
     4
100
AcDbLine
 10
218.119
 20
63.484706
 30
0.0
 11
221.369
 21
66.734706
 31
0.0
  0
LINE
  5
E3
330
1F
100
AcDbEntity
  8
CSLAYER2
  6
CONTINUOUS
 62
     4
100
AcDbLine
 10
221.369
 20
65.234706
 30
0.0
 11
215.369
 21
71.234706
 31
0.0
  0
LINE
  5
E4
330
1F
100
AcDbEntity
  8
CSLAYER2
  6
CONTINUOUS
 62
     4
100
AcDbLine
 10
215.369
 20
64.734706
 30
0.0
 11
221.369
 21
70.734706
 31
0.0
  0
LINE
  5
E5
330
1F
100
AcDbEntity
  8
CSLAYER2
  6
CONTINUOUS
 62
     4
100
AcDbLine
 10
221.369
 20
69.234706
 30
0.0
 11
215.369
 21
75.234706
 31
0.0
  0
LINE
  5
E6
330
1F
100
AcDbEntity
  8
CSLAYER2
  6
CONTINUOUS
 62
     4
100
AcDbLine
 10
215.369
 20
68.734706
 30
0.0
 11
221.369
 21
74.734706
 31
0.0
  0
LINE
  5
E7
330
1F
100
AcDbEntity
  8
CSLAYER2
  6
CONTINUOUS
 62
     4
100
AcDbLine
 10
221.369
 20
73.234706
 30
0.0
 11
215.369
 21
79.234706
 31
0.0
  0
LINE
  5
E8
330
1F
100
AcDbEntity
  8
CSLAYER2
  6
CONTINUOUS
 62
     4
100
AcDbLine
 10
215.369
 20
72.734706
 30
0.0
 11
221.369
 21
78.734706
 31
0.0
  0
LINE
  5
E9
330
1F
100
AcDbEntity
  8
CSLAYER2
  6
CONTINUOUS
 62
     4
100
AcDbLine
 10
221.369
 20
77.234706
 30
0.0
 11
216.619
 21
81.984706
 31
0.0
  0
LINE
  5
EA
330
1F
100
AcDbEntity
  8
CSLAYER2
  6
CONTINUOUS
 62
     6
100
AcDbLine
 10
215.369
 20
81.984706
 30
0.0
 11
215.369
 21
63.484706
 31
0.0
  0
LINE
  5
EB
330
1F
100
AcDbEntity
  8
CSLAYER2
  6
CONTINUOUS
 62
     6
100
AcDbLine
 10
221.369
 20
81.984706
 30
0.0
 11
221.369
 21
63.484706
 31
0.0
  0
LINE
  5
EC
330
1F
100
AcDbEntity
  8
CSLAYER2
  6
CONTINUOUS
 62
     1
100
AcDbLine
 10
226.009343
 20
80.03083
 30
0.0
 11
226.081829
 21
76.509187
 31
0.0
  0
LINE
  5
ED
330
1F
100
AcDbEntity
  8
CSLAYER2
  6
CONTINUOUS
 62
     6
100
AcDbLine
 10
225.369
 20
81.984706
 30
0.0
 11
225.369
 21
63.484706
 31
0.0
  0
LINE
  5
EE
330
1F
100
AcDbEntity
  8
CSLAYER2
  6
CONTINUOUS
 62
     1
100
AcDbLine
 10
226.237211
 20
68.960225
 30
0.0
 11
226.309697
 21
65.438582
 31
0.0
  0
LINE
  5
EF
330
1F
100
AcDbEntity
  8
CSLAYER2
  6
CONTINUOUS
 62
     4
100
AcDbLine
 10
212.369
 20
77.234706
 30
0.0
 11
207.619
 21
81.984706
 31
0.0
  0
LINE
  5
F0
330
1F
100
AcDbEntity
  8
CSLAYER2
  6
CONTINUOUS
 62
     4
100
AcDbLine
 10
206.369
 20
72.734706
 30
0.0
 11
212.369
 21
78.734706
 31
0.0
  0
LINE
  5
F1
330
1F
100
AcDbEntity
  8
CSLAYER2
  6
CONTINUOUS
 62
     4
100
AcDbLine
 10
212.369
 20
73.234706
 30
0.0
 11
206.369
 21
79.234706
 31
0.0
  0
LINE
  5
F2
330
1F
100
AcDbEntity
  8
CSLAYER2
  6
CONTINUOUS
 62
     4
100
AcDbLine
 10
206.369
 20
68.734706
 30
0.0
 11
212.369
 21
74.734706
 31
0.0
  0
LINE
  5
F3
330
1F
100
AcDbEntity
  8
CSLAYER2
  6
CONTINUOUS
 62
     4
100
AcDbLine
 10
212.369
 20
69.234706
 30
0.0
 11
206.369
 21
75.234706
 31
0.0
  0
LINE
  5
F4
330
1F
100
AcDbEntity
  8
CSLAYER2
  6
CONTINUOUS
 62
     4
100
AcDbLine
 10
206.369
 20
64.734706
 30
0.0
 11
212.369
 21
70.734706
 31
0.0
  0
LINE
  5
F5
330
1F
100
AcDbEntity
  8
CSLAYER2
  6
CONTINUOUS
 62
     4
100
AcDbLine
 10
212.369
 20
65.234706
 30
0.0
 11
206.369
 21
71.234706
 31
0.0
  0
LINE
  5
F6
330
1F
100
AcDbEntity
  8
CSLAYER2
  6
CONTINUOUS
 62
     4
100
AcDbLine
 10
209.119
 20
63.484706
 30
0.0
 11
212.369
 21
66.734706
 31
0.0
  0
LINE
  5
F7
330
1F
100
AcDbEntity
  8
CSLAYER2
  6
CONTINUOUS
 62
     4
100
AcDbLine
 10
210.119
 20
63.484706
 30
0.0
 11
206.369
 21
67.234706
 31
0.0
  0
LINE
  5
F8
330
1F
100
AcDbEntity
  8
CSLAYER2
  6
CONTINUOUS
 62
     4
100
AcDbLine
 10
206.369
 20
80.734706
 30
0.0
 11
207.619
 21
81.984706
 31
0.0
  0
LINE
  5
F9
330
1F
100
AcDbEntity
  8
CSLAYER2
  6
CONTINUOUS
 62
     4
100
AcDbLine
 10
206.369
 20
76.734706
 30
0.0
 11
211.619
 21
81.984706
 31
0.0
  0
LINE
  5
FA
330
1F
100
AcDbEntity
  8
CSLAYER2
  6
CONTINUOUS
 62
     4
100
AcDbLine
 10
212.369
 20
81.234706
 30
0.0
 11
211.619
 21
81.984706
 31
0.0
  0
LINE
  5
FB
330
1F
100
AcDbEntity
  8
CSLAYER2
  6
CONTINUOUS
 62
     6
100
AcDbLine
 10
202.769
 20
81.034706
 30
0.0
 11
191.769
 21
81.034706
 31
0.0
  0
LINE
  5
FC
330
1F
100
AcDbEntity
  8
CSLAYER2
  6
CONTINUOUS
 62
     6
100
AcDbLine
 10
188.769
 20
78.034706
 30
0.0
 11
188.769
 21
67.434706
 31
0.0
  0
LINE
  5
FD
330
1F
100
AcDbEntity
  8
CSLAYER2
  6
CONTINUOUS
 62
     6
100
AcDbLine
 10
191.769
 20
64.434706
 30
0.0
 11
202.769
 21
64.434706
 31
0.0
  0
LINE
  5
FE
330
1F
100
AcDbEntity
  8
CSLAYER2
  6
CONTINUOUS
 62
     6
100
AcDbLine
 10
191.769
 20
78.501204
 30
0.0
 11
191.769
 21
66.968208
 31
0.0
  0
ARC
  5
FF
330
1F
100
AcDbEntity
  8
CSLAYER2
  6
CONTINUOUS
 62
     6
100
AcDbCircle
 10
191.769
 20
67.434706
 30
0.0
 40
3.0
100
AcDbArc
 50
180.0
 51
270.0
  0
ARC
  5
100
330
1F
100
AcDbEntity
  8
CSLAYER2
  6
CONTINUOUS
 62
     6
100
AcDbCircle
 10
191.769
 20
78.034706
 30
0.0
 40
3.0
100
AcDbArc
 50
90.0
 51
180.0
  0
ARC
  5
101
330
1F
100
AcDbEntity
  8
CSLAYER2
  6
CONTINUOUS
 62
     6
100
AcDbCircle
 10
195.811083
 20
72.734706
 30
0.0
 40
7.042083333
100
AcDbArc
 50
125.028911
 51
234.971089
  0
LINE
  5
102
330
1F
100
AcDbEntity
  8
CSLAYER2
  6
CONTINUOUS
 62
     6
100
AcDbLine
 10
188.769
 20
68.734706
 30
0.0
 11
163.769
 21
68.734706
 31
0.0
  0
LINE
  5
103
330
1F
100
AcDbEntity
  8
CSLAYER2
  6
CONTINUOUS
 62
     6
100
AcDbLine
 10
188.769
 20
76.734706
 30
0.0
 11
163.769
 21
76.734706
 31
0.0
  0
ARC
  5
104
330
1F
100
AcDbEntity
  8
CSLAYER2
  6
CONTINUOUS
 62
     6
100
AcDbCircle
 10
192.993444
 20
70.608291
 30
0.0
 40
0.72444437
100
AcDbArc
 50
90.0
 51
270.0
  0
LINE
  5
105
330
1F
100
AcDbEntity
  8
CSLAYER2
  6
CONTINUOUS
 62
     6
100
AcDbLine
 10
202.769
 20
71.332735
 30
0.0
 11
192.993444
 21
71.332735
 31
0.0
  0
LINE
  5
106
330
1F
100
AcDbEntity
  8
CSLAYER2
  6
CONTINUOUS
 62
     6
100
AcDbLine
 10
202.769
 20
75.585566
 30
0.0
 11
192.993444
 21
75.585566
 31
0.0
  0
LINE
  5
107
330
1F
100
AcDbEntity
  8
CSLAYER2
  6
CONTINUOUS
 62
     6
100
AcDbLine
 10
202.769
 20
74.136677
 30
0.0
 11
192.993444
 21
74.136677
 31
0.0
  0
ARC
  5
108
330
1F
100
AcDbEntity
  8
CSLAYER2
  6
CONTINUOUS
 62
     6
100
AcDbCircle
 10
192.993444
 20
74.861122
 30
0.0
 40
0.72444437
100
AcDbArc
 50
90.0
 51
270.0
  0
LINE
  5
109
330
1F
100
AcDbEntity
  8
CSLAYER2
  6
CONTINUOUS
 62
     6
100
AcDbLine
 10
202.769
 20
69.883846
 30
0.0
 11
192.993444
 21
69.883846
 31
0.0
  0
LINE
  5
10A
330
1F
100
AcDbEntity
  8
CSLAYER2
  6
CONTINUOUS
 62
     6
100
AcDbLine
 10
202.769
 20
78.013851
 30
0.0
 11
192.79933
 21
78.013851
 31
0.0
  0
LINE
  5
10B
330
1F
100
AcDbEntity
  8
CSLAYER2
  6
CONTINUOUS
 62
     6
100
AcDbLine
 10
202.769
 20
79.074511
 30
0.0
 11
192.79933
 21
79.074511
 31
0.0
  0
ARC
  5
10C
330
1F
100
AcDbEntity
  8
CSLAYER2
  6
CONTINUOUS
 62
     6
100
AcDbCircle
 10
192.79933
 20
78.544181
 30
0.0
 40
0.530330086
100
AcDbArc
 50
90.0
 51
270.0
  0
LINE
  5
10D
330
1F
100
AcDbEntity
  8
CSLAYER2
  6
CONTINUOUS
 62
     6
100
AcDbLine
 10
202.769
 20
80.476482
 30
0.0
 11
192.463114
 21
80.476482
 31
0.0
  0
LINE
  5
10E
330
1F
100
AcDbEntity
  8
CSLAYER2
  6
CONTINUOUS
 62
     6
100
AcDbLine
 10
202.769
 20
80.864711
 30
0.0
 11
192.463114
 21
80.864711
 31
0.0
  0
ARC
  5
10F
330
1F
100
AcDbEntity
  8
CSLAYER2
  6
CONTINUOUS
 62
     6
100
AcDbCircle
 10
192.463114
 20
80.670597
 30
0.0
 40
0.194114284
100
AcDbArc
 50
90.0
 51
270.0
  0
LINE
  5
110
330
1F
100
AcDbEntity
  8
CSLAYER2
  6
CONTINUOUS
 62
     6
100
AcDbLine
 10
202.769
 20
67.455561
 30
0.0
 11
192.79933
 21
67.455561
 31
0.0
  0
LINE
  5
111
330
1F
100
AcDbEntity
  8
CSLAYER2
  6
CONTINUOUS
 62
     6
100
AcDbLine
 10
202.769
 20
66.394901
 30
0.0
 11
192.79933
 21
66.394901
 31
0.0
  0
ARC
  5
112
330
1F
100
AcDbEntity
  8
CSLAYER2
  6
CONTINUOUS
 62
     6
100
AcDbCircle
 10
192.79933
 20
66.925231
 30
0.0
 40
0.530330086
100
AcDbArc
 50
90.0
 51
270.0
  0
LINE
  5
113
330
1F
100
AcDbEntity
  8
CSLAYER2
  6
CONTINUOUS
 62
     6
100
AcDbLine
 10
202.769
 20
64.99293
 30
0.0
 11
192.463114
 21
64.99293
 31
0.0
  0
LINE
  5
114
330
1F
100
AcDbEntity
  8
CSLAYER2
  6
CONTINUOUS
 62
     6
100
AcDbLine
 10
202.769
 20
64.604701
 30
0.0
 11
192.463114
 21
64.604701
 31
0.0
  0
ARC
  5
115
330
1F
100
AcDbEntity
  8
CSLAYER2
  6
CONTINUOUS
 62
     6
100
AcDbCircle
 10
192.463114
 20
64.798816
 30
0.0
 40
0.194114284
100
AcDbArc
 50
90.0
 51
270.0
  0
LINE
  5
116
330
1F
100
AcDbEntity
  8
CSLAYER2
  6
CONTINUOUS
 62
     6
100
AcDbLine
 10
225.743424
 20
64.784706
 30
0.0
 11
225.932182
 21
64.784706
 31
0.0
  0
LINE
  5
117
330
1F
100
AcDbEntity
  8
CSLAYER2
  6
CONTINUOUS
 62
     6
100
AcDbLine
 10
228.669
 20
65.984706
 30
0.0
 11
233.269
 21
65.984706
 31
0.0
  0
LINE
  5
118
330
1F
100
AcDbEntity
  8
CSLAYER2
  6
CONTINUOUS
 62
     6
100
AcDbLine
 10
233.269
 20
65.984706
 30
0.0
 11
233.269
 21
79.484706
 31
0.0
  0
LINE
  5
119
330
1F
100
AcDbEntity
  8
CSLAYER2
  6
CONTINUOUS
 62
     6
100
AcDbLine
 10
233.269
 20
79.484706
 30
0.0
 11
228.669
 21
79.484706
 31
0.0
  0
LINE
  5
11A
330
1F
100
AcDbEntity
  8
CSLAYER2
  6
CONTINUOUS
 62
     6
100
AcDbLine
 10
228.197274
 20
65.438582
 30
0.0
 11
227.819759
 21
64.784706
 31
0.0
  0
LINE
  5
11B
330
1F
100
AcDbEntity
  8
CSLAYER2
  6
CONTINUOUS
 62
     1
100
AcDbLine
 10
227.89692
 20
80.03083
 30
0.0
 11
227.969406
 21
76.509187
 31
0.0
  0
LINE
  5
11C
330
1F
100
AcDbEntity
  8
CSLAYER2
  6
CONTINUOUS
 62
     6
100
AcDbLine
 10
228.40204
 20
65.083918
 30
0.0
 11
228.197274
 21
65.438582
 31
0.0
  0
LINE
  5
11D
330
1F
100
AcDbEntity
  8
CSLAYER2
  6
CONTINUOUS
 62
     6
100
AcDbLine
 10
227.631001
 20
64.784706
 30
0.0
 11
227.253486
 21
65.438582
 31
0.0
  0
LINE
  5
11E
330
1F
100
AcDbEntity
  8
CSLAYER2
  6
CONTINUOUS
 62
     6
100
AcDbLine
 10
227.253486
 20
65.438582
 30
0.0
 11
226.87597
 21
64.784706
 31
0.0
  0
LINE
  5
11F
330
1F
100
AcDbEntity
  8
CSLAYER2
  6
CONTINUOUS
 62
     6
100
AcDbLine
 10
227.631001
 20
64.784706
 30
0.0
 11
227.819759
 21
64.784706
 31
0.0
  0
LINE
  5
120
330
1F
100
AcDbEntity
  8
CSLAYER2
  6
CONTINUOUS
 62
     6
100
AcDbLine
 10
226.309697
 20
65.438582
 30
0.0
 11
225.932182
 21
64.784706
 31
0.0
  0
LINE
  5
121
330
1F
100
AcDbEntity
  8
CSLAYER2
  6
CONTINUOUS
 62
     6
100
AcDbLine
 10
228.40204
 20
65.083918
 30
0.0
 11
228.669
 21
65.350878
 31
0.0
  0
LINE
  5
122
330
1F
100
AcDbEntity
  8
CSLAYER2
  6
CONTINUOUS
 62
     6
100
AcDbLine
 10
228.669
 20
80.118534
 30
0.0
 11
228.211623
 21
80.575911
 31
0.0
  0
LINE
  5
123
330
1F
100
AcDbEntity
  8
CSLAYER2
  6
CONTINUOUS
 62
     6
100
AcDbLine
 10
227.330647
 20
80.684706
 30
0.0
 11
227.519404
 21
80.684706
 31
0.0
  0
LINE
  5
124
330
1F
100
AcDbEntity
  8
CSLAYER2
  6
CONTINUOUS
 62
     6
100
AcDbLine
 10
225.369
 20
80.684706
 30
0.0
 11
225.631827
 21
80.684706
 31
0.0
  0
LINE
  5
125
330
1F
100
AcDbEntity
  8
CSLAYER2
  6
CONTINUOUS
 62
     6
100
AcDbLine
 10
226.386858
 20
80.684706
 30
0.0
 11
226.575616
 21
80.684706
 31
0.0
  0
LINE
  5
126
330
1F
100
AcDbEntity
  8
CSLAYER2
  6
CONTINUOUS
 62
     6
100
AcDbLine
 10
226.687212
 20
64.784706
 30
0.0
 11
226.309697
 21
65.438582
 31
0.0
  0
LINE
  5
127
330
1F
100
AcDbEntity
  8
CSLAYER2
  6
CONTINUOUS
 62
     6
100
AcDbLine
 10
225.743424
 20
64.784706
 30
0.0
 11
225.365909
 21
65.438582
 31
0.0
  0
LINE
  5
128
330
1F
100
AcDbEntity
  8
CSLAYER2
  6
CONTINUOUS
 62
     6
100
AcDbLine
 10
227.89692
 20
80.03083
 30
0.0
 11
227.519404
 21
80.684706
 31
0.0
  0
LINE
  5
129
330
1F
100
AcDbEntity
  8
CSLAYER2
  6
CONTINUOUS
 62
     6
100
AcDbLine
 10
228.211623
 20
80.575911
 30
0.0
 11
227.89692
 21
80.03083
 31
0.0
  0
LINE
  5
12A
330
1F
100
AcDbEntity
  8
CSLAYER2
  6
CONTINUOUS
 62
     6
100
AcDbLine
 10
226.953131
 20
80.03083
 30
0.0
 11
226.575616
 21
80.684706
 31
0.0
  0
LINE
  5
12B
330
1F
100
AcDbEntity
  8
CSLAYER2
  6
CONTINUOUS
 62
     6
100
AcDbLine
 10
228.669
 20
65.350878
 30
0.0
 11
228.669
 21
80.118534
 31
0.0
  0
LINE
  5
12C
330
1F
100
AcDbEntity
  8
CSLAYER2
  6
CONTINUOUS
 62
     6
100
AcDbLine
 10
226.953131
 20
80.03083
 30
0.0
 11
227.253486
 21
65.438582
 31
0.0
  0
LINE
  5
12D
330
1F
100
AcDbEntity
  8
CSLAYER2
  6
CONTINUOUS
 62
     6
100
AcDbLine
 10
227.330647
 20
80.684706
 30
0.0
 11
226.953131
 21
80.03083
 31
0.0
  0
LINE
  5
12E
330
1F
100
AcDbEntity
  8
CSLAYER2
  6
CONTINUOUS
 62
     6
100
AcDbLine
 10
226.009343
 20
80.03083
 30
0.0
 11
225.631827
 21
80.684706
 31
0.0
  0
LINE
  5
12F
330
1F
100
AcDbEntity
  8
CSLAYER2
  6
CONTINUOUS
 62
     6
100
AcDbLine
 10
226.386858
 20
80.684706
 30
0.0
 11
226.009343
 21
80.03083
 31
0.0
  0
LINE
  5
130
330
1F
100
AcDbEntity
  8
CSLAYER2
  6
CONTINUOUS
 62
     6
100
AcDbLine
 10
226.687212
 20
64.784706
 30
0.0
 11
226.87597
 21
64.784706
 31
0.0
  0
ARC
  5
131
330
1F
100
AcDbEntity
  8
CSLAYER2
  6
CONTINUOUS
 62
     4
100
AcDbCircle
 10
165.269
 20
74.734706
 30
0.0
 40
2.5
100
AcDbArc
 50
126.869898
 51
233.130102
  0
ARC
  5
132
330
1F
100
AcDbEntity
  8
CSLAYER2
  6
CONTINUOUS
 62
     4
100
AcDbCircle
 10
162.269
 20
70.734706
 30
0.0
 40
2.5
100
AcDbArc
 50
-53.130102
 51
53.130102
  0
ARC
  5
133
330
1F
100
AcDbEntity
  8
CSLAYER2
  6
CONTINUOUS
 62
     4
100
AcDbCircle
 10
165.269
 20
70.734706
 30
0.0
 40
2.5
100
AcDbArc
 50
126.869898
 51
233.130102
  0
LINE
  5
134
330
1F
100
AcDbEntity
  8
CSLAYER2
  6
CONTINUOUS
 62
     6
100
AcDbLine
 10
140.969
 20
79.184706
 30
0.0
 11
140.969
 21
79.114338
 31
0.0
  0
INSERT
  5
138
330
1F
100
AcDbEntity
  8
0
100
AcDbBlockReference
  2
BLKF013
 10
0.0
 20
0.0
 30
0.0
  0
INSERT
  5
146
330
1F
100
AcDbEntity
  8
0
100
AcDbBlockReference
  2
BLKF014
 10
0.0
 20
0.0
 30
0.0
  0
LINE
  5
150
330
1F
100
AcDbEntity
  8
CSLAYER2
  6
CONTINUOUS
 62
     6
100
AcDbLine
 10
140.969
 20
66.355074
 30
0.0
 11
140.969
 21
66.284706
 31
0.0
  0
LINE
  5
151
330
1F
100
AcDbEntity
  8
CSLAYER2
  6
CONTINUOUS
 62
     6
100
AcDbLine
 10
140.769
 20
66.484706
 30
0.0
 11
140.769
 21
78.984706
 31
0.0
  0
INSERT
  5
155
330
1F
100
AcDbEntity
  8
0
100
AcDbBlockReference
  2
BLKF015
 10
0.0
 20
0.0
 30
0.0
  0
ARC
  5
160
330
1F
100
AcDbEntity
  8
CSLAYER2
  6
CONTINUOUS
 62
     4
100
AcDbCircle
 10
170.969
 20
84.934706
 30
0.0
 40
1.0
100
AcDbArc
 50
126.869898
 51
233.130102
  0
ARC
  5
161
330
1F
100
AcDbEntity
  8
CSLAYER2
  6
CONTINUOUS
 62
     4
100
AcDbCircle
 10
169.769
 20
84.934706
 30
0.0
 40
1.0
100
AcDbArc
 50
-53.130102
 51
53.130102
  0
ARC
  5
162
330
1F
100
AcDbEntity
  8
CSLAYER2
  6
CONTINUOUS
 62
     4
100
AcDbCircle
 10
172.569
 20
84.934706
 30
0.0
 40
1.0
100
AcDbArc
 50
126.869898
 51
233.130102
  0
ARC
  5
163
330
1F
100
AcDbEntity
  8
CSLAYER2
  6
CONTINUOUS
 62
     4
100
AcDbCircle
 10
171.369
 20
83.334706
 30
0.0
 40
1.0
100
AcDbArc
 50
-53.130102
 51
53.130102
  0
ARC
  5
164
330
1F
100
AcDbEntity
  8
CSLAYER2
  6
CONTINUOUS
 62
     4
100
AcDbCircle
 10
172.569
 20
83.334706
 30
0.0
 40
1.0
100
AcDbArc
 50
126.869898
 51
233.130102
  0
LINE
  5
165
330
1F
100
AcDbEntity
  8
CSLAYER2
  6
CONTINUOUS
 62
     6
100
AcDbLine
 10
225.369
 20
82.534706
 30
0.0
 11
171.969
 21
82.534706
 31
0.0
  0
LINE
  5
166
330
1F
100
AcDbEntity
  8
CSLAYER2
  6
CONTINUOUS
 62
     6
100
AcDbLine
 10
225.369
 20
85.734706
 30
0.0
 11
225.369
 21
82.534706
 31
0.0
  0
LINE
  5
167
330
1F
100
AcDbEntity
  8
CSLAYER2
  6
CONTINUOUS
 62
     6
100
AcDbLine
 10
145.369
 20
85.734706
 30
0.0
 11
170.369
 21
85.734706
 31
0.0
  0
LINE
  5
168
330
1F
100
AcDbEntity
  8
CSLAYER2
  6
CONTINUOUS
 62
     6
100
AcDbLine
 10
170.369
 20
82.534706
 30
0.0
 11
145.369
 21
82.534706
 31
0.0
  0
LINE
  5
169
330
1F
100
AcDbEntity
  8
CSLAYER2
  6
CONTINUOUS
 62
     6
100
AcDbLine
 10
171.969
 20
85.734706
 30
0.0
 11
225.369
 21
85.734706
 31
0.0
  0
LINE
  5
16A
330
1F
100
AcDbEntity
  8
CSLAYER2
  6
CENTER
 62
     1
100
AcDbLine
 10
131.869
 20
84.134706
 30
0.0
 11
227.369
 21
84.134706
 31
0.0
  0
LINE
  5
16B
330
1F
100
AcDbEntity
  8
CSLAYER2
  6
CONTINUOUS
 62
     6
100
AcDbLine
 10
52.869
 20
79.273054
 30
0.0
 11
49.369
 21
79.273054
 31
0.0
  0
INSERT
  5
16F
330
1F
100
AcDbEntity
  8
0
100
AcDbBlockReference
  2
BLKF016
 10
0.0
 20
0.0
 30
0.0
  0
LINE
  5
17B
330
1F
100
AcDbEntity
  8
CSLAYER2
  6
CONTINUOUS
 62
     6
100
AcDbLine
 10
37.169
 20
57.834706
 30
0.0
 11
37.169
 21
87.634706
 31
0.0
  0
TEXT
  5
17C
330
1F
100
AcDbEntity
  8
CSLAYER2
 62
     4
100
AcDbText
 10
80.957397
 20
33.939705
 30
0.0
 40
2.8
  1
96.6
 41
1.034328
  7
ED_VECTOR
 72
     5
 11
90.197397
 21
33.939705
 31
0.0
100
AcDbText
  0
LINE
  5
17D
330
1F
100
AcDbEntity
  8
CSLAYER2
  6
CONTINUOUS
 62
     4
100
AcDbLine
 10
37.169
 20
57.834706
 30
0.0
 11
37.169
 21
29.734706
 31
0.0
  0
LINE
  5
17E
330
1F
100
AcDbEntity
  8
CSLAYER2
  6
CONTINUOUS
 62
     4
100
AcDbLine
 10
39.169
 20
32.034706
 30
0.0
 11
37.169
 21
31.734706
 31
0.0
  0
LINE
  5
17F
330
1F
100
AcDbEntity
  8
CSLAYER2
  6
CONTINUOUS
 62
     4
100
AcDbLine
 10
37.169
 20
31.734706
 30
0.0
 11
39.169
 21
31.434706
 31
0.0
  0
LINE
  5
180
330
1F
100
AcDbEntity
  8
CSLAYER2
  6
CONTINUOUS
 62
     4
100
AcDbLine
 10
37.169
 20
31.734706
 30
0.0
 11
133.769
 21
31.734706
 31
0.0
  0
LINE
  5
181
330
1F
100
AcDbEntity
  8
CSLAYER2
  6
CONTINUOUS
 62
     4
100
AcDbLine
 10
131.769
 20
31.434706
 30
0.0
 11
133.769
 21
31.734706
 31
0.0
  0
LINE
  5
182
330
1F
100
AcDbEntity
  8
CSLAYER2
  6
CONTINUOUS
 62
     4
100
AcDbLine
 10
133.769
 20
31.734706
 30
0.0
 11
131.769
 21
32.034706
 31
0.0
  0
LINE
  5
183
330
1F
100
AcDbEntity
  8
CSLAYER2
  6
CONTINUOUS
 62
     4
100
AcDbLine
 10
133.769
 20
58.084706
 30
0.0
 11
133.769
 21
29.734706
 31
0.0
  0
TEXT
  5
184
330
1F
100
AcDbEntity
  8
CSLAYER2
 62
     4
100
AcDbText
 10
67.057404
 20
41.939709
 30
0.0
 40
2.8
  1
68.8
 41
1.034328
  7
ED_VECTOR
 72
     5
 11
76.297401
 21
41.939709
 31
0.0
100
AcDbText
  0
LINE
  5
185
330
1F
100
AcDbEntity
  8
CSLAYER2
  6
CONTINUOUS
 62
     4
100
AcDbLine
 10
37.169
 20
57.834706
 30
0.0
 11
37.169
 21
37.734706
 31
0.0
  0
LINE
  5
186
330
1F
100
AcDbEntity
  8
CSLAYER2
  6
CONTINUOUS
 62
     4
100
AcDbLine
 10
39.169
 20
40.034706
 30
0.0
 11
37.169
 21
39.734706
 31
0.0
  0
LINE
  5
187
330
1F
100
AcDbEntity
  8
CSLAYER2
  6
CONTINUOUS
 62
     4
100
AcDbLine
 10
37.169
 20
39.734706
 30
0.0
 11
39.169
 21
39.434706
 31
0.0
  0
LINE
  5
188
330
1F
100
AcDbEntity
  8
CSLAYER2
  6
CONTINUOUS
 62
     4
100
AcDbLine
 10
37.169
 20
39.734706
 30
0.0
 11
105.969
 21
39.734706
 31
0.0
  0
LINE
  5
189
330
1F
100
AcDbEntity
  8
CSLAYER2
  6
CONTINUOUS
 62
     4
100
AcDbLine
 10
103.969
 20
39.434706
 30
0.0
 11
105.969
 21
39.734706
 31
0.0
  0
LINE
  5
18A
330
1F
100
AcDbEntity
  8
CSLAYER2
  6
CONTINUOUS
 62
     4
100
AcDbLine
 10
105.969
 20
39.734706
 30
0.0
 11
103.969
 21
40.034706
 31
0.0
  0
LINE
  5
18B
330
1F
100
AcDbEntity
  8
CSLAYER2
  6
CONTINUOUS
 62
     4
100
AcDbLine
 10
105.969
 20
57.784706
 30
0.0
 11
105.969
 21
37.734706
 31
0.0
  0
TEXT
  5
18C
330
1F
100
AcDbEntity
  8
0
 62
     7
100
AcDbText
 10
117.722359
 20
20.0
 30
0.0
 40
5.0
  1
EM-3060J
 41
0.834783
  7
ED_VECTOR
 72
     5
 11
149.722359
 21
20.0
 31
0.0
100
AcDbText
  0
ENDSEC
  0
SECTION
  2
OBJECTS
  0
DICTIONARY
  5
C
330
0
100
AcDbDictionary
  3
ACAD_GROUP
350
D
  3
ACAD_LAYOUT
350
1A
  3
ACAD_MLINESTYLE
350
17
  3
ACAD_PLOTSETTINGS
350
19
1001
ACAD
1000
TREAT_AS_HARD
1070
     0
  0
DICTIONARY
  5
D
102
{ACAD_REACTORS
330
C
102
}
330
C
100
AcDbDictionary
1001
ACAD
1000
TREAT_AS_HARD
1070
     0
  0
DICTIONARY
  5
1A
102
{ACAD_REACTORS
330
C
102
}
330
C
100
AcDbDictionary
1001
ACAD
1000
TREAT_AS_HARD
1070
     0
  0
DICTIONARY
  5
17
102
{ACAD_REACTORS
330
C
102
}
330
C
100
AcDbDictionary
  3
STANDARD
350
18
1001
ACAD
1000
TREAT_AS_HARD
1070
     0
  0
DICTIONARY
  5
19
102
{ACAD_REACTORS
330
C
102
}
330
C
100
AcDbDictionary
1001
ACAD
1000
TREAT_AS_HARD
1070
     0
  0
MLINESTYLE
  5
18
102
{ACAD_REACTORS
330
17
102
}
330
17
100
AcDbMlineStyle
  2
Standard
 70
     0
  3

 62
   256
 51
90.0
 52
90.0
 71
     2
 49
0.5
 62
   256
  6
BYLAYER
 49
-0.5
 62
   256
  6
BYLAYER
  0
ENDSEC
  0
EOF
