  0
SECTION
  2
HEADER
  9
$ACADVER
  1
AC1012
  9
$DWGCODEPAGE
  3
ansi_932
  9
$INSBASE
 10
0.0
 20
0.0
 30
0.0
  9
$EXTMIN
 10
0.0
 20
0.0
 30
0.0
  9
$EXTMAX
 10
267.659552
 20
108.91444
 30
0.0
  9
$LIMMIN
 10
0.0
 20
0.0
  9
$LIMMAX
 10
267.659552
 20
108.91444
  9
$ORTHOMODE
 70
     0
  9
$REGENMODE
 70
     1
  9
$FILLMODE
 70
     1
  9
$QTEXTMODE
 70
     0
  9
$MIRRTEXT
 70
     1
  9
$DRAGMODE
 70
     2
  9
$LTSCALE
 40
1.0
  9
$OSMODE
 70
    37
  9
$ATTMODE
 70
     1
  9
$TEXTSIZE
 40
0.2
  9
$TRACEWID
 40
0.05
  9
$TEXTSTYLE
  7
ED_VECTOR
  9
$CLAYER
  8
0
  9
$CELTYPE
  6
BYLAYER
  9
$CECOLOR
 62
   256
  9
$CELTSCALE
 40
1.0
  9
$DELOBJ
 70
     1
  9
$DISPSILH
 70
     0
  9
$DIMSCALE
 40
1.0
  9
$DIMASZ
 40
3.0
  9
$DIMEXO
 40
1.0
  9
$DIMDLI
 40
10.0
  9
$DIMRND
 40
0.0
  9
$DIMDLE
 40
5.0
  9
$DIMEXE
 40
1.0
  9
$DIMTP
 40
0.0
  9
$DIMTM
 40
0.0
  9
$DIMTXT
 40
4.0
  9
$DIMCEN
 40
2.5
  9
$DIMTSZ
 40
0.0
  9
$DIMTOL
 70
     0
  9
$DIMLIM
 70
     0
  9
$DIMTIH
 70
     0
  9
$DIMTOH
 70
     0
  9
$DIMSE1
 70
     0
  9
$DIMSE2
 70
     0
  9
$DIMTAD
 70
     1
  9
$DIMZIN
 70
     8
  9
$DIMBLK
  1

  9
$DIMASO
 70
     1
  9
$DIMSHO
 70
     1
  9
$DIMPOST
  1

  9
$DIMAPOST
  1

  9
$DIMALT
 70
     0
  9
$DIMALTD
 70
     3
  9
$DIMALTF
 40
0.03937
  9
$DIMLFAC
 40
1.0
  9
$DIMTOFL
 70
     1
  9
$DIMTVP
 40
0.0
  9
$DIMTIX
 70
     0
  9
$DIMSOXD
 70
     0
  9
$DIMSAH
 70
     1
  9
$DIMBLK1
  1
EDTIP_ARROW_S
  9
$DIMBLK2
  1
EDTIP_ARROW_E
  9
$DIMSTYLE
  2
EDDIMINFO
  9
$DIMCLRD
 70
     7
  9
$DIMCLRE
 70
     7
  9
$DIMCLRT
 70
     7
  9
$DIMTFAC
 40
1.0
  9
$DIMGAP
 40
1.0
  9
$DIMJUST
 70
     0
  9
$DIMSD1
 70
     0
  9
$DIMSD2
 70
     0
  9
$DIMTOLJ
 70
     0
  9
$DIMTZIN
 70
     8
  9
$DIMALTZ
 70
     0
  9
$DIMALTTZ
 70
     0
  9
$DIMFIT
 70
     3
  9
$DIMUPT
 70
     0
  9
$DIMUNIT
 70
     2
  9
$DIMDEC
 70
     2
  9
$DIMTDEC
 70
     2
  9
$DIMALTU
 70
     2
  9
$DIMALTTD
 70
     3
  9
$DIMTXSTY
  7
ED_VECTOR
  9
$DIMAUNIT
 70
     0
  9
$LUNITS
 70
     2
  9
$LUPREC
 70
     4
  9
$SKETCHINC
 40
0.1
  9
$FILLETRAD
 40
0.5
  9
$AUNITS
 70
     0
  9
$AUPREC
 70
     0
  9
$MENU
  1
.
  9
$ELEVATION
 40
0.0
  9
$PELEVATION
 40
0.0
  9
$THICKNESS
 40
0.0
  9
$LIMCHECK
 70
     0
  9
$CHAMFERA
 40
0.5
  9
$CHAMFERB
 40
0.5
  9
$CHAMFERC
 40
1.0
  9
$CHAMFERD
 40
0.0
  9
$SKPOLY
 70
     0
  9
$TDCREATE
 40
2454736.648165521
  9
$TDUPDATE
 40
2454736.648165532
  9
$TDINDWG
 40
0.0000000116
  9
$TDUSRTIMER
 40
0.0000000116
  9
$USRTIMER
 70
     1
  9
$ANGBASE
 50
0.0
  9
$ANGDIR
 70
     0
  9
$PDMODE
 70
     0
  9
$PDSIZE
 40
0.0
  9
$PLINEWID
 40
0.0
  9
$COORDS
 70
     1
  9
$SPLFRAME
 70
     0
  9
$SPLINETYPE
 70
     6
  9
$SPLINESEGS
 70
     8
  9
$ATTDIA
 70
     0
  9
$ATTREQ
 70
     1
  9
$HANDLING
 70
     1
  9
$HANDSEED
  5
19C
  9
$SURFTAB1
 70
     6
  9
$SURFTAB2
 70
     6
  9
$SURFTYPE
 70
     6
  9
$SURFU
 70
     6
  9
$SURFV
 70
     6
  9
$UCSNAME
  2

  9
$UCSORG
 10
0.0
 20
0.0
 30
0.0
  9
$UCSXDIR
 10
1.0
 20
0.0
 30
0.0
  9
$UCSYDIR
 10
0.0
 20
1.0
 30
0.0
  9
$PUCSNAME
  2

  9
$PUCSORG
 10
0.0
 20
0.0
 30
0.0
  9
$PUCSXDIR
 10
1.0
 20
0.0
 30
0.0
  9
$PUCSYDIR
 10
0.0
 20
1.0
 30
0.0
  9
$USERI1
 70
     0
  9
$USERI2
 70
     0
  9
$USERI3
 70
     0
  9
$USERI4
 70
     0
  9
$USERI5
 70
     0
  9
$USERR1
 40
0.0
  9
$USERR2
 40
0.0
  9
$USERR3
 40
0.0
  9
$USERR4
 40
0.0
  9
$USERR5
 40
0.0
  9
$WORLDVIEW
 70
     1
  9
$SHADEDGE
 70
     3
  9
$SHADEDIF
 70
    70
  9
$TILEMODE
 70
     1
  9
$MAXACTVP
 70
    64
  9
$PINSBASE
 10
0.0
 20
0.0
 30
0.0
  9
$PLIMCHECK
 70
     0
  9
$PEXTMIN
 10
1.000000E+20
 20
1.000000E+20
 30
1.000000E+20
  9
$PEXTMAX
 10
-1.000000E+20
 20
-1.000000E+20
 30
-1.000000E+20
  9
$PLIMMIN
 10
0.0
 20
0.0
  9
$PLIMMAX
 10
12.0
 20
9.0
  9
$UNITMODE
 70
     0
  9
$VISRETAIN
 70
     1
  9
$PLINEGEN
 70
     0
  9
$PSLTSCALE
 70
     1
  9
$TREEDEPTH
 70
  3020
  9
$PICKSTYLE
 70
     1
  9
$CMLSTYLE
  2
STANDARD
  9
$CMLJUST
 70
     0
  9
$CMLSCALE
 40
1.0
  9
$SAVEIMAGES
 70
     1
  0
ENDSEC
  0
SECTION
  2
CLASSES
  0
CLASS
  1
ACDBDICTIONARYWDFLT
  2
AcDbDictionaryWithDefault
  3
ObjectDBX Classes
 90
    32768
280
     0
281
     0
  0
CLASS
  1
XRECORD
  2
AcDbXrecord
  3
AutoCAD 2000
 90
    32768
280
     0
281
     0
  0
CLASS
  1
LWPOLYLINE
  2
AcDbPolyline
  3
AutoCAD 2000
 90
    32768
280
     0
281
     1
  0
CLASS
  1
HATCH
  2
AcDbHatch
  3
AutoCAD 2000
 90
    32768
280
     0
281
     1
  0
CLASS
  1
ACDBPLACEHOLDER
  2
AcDbPlaceHolder
  3
ObjectDBX Classes
 90
        0
280
     0
281
     0
  0
CLASS
  1
LAYOUT
  2
AcDbLayout
  3
ObjectDBX Classes
 90
        0
280
     0
281
     0
  0
ENDSEC
  0
SECTION
  2
TABLES
  0
TABLE
  2
VPORT
  5
8
330
0
100
AcDbSymbolTable
 70
     1
  0
VPORT
  5
29
330
8
100
AcDbSymbolTableRecord
100
AcDbViewportTableRecord
  2
*ACTIVE
 70
     0
 10
0.0
 20
0.0
 11
1.0
 21
1.0
 12
133.829776
 22
54.45722
 13
0.0
 23
0.0
 14
0.5
 24
0.5
 15
0.5
 25
0.5
 16
0.0
 26
0.0
 36
1.0
 17
0.0
 27
0.0
 37
0.0
 40
108.91444
 41
2.457521
 42
50.0
 43
0.0
 44
0.0
 50
0.0
 51
0.0
 71
     0
 72
   100
 73
     1
 74
     3
 75
     0
 76
     0
 77
     0
 78
     0
  0
ENDTAB
  0
TABLE
  2
LTYPE
  5
5
330
0
100
AcDbSymbolTable
 70
     5
  0
LTYPE
  5
14
330
5
100
AcDbSymbolTableRecord
100
AcDbLinetypeTableRecord
  2
BYBLOCK
 70
     0
  3

 72
    65
 73
     0
 40
0.0
  0
LTYPE
  5
15
330
5
100
AcDbSymbolTableRecord
100
AcDbLinetypeTableRecord
  2
BYLAYER
 70
     0
  3

 72
    65
 73
     0
 40
0.0
  0
LTYPE
  5
16
330
5
100
AcDbSymbolTableRecord
100
AcDbLinetypeTableRecord
  2
CONTINUOUS
 70
     0
  3
--------------------
 72
    65
 73
     0
 40
0.0
  0
LTYPE
  5
2A
330
5
100
AcDbSymbolTableRecord
100
AcDbLinetypeTableRecord
  2
DASHED
 70
     0
  3
- - - - - - - - - - -
 72
    65
 73
     2
 40
19.1
 49
12.7
 74
     0
 49
-6.4
 74
     0
  0
LTYPE
  5
2B
330
5
100
AcDbSymbolTableRecord
100
AcDbLinetypeTableRecord
  2
CENTER
 70
     0
  3
- ･ - ･ - ･ - ･ - ･ - ･ - ･ - ･ - ･ - ･ -
 72
    65
 73
     4
 40
51.0
 49
31.8
 74
     0
 49
-6.4
 74
     0
 49
6.4
 74
     0
 49
-6.4
 74
     0
  0
LTYPE
  5
2C
330
5
100
AcDbSymbolTableRecord
100
AcDbLinetypeTableRecord
  2
PHANTOM
 70
     0
  3
- ･ ･ - ･ ･ - ･ ･ - ･ ･ - ･ ･ - ･ ･ - ･ ･ - 
 72
    65
 73
     6
 40
63.8
 49
31.8
 74
     0
 49
-6.4
 74
     0
 49
6.4
 74
     0
 49
-6.4
 74
     0
 49
6.4
 74
     0
 49
-6.4
 74
     0
  0
LTYPE
  5
2D
330
5
100
AcDbSymbolTableRecord
100
AcDbLinetypeTableRecord
  2
DOT
 70
     0
  3
・・・・・・・・・・・・・・・
 72
    65
 73
     2
 40
6.5
 49
0.1
 74
     0
 49
-6.4
 74
     0
  0
ENDTAB
  0
TABLE
  2
LAYER
  5
2
330
0
100
AcDbSymbolTable
 70
    16
  0
LAYER
  5
10
330
2
100
AcDbSymbolTableRecord
100
AcDbLayerTableRecord
  2
0
 70
     0
 62
     7
  6
CONTINUOUS
  0
LAYER
  5
2E
330
2
100
AcDbSymbolTableRecord
100
AcDbLayerTableRecord
  2
CSLAYER2
 70
     0
 62
     7
  6
CONTINUOUS
  0
ENDTAB
  0
TABLE
  2
STYLE
  5
3
330
0
100
AcDbSymbolTable
 70
     2
  0
STYLE
  5
11
330
3
100
AcDbSymbolTableRecord
100
AcDbTextStyleTableRecord
  2
STANDARD
 70
     0
 40
0.0
 41
1.0
 50
0.0
 71
     0
 42
0.2
  3
txt
  4

  0
STYLE
  5
3D
330
3
100
AcDbSymbolTableRecord
100
AcDbTextStyleTableRecord
  2
ED_VECTOR
 70
     0
 40
0.0
 41
1.0
 50
0.0
 71
     0
 42
0.2
  3
MONOTXT.SHX
  4
BIGFONT.SHX
  0
ENDTAB
  0
TABLE
  2
VIEW
  5
6
330
0
100
AcDbSymbolTable
 70
     0
  0
ENDTAB
  0
TABLE
  2
UCS
  5
7
330
0
100
AcDbSymbolTable
 70
     0
  0
ENDTAB
  0
TABLE
  2
APPID
  5
9
330
0
100
AcDbSymbolTable
 70
     1
  0
APPID
  5
12
330
9
100
AcDbSymbolTableRecord
100
AcDbRegAppTableRecord
  2
ACAD
 70
     0
  0
ENDTAB
  0
TABLE
  2
DIMSTYLE
  5
A
330
0
100
AcDbSymbolTable
 70
     2
  0
DIMSTYLE
105
27
330
A
100
AcDbSymbolTableRecord
100
AcDbDimStyleTableRecord
  2
STANDARD
 70
     0
  3

  4

  5

  6

  7

 40
1.0
 41
0.18
 42
0.0625
 43
0.38
 44
0.18
 45
0.0
 46
0.0
 47
0.0
 48
0.0
140
0.18
141
0.09
142
0.0
143
25.4
144
1.0
145
0.0
146
1.0
147
0.09
 71
     0
 72
     0
 73
     1
 74
     1
 75
     0
 76
     0
 77
     0
 78
     0
170
     0
171
     2
172
     0
173
     0
174
     0
175
     0
176
     0
177
     0
178
     0
270
     2
271
     4
272
     4
273
     2
274
     2
340
11
275
     0
280
     0
281
     0
282
     0
283
     1
284
     0
285
     0
286
     0
287
     3
288
     0
  0
DIMSTYLE
105
6E
330
A
100
AcDbSymbolTableRecord
100
AcDbDimStyleTableRecord
  2
EDDIMINFO
 70
     0
  3

  4

  5

  6
EDTIP_ARROW_S
  7
EDTIP_ARROW_E
 40
1.0
 41
3.0
 42
1.0
 43
10.0
 44
1.0
 45
0.0
 46
5.0
 47
0.0
 48
0.0
140
4.0
141
2.5
142
0.0
143
0.03937
144
1.0
145
0.0
146
1.0
147
1.0
 71
     0
 72
     0
 73
     0
 74
     0
 75
     0
 76
     0
 77
     1
 78
     8
170
     0
171
     3
172
     1
173
     1
174
     0
175
     0
176
     7
177
     7
178
     7
179
     2
270
     2
271
     2
272
     2
273
     2
274
     3
340
3D
275
     0
280
     0
281
     0
282
     0
283
     0
284
     8
285
     0
286
     0
287
     3
288
     0
  0
ENDTAB
  0
TABLE
  2
BLOCK_RECORD
  5
1
330
0
100
AcDbSymbolTable
 70
    16
  0
BLOCK_RECORD
  5
1F
330
1
100
AcDbSymbolTableRecord
100
AcDbBlockTableRecord
  2
*MODEL_SPACE
  0
BLOCK_RECORD
  5
1B
330
1
100
AcDbSymbolTableRecord
100
AcDbBlockTableRecord
  2
*PAPER_SPACE
  0
BLOCK_RECORD
  5
3E
330
1
100
AcDbSymbolTableRecord
100
AcDbBlockTableRecord
  2
EDTIP_ARROW_S
  0
BLOCK_RECORD
  5
44
330
1
100
AcDbSymbolTableRecord
100
AcDbBlockTableRecord
  2
EDTIP_ARROW_E
  0
BLOCK_RECORD
  5
4A
330
1
100
AcDbSymbolTableRecord
100
AcDbBlockTableRecord
  2
EDTIP_BLACKDOT_S
  0
BLOCK_RECORD
  5
50
330
1
100
AcDbSymbolTableRecord
100
AcDbBlockTableRecord
  2
EDTIP_BLACKDOT_E
  0
BLOCK_RECORD
  5
56
330
1
100
AcDbSymbolTableRecord
100
AcDbBlockTableRecord
  2
EDTIP_ARCHITECT_S
  0
BLOCK_RECORD
  5
5C
330
1
100
AcDbSymbolTableRecord
100
AcDbBlockTableRecord
  2
EDTIP_ARCHITECT_E
  0
BLOCK_RECORD
  5
62
330
1
100
AcDbSymbolTableRecord
100
AcDbBlockTableRecord
  2
EDTIP_CIVIL_S
  0
BLOCK_RECORD
  5
68
330
1
100
AcDbSymbolTableRecord
100
AcDbBlockTableRecord
  2
EDTIP_CIVIL_E
  0
BLOCK_RECORD
  5
130
330
1
100
AcDbSymbolTableRecord
100
AcDbBlockTableRecord
  2
BLKF011
  0
BLOCK_RECORD
  5
13E
330
1
100
AcDbSymbolTableRecord
100
AcDbBlockTableRecord
  2
BLKF012
  0
BLOCK_RECORD
  5
14C
330
1
100
AcDbSymbolTableRecord
100
AcDbBlockTableRecord
  2
BLKF013
  0
BLOCK_RECORD
  5
15A
330
1
100
AcDbSymbolTableRecord
100
AcDbBlockTableRecord
  2
BLKF014
  0
BLOCK_RECORD
  5
168
330
1
100
AcDbSymbolTableRecord
100
AcDbBlockTableRecord
  2
BLKF015
  0
BLOCK_RECORD
  5
176
330
1
100
AcDbSymbolTableRecord
100
AcDbBlockTableRecord
  2
BLKF016
  0
BLOCK_RECORD
  5
184
330
1
100
AcDbSymbolTableRecord
100
AcDbBlockTableRecord
  2
BLKF017
  0
ENDTAB
  0
ENDSEC
  0
SECTION
  2
BLOCKS
  0
BLOCK
  5
20
330
1F
100
AcDbEntity
  8
0
100
AcDbBlockBegin
  2
*MODEL_SPACE
 70
     0
 71
     0
 10
0.0
 20
0.0
 30
0.0
  3
*MODEL_SPACE
  1

  0
ENDBLK
  5
21
330
1F
100
AcDbEntity
  8
0
100
AcDbBlockEnd
  0
BLOCK
  5
1C
330
1B
100
AcDbEntity
 67
     1
  8
0
100
AcDbBlockBegin
  2
*PAPER_SPACE
 70
     0
 71
     0
 10
0.0
 20
0.0
 30
0.0
  3
*PAPER_SPACE
  1

  0
ENDBLK
  5
1D
330
1B
100
AcDbEntity
 67
     1
  8
0
100
AcDbBlockEnd
  0
BLOCK
  5
3F
330
3E
100
AcDbEntity
  8
0
100
AcDbBlockBegin
  2
EDTIP_ARROW_S
 70
     0
 71
     0
 10
0.0
 20
0.0
 30
0.0
  3
EDTIP_ARROW_S
  1

  0
LINE
  5
41
330
3E
100
AcDbEntity
  8
0
  6
CONTINUOUS
 62
     0
100
AcDbLine
 10
0.0
 20
0.0
 30
0.0
 11
-1.0
 21
0.0
 31
0.0
  0
LINE
  5
42
330
3E
100
AcDbEntity
  8
0
  6
CONTINUOUS
 62
     0
100
AcDbLine
 10
0.0
 20
0.0
 30
0.0
 11
-0.965926
 21
0.258819
 31
0.0
  0
LINE
  5
43
330
3E
100
AcDbEntity
  8
0
  6
CONTINUOUS
 62
     0
100
AcDbLine
 10
0.0
 20
0.0
 30
0.0
 11
-0.965926
 21
-0.258819
 31
0.0
  0
ENDBLK
  5
40
330
3E
100
AcDbEntity
  8
0
100
AcDbBlockEnd
  0
BLOCK
  5
45
330
44
100
AcDbEntity
  8
0
100
AcDbBlockBegin
  2
EDTIP_ARROW_E
 70
     0
 71
     0
 10
0.0
 20
0.0
 30
0.0
  3
EDTIP_ARROW_E
  1

  0
LINE
  5
47
330
44
100
AcDbEntity
  8
0
  6
CONTINUOUS
 62
     0
100
AcDbLine
 10
0.0
 20
0.0
 30
0.0
 11
-1.0
 21
0.0
 31
0.0
  0
LINE
  5
48
330
44
100
AcDbEntity
  8
0
  6
CONTINUOUS
 62
     0
100
AcDbLine
 10
0.0
 20
0.0
 30
0.0
 11
-0.965926
 21
-0.258819
 31
0.0
  0
LINE
  5
49
330
44
100
AcDbEntity
  8
0
  6
CONTINUOUS
 62
     0
100
AcDbLine
 10
0.0
 20
0.0
 30
0.0
 11
-0.965926
 21
0.258819
 31
0.0
  0
ENDBLK
  5
46
330
44
100
AcDbEntity
  8
0
100
AcDbBlockEnd
  0
BLOCK
  5
4B
330
4A
100
AcDbEntity
  8
0
100
AcDbBlockBegin
  2
EDTIP_BLACKDOT_S
 70
     0
 71
     0
 10
0.0
 20
0.0
 30
0.0
  3
EDTIP_BLACKDOT_S
  1

  0
LINE
  5
4D
330
4A
100
AcDbEntity
  8
0
  6
CONTINUOUS
 62
     0
100
AcDbLine
 10
0.0
 20
0.0
 30
0.0
 11
-1.0
 21
0.0
 31
0.0
  0
CIRCLE
  5
4E
330
4A
100
AcDbEntity
  8
0
  6
CONTINUOUS
 62
     0
100
AcDbCircle
 10
0.0
 20
0.0
 30
0.0
 40
0.5
  0
CIRCLE
  5
4F
330
4A
100
AcDbEntity
  8
0
  6
CONTINUOUS
 62
     0
100
AcDbCircle
 10
0.0
 20
0.0
 30
0.0
 40
0.25
  0
ENDBLK
  5
4C
330
4A
100
AcDbEntity
  8
0
100
AcDbBlockEnd
  0
BLOCK
  5
51
330
50
100
AcDbEntity
  8
0
100
AcDbBlockBegin
  2
EDTIP_BLACKDOT_E
 70
     0
 71
     0
 10
0.0
 20
0.0
 30
0.0
  3
EDTIP_BLACKDOT_E
  1

  0
LINE
  5
53
330
50
100
AcDbEntity
  8
0
  6
CONTINUOUS
 62
     0
100
AcDbLine
 10
0.0
 20
0.0
 30
0.0
 11
-1.0
 21
0.0
 31
0.0
  0
CIRCLE
  5
54
330
50
100
AcDbEntity
  8
0
  6
CONTINUOUS
 62
     0
100
AcDbCircle
 10
0.0
 20
0.0
 30
0.0
 40
0.5
  0
CIRCLE
  5
55
330
50
100
AcDbEntity
  8
0
  6
CONTINUOUS
 62
     0
100
AcDbCircle
 10
0.0
 20
0.0
 30
0.0
 40
0.25
  0
ENDBLK
  5
52
330
50
100
AcDbEntity
  8
0
100
AcDbBlockEnd
  0
BLOCK
  5
57
330
56
100
AcDbEntity
  8
0
100
AcDbBlockBegin
  2
EDTIP_ARCHITECT_S
 70
     0
 71
     0
 10
0.0
 20
0.0
 30
0.0
  3
EDTIP_ARCHITECT_S
  1

  0
LINE
  5
59
330
56
100
AcDbEntity
  8
0
  6
CONTINUOUS
 62
     0
100
AcDbLine
 10
0.0
 20
0.0
 30
0.0
 11
-1.0
 21
0.0
 31
0.0
  0
LINE
  5
5A
330
56
100
AcDbEntity
  8
0
  6
CONTINUOUS
 62
     0
100
AcDbLine
 10
0.0
 20
0.0
 30
0.0
 11
-0.707107
 21
-0.707107
 31
0.0
  0
LINE
  5
5B
330
56
100
AcDbEntity
  8
0
  6
CONTINUOUS
 62
     0
100
AcDbLine
 10
0.0
 20
0.0
 30
0.0
 11
0.707107
 21
0.707107
 31
0.0
  0
ENDBLK
  5
58
330
56
100
AcDbEntity
  8
0
100
AcDbBlockEnd
  0
BLOCK
  5
5D
330
5C
100
AcDbEntity
  8
0
100
AcDbBlockBegin
  2
EDTIP_ARCHITECT_E
 70
     0
 71
     0
 10
0.0
 20
0.0
 30
0.0
  3
EDTIP_ARCHITECT_E
  1

  0
LINE
  5
5F
330
5C
100
AcDbEntity
  8
0
  6
CONTINUOUS
 62
     0
100
AcDbLine
 10
0.0
 20
0.0
 30
0.0
 11
-1.0
 21
0.0
 31
0.0
  0
LINE
  5
60
330
5C
100
AcDbEntity
  8
0
  6
CONTINUOUS
 62
     0
100
AcDbLine
 10
0.0
 20
0.0
 30
0.0
 11
-0.707107
 21
-0.707107
 31
0.0
  0
LINE
  5
61
330
5C
100
AcDbEntity
  8
0
  6
CONTINUOUS
 62
     0
100
AcDbLine
 10
0.0
 20
0.0
 30
0.0
 11
0.707107
 21
0.707107
 31
0.0
  0
ENDBLK
  5
5E
330
5C
100
AcDbEntity
  8
0
100
AcDbBlockEnd
  0
BLOCK
  5
63
330
62
100
AcDbEntity
  8
0
100
AcDbBlockBegin
  2
EDTIP_CIVIL_S
 70
     0
 71
     0
 10
0.0
 20
0.0
 30
0.0
  3
EDTIP_CIVIL_S
  1

  0
LINE
  5
65
330
62
100
AcDbEntity
  8
0
  6
CONTINUOUS
 62
     0
100
AcDbLine
 10
0.0
 20
0.0
 30
0.0
 11
-1.0
 21
0.0
 31
0.0
  0
LINE
  5
66
330
62
100
AcDbEntity
  8
0
  6
CONTINUOUS
 62
     0
100
AcDbLine
 10
0.0
 20
-0.083333
 30
0.0
 11
-1.0
 21
-0.083333
 31
0.0
  0
LINE
  5
67
330
62
100
AcDbEntity
  8
0
  6
CONTINUOUS
 62
     0
100
AcDbLine
 10
0.0
 20
-0.166667
 30
0.0
 11
-1.0
 21
-0.166667
 31
0.0
  0
ENDBLK
  5
64
330
62
100
AcDbEntity
  8
0
100
AcDbBlockEnd
  0
BLOCK
  5
69
330
68
100
AcDbEntity
  8
0
100
AcDbBlockBegin
  2
EDTIP_CIVIL_E
 70
     0
 71
     0
 10
0.0
 20
0.0
 30
0.0
  3
EDTIP_CIVIL_E
  1

  0
LINE
  5
6B
330
68
100
AcDbEntity
  8
0
  6
CONTINUOUS
 62
     0
100
AcDbLine
 10
0.0
 20
0.0
 30
0.0
 11
-1.0
 21
0.0
 31
0.0
  0
LINE
  5
6C
330
68
100
AcDbEntity
  8
0
  6
CONTINUOUS
 62
     0
100
AcDbLine
 10
0.0
 20
0.083333
 30
0.0
 11
-1.0
 21
0.083333
 31
0.0
  0
LINE
  5
6D
330
68
100
AcDbEntity
  8
0
  6
CONTINUOUS
 62
     0
100
AcDbLine
 10
0.0
 20
0.166667
 30
0.0
 11
-1.0
 21
0.166667
 31
0.0
  0
ENDBLK
  5
6A
330
68
100
AcDbEntity
  8
0
100
AcDbBlockEnd
  0
BLOCK
  5
131
330
130
100
AcDbEntity
  8
0
100
AcDbBlockBegin
  2
BLKF011
 70
     0
 71
     0
 10
0.0
 20
0.0
 30
0.0
  3
BLKF011
  1

  0
TEXT
  5
134
330
130
100
AcDbEntity
  8
0
 62
     7
100
AcDbText
 10
67.13517
 20
41.914436
 30
0.0
 40
2.8
  1
69.9
 41
1.05
  7
ED_VECTOR
 72
     5
 11
76.37517
 21
41.914436
 31
0.0
100
AcDbText
  0
LINE
  5
135
330
130
100
AcDbEntity
  8
0
  6
CONTINUOUS
 62
     7
100
AcDbLine
 10
36.805171
 20
59.01444
 30
0.0
 11
36.805171
 21
40.41444
 31
0.0
  0
LINE
  5
136
330
130
100
AcDbEntity
  8
0
  6
CONTINUOUS
 62
     7
100
AcDbLine
 10
106.705171
 20
58.96444
 30
0.0
 11
106.705171
 21
40.41444
 31
0.0
  0
LINE
  5
137
330
130
100
AcDbEntity
  8
0
  6
CONTINUOUS
 62
     7
100
AcDbLine
 10
36.805171
 20
40.91444
 30
0.0
 11
106.705171
 21
40.91444
 31
0.0
  0
LINE
  5
138
330
130
100
AcDbEntity
  8
0
  6
CONTINUOUS
 62
     7
100
AcDbLine
 10
36.805171
 20
40.91444
 30
0.0
 11
39.805171
 21
40.91444
 31
0.0
  0
LINE
  5
139
330
130
100
AcDbEntity
  8
0
  6
CONTINUOUS
 62
     7
100
AcDbLine
 10
36.805171
 20
40.91444
 30
0.0
 11
39.702949
 21
40.137983
 31
0.0
  0
LINE
  5
13A
330
130
100
AcDbEntity
  8
0
  6
CONTINUOUS
 62
     7
100
AcDbLine
 10
36.805171
 20
40.91444
 30
0.0
 11
39.702949
 21
41.690897
 31
0.0
  0
LINE
  5
13B
330
130
100
AcDbEntity
  8
0
  6
CONTINUOUS
 62
     7
100
AcDbLine
 10
106.705171
 20
40.91444
 30
0.0
 11
103.705171
 21
40.91444
 31
0.0
  0
LINE
  5
13C
330
130
100
AcDbEntity
  8
0
  6
CONTINUOUS
 62
     7
100
AcDbLine
 10
106.705171
 20
40.91444
 30
0.0
 11
103.807393
 21
40.137983
 31
0.0
  0
LINE
  5
13D
330
130
100
AcDbEntity
  8
0
  6
CONTINUOUS
 62
     7
100
AcDbLine
 10
106.705171
 20
40.91444
 30
0.0
 11
103.807393
 21
41.690897
 31
0.0
  0
ENDBLK
  5
132
330
130
100
AcDbEntity
  8
0
100
AcDbBlockEnd
  0
BLOCK
  5
13F
330
13E
100
AcDbEntity
  8
0
100
AcDbBlockBegin
  2
BLKF012
 70
     0
 71
     0
 10
0.0
 20
0.0
 30
0.0
  3
BLKF012
  1

  0
TEXT
  5
142
330
13E
100
AcDbEntity
  8
0
 62
     7
100
AcDbText
 10
81.035172
 20
33.914436
 30
0.0
 40
2.8
  1
97.7
 41
1.034328
  7
ED_VECTOR
 72
     5
 11
90.27517
 21
33.914436
 31
0.0
100
AcDbText
  0
LINE
  5
143
330
13E
100
AcDbEntity
  8
0
  6
CONTINUOUS
 62
     7
100
AcDbLine
 10
36.805171
 20
59.01444
 30
0.0
 11
36.805171
 21
32.41444
 31
0.0
  0
LINE
  5
144
330
13E
100
AcDbEntity
  8
0
  6
CONTINUOUS
 62
     7
100
AcDbLine
 10
134.505171
 20
59.26444
 30
0.0
 11
134.505171
 21
32.41444
 31
0.0
  0
LINE
  5
145
330
13E
100
AcDbEntity
  8
0
  6
CONTINUOUS
 62
     7
100
AcDbLine
 10
36.805171
 20
32.91444
 30
0.0
 11
134.505171
 21
32.91444
 31
0.0
  0
LINE
  5
146
330
13E
100
AcDbEntity
  8
0
  6
CONTINUOUS
 62
     7
100
AcDbLine
 10
36.805171
 20
32.91444
 30
0.0
 11
39.805171
 21
32.91444
 31
0.0
  0
LINE
  5
147
330
13E
100
AcDbEntity
  8
0
  6
CONTINUOUS
 62
     7
100
AcDbLine
 10
36.805171
 20
32.91444
 30
0.0
 11
39.702949
 21
32.137983
 31
0.0
  0
LINE
  5
148
330
13E
100
AcDbEntity
  8
0
  6
CONTINUOUS
 62
     7
100
AcDbLine
 10
36.805171
 20
32.91444
 30
0.0
 11
39.702949
 21
33.690897
 31
0.0
  0
LINE
  5
149
330
13E
100
AcDbEntity
  8
0
  6
CONTINUOUS
 62
     7
100
AcDbLine
 10
134.505171
 20
32.91444
 30
0.0
 11
131.505171
 21
32.91444
 31
0.0
  0
LINE
  5
14A
330
13E
100
AcDbEntity
  8
0
  6
CONTINUOUS
 62
     7
100
AcDbLine
 10
134.505171
 20
32.91444
 30
0.0
 11
131.607393
 21
32.137983
 31
0.0
  0
LINE
  5
14B
330
13E
100
AcDbEntity
  8
0
  6
CONTINUOUS
 62
     7
100
AcDbLine
 10
134.505171
 20
32.91444
 30
0.0
 11
131.607393
 21
33.690897
 31
0.0
  0
ENDBLK
  5
140
330
13E
100
AcDbEntity
  8
0
100
AcDbBlockEnd
  0
BLOCK
  5
14D
330
14C
100
AcDbEntity
  8
0
100
AcDbBlockBegin
  2
BLKF013
 70
     0
 71
     0
 10
0.0
 20
0.0
 30
0.0
  3
BLKF013
  1

  0
TEXT
  5
150
330
14C
100
AcDbEntity
  8
0
 62
     7
100
AcDbText
 10
113.675179
 20
41.914436
 30
0.0
 40
2.8
  1
(27.8)
 41
1.105851
  7
ED_VECTOR
 72
     5
 11
127.535178
 21
41.914436
 31
0.0
100
AcDbText
  0
LINE
  5
151
330
14C
100
AcDbEntity
  8
0
  6
CONTINUOUS
 62
     7
100
AcDbLine
 10
106.705171
 20
58.96444
 30
0.0
 11
106.705171
 21
40.41444
 31
0.0
  0
LINE
  5
152
330
14C
100
AcDbEntity
  8
0
  6
CONTINUOUS
 62
     7
100
AcDbLine
 10
134.505171
 20
59.26444
 30
0.0
 11
134.505171
 21
40.41444
 31
0.0
  0
LINE
  5
153
330
14C
100
AcDbEntity
  8
0
  6
CONTINUOUS
 62
     7
100
AcDbLine
 10
106.705171
 20
40.91444
 30
0.0
 11
134.505171
 21
40.91444
 31
0.0
  0
LINE
  5
154
330
14C
100
AcDbEntity
  8
0
  6
CONTINUOUS
 62
     7
100
AcDbLine
 10
106.705171
 20
40.91444
 30
0.0
 11
109.705171
 21
40.91444
 31
0.0
  0
LINE
  5
155
330
14C
100
AcDbEntity
  8
0
  6
CONTINUOUS
 62
     7
100
AcDbLine
 10
106.705171
 20
40.91444
 30
0.0
 11
109.602949
 21
40.137983
 31
0.0
  0
LINE
  5
156
330
14C
100
AcDbEntity
  8
0
  6
CONTINUOUS
 62
     7
100
AcDbLine
 10
106.705171
 20
40.91444
 30
0.0
 11
109.602949
 21
41.690897
 31
0.0
  0
LINE
  5
157
330
14C
100
AcDbEntity
  8
0
  6
CONTINUOUS
 62
     7
100
AcDbLine
 10
134.505171
 20
40.91444
 30
0.0
 11
131.505171
 21
40.91444
 31
0.0
  0
LINE
  5
158
330
14C
100
AcDbEntity
  8
0
  6
CONTINUOUS
 62
     7
100
AcDbLine
 10
134.505171
 20
40.91444
 30
0.0
 11
131.607393
 21
40.137983
 31
0.0
  0
LINE
  5
159
330
14C
100
AcDbEntity
  8
0
  6
CONTINUOUS
 62
     7
100
AcDbLine
 10
134.505171
 20
40.91444
 30
0.0
 11
131.607393
 21
41.690897
 31
0.0
  0
ENDBLK
  5
14E
330
14C
100
AcDbEntity
  8
0
100
AcDbBlockEnd
  0
BLOCK
  5
15B
330
15A
100
AcDbEntity
  8
0
100
AcDbBlockBegin
  2
BLKF014
 70
     0
 71
     0
 10
0.0
 20
0.0
 30
0.0
  3
BLKF014
  1

  0
TEXT
  5
15E
330
15A
100
AcDbEntity
  8
0
 62
     7
100
AcDbText
 10
135.385162
 20
41.914436
 30
0.0
 40
2.8
  1
(11)
 41
1.082812
  7
ED_VECTOR
 72
     5
 11
144.625161
 21
41.914436
 31
0.0
100
AcDbText
  0
LINE
  5
15F
330
15A
100
AcDbEntity
  8
0
  6
CONTINUOUS
 62
     7
100
AcDbLine
 10
134.505171
 20
59.26444
 30
0.0
 11
134.505171
 21
40.41444
 31
0.0
  0
LINE
  5
160
330
15A
100
AcDbEntity
  8
0
  6
CONTINUOUS
 62
     7
100
AcDbLine
 10
145.505171
 20
68.16444
 30
0.0
 11
145.505171
 21
40.41444
 31
0.0
  0
LINE
  5
161
330
15A
100
AcDbEntity
  8
0
  6
CONTINUOUS
 62
     7
100
AcDbLine
 10
134.505171
 20
40.91444
 30
0.0
 11
145.505171
 21
40.91444
 31
0.0
  0
LINE
  5
162
330
15A
100
AcDbEntity
  8
0
  6
CONTINUOUS
 62
     7
100
AcDbLine
 10
134.505171
 20
40.91444
 30
0.0
 11
137.505171
 21
40.91444
 31
0.0
  0
LINE
  5
163
330
15A
100
AcDbEntity
  8
0
  6
CONTINUOUS
 62
     7
100
AcDbLine
 10
134.505171
 20
40.91444
 30
0.0
 11
137.402949
 21
40.137983
 31
0.0
  0
LINE
  5
164
330
15A
100
AcDbEntity
  8
0
  6
CONTINUOUS
 62
     7
100
AcDbLine
 10
134.505171
 20
40.91444
 30
0.0
 11
137.402949
 21
41.690897
 31
0.0
  0
LINE
  5
165
330
15A
100
AcDbEntity
  8
0
  6
CONTINUOUS
 62
     7
100
AcDbLine
 10
145.505171
 20
40.91444
 30
0.0
 11
142.505171
 21
40.91444
 31
0.0
  0
LINE
  5
166
330
15A
100
AcDbEntity
  8
0
  6
CONTINUOUS
 62
     7
100
AcDbLine
 10
145.505171
 20
40.91444
 30
0.0
 11
142.607393
 21
40.137983
 31
0.0
  0
LINE
  5
167
330
15A
100
AcDbEntity
  8
0
  6
CONTINUOUS
 62
     7
100
AcDbLine
 10
145.505171
 20
40.91444
 30
0.0
 11
142.607393
 21
41.690897
 31
0.0
  0
ENDBLK
  5
15C
330
15A
100
AcDbEntity
  8
0
100
AcDbBlockEnd
  0
BLOCK
  5
169
330
168
100
AcDbEntity
  8
0
100
AcDbBlockBegin
  2
BLKF015
 70
     0
 71
     0
 10
0.0
 20
0.0
 30
0.0
  3
BLKF015
  1

  0
TEXT
  5
16C
330
168
100
AcDbEntity
  8
0
 62
     7
100
AcDbText
 10
174.530151
 20
33.914436
 30
0.0
 40
2.8
  1
(300)
 41
1.03125
  7
ED_VECTOR
 72
     5
 11
186.08015
 21
33.914436
 31
0.0
100
AcDbText
  0
LINE
  5
16D
330
168
100
AcDbEntity
  8
0
  6
CONTINUOUS
 62
     7
100
AcDbLine
 10
134.505171
 20
59.26444
 30
0.0
 11
134.505171
 21
32.41444
 31
0.0
  0
LINE
  5
16E
330
168
100
AcDbEntity
  8
0
  6
CONTINUOUS
 62
     7
100
AcDbLine
 10
226.105171
 20
64.66444
 30
0.0
 11
226.105171
 21
32.41444
 31
0.0
  0
LINE
  5
16F
330
168
100
AcDbEntity
  8
0
  6
CONTINUOUS
 62
     7
100
AcDbLine
 10
134.505171
 20
32.91444
 30
0.0
 11
226.105171
 21
32.91444
 31
0.0
  0
LINE
  5
170
330
168
100
AcDbEntity
  8
0
  6
CONTINUOUS
 62
     7
100
AcDbLine
 10
134.505171
 20
32.91444
 30
0.0
 11
137.505171
 21
32.91444
 31
0.0
  0
LINE
  5
171
330
168
100
AcDbEntity
  8
0
  6
CONTINUOUS
 62
     7
100
AcDbLine
 10
134.505171
 20
32.91444
 30
0.0
 11
137.402949
 21
32.137983
 31
0.0
  0
LINE
  5
172
330
168
100
AcDbEntity
  8
0
  6
CONTINUOUS
 62
     7
100
AcDbLine
 10
134.505171
 20
32.91444
 30
0.0
 11
137.402949
 21
33.690897
 31
0.0
  0
LINE
  5
173
330
168
100
AcDbEntity
  8
0
  6
CONTINUOUS
 62
     7
100
AcDbLine
 10
226.105171
 20
32.91444
 30
0.0
 11
223.105171
 21
32.91444
 31
0.0
  0
LINE
  5
174
330
168
100
AcDbEntity
  8
0
  6
CONTINUOUS
 62
     7
100
AcDbLine
 10
226.105171
 20
32.91444
 30
0.0
 11
223.207393
 21
32.137983
 31
0.0
  0
LINE
  5
175
330
168
100
AcDbEntity
  8
0
  6
CONTINUOUS
 62
     7
100
AcDbLine
 10
226.105171
 20
32.91444
 30
0.0
 11
223.207393
 21
33.690897
 31
0.0
  0
ENDBLK
  5
16A
330
168
100
AcDbEntity
  8
0
100
AcDbBlockEnd
  0
BLOCK
  5
177
330
176
100
AcDbEntity
  8
0
100
AcDbBlockBegin
  2
BLKF016
 70
     0
 71
     0
 10
0.0
 20
0.0
 30
0.0
  3
BLKF016
  1

  0
TEXT
  5
17A
330
176
100
AcDbEntity
  8
0
 62
     7
100
AcDbText
 10
245.883087
 20
68.13945
 30
0.0
 40
2.8
  1
%%c18.6
 50
90.0
 41
1.007267
  7
ED_VECTOR
 72
     5
 11
245.883087
 21
79.689449
 31
0.0
100
AcDbText
  0
LINE
  5
17B
330
176
100
AcDbEntity
  8
0
  6
CONTINUOUS
 62
     7
100
AcDbLine
 10
226.105171
 20
64.66444
 30
0.0
 11
247.383095
 21
64.66444
 31
0.0
  0
LINE
  5
17C
330
176
100
AcDbEntity
  8
0
  6
CONTINUOUS
 62
     7
100
AcDbLine
 10
226.105171
 20
83.16444
 30
0.0
 11
247.383095
 21
83.16444
 31
0.0
  0
LINE
  5
17D
330
176
100
AcDbEntity
  8
0
  6
CONTINUOUS
 62
     7
100
AcDbLine
 10
246.883095
 20
64.66444
 30
0.0
 11
246.883095
 21
83.16444
 31
0.0
  0
LINE
  5
17E
330
176
100
AcDbEntity
  8
0
  6
CONTINUOUS
 62
     7
100
AcDbLine
 10
246.883095
 20
64.66444
 30
0.0
 11
246.883095
 21
67.66444
 31
0.0
  0
LINE
  5
17F
330
176
100
AcDbEntity
  8
0
  6
CONTINUOUS
 62
     7
100
AcDbLine
 10
246.883095
 20
64.66444
 30
0.0
 11
247.659552
 21
67.562218
 31
0.0
  0
LINE
  5
180
330
176
100
AcDbEntity
  8
0
  6
CONTINUOUS
 62
     7
100
AcDbLine
 10
246.883095
 20
64.66444
 30
0.0
 11
246.106638
 21
67.562218
 31
0.0
  0
LINE
  5
181
330
176
100
AcDbEntity
  8
0
  6
CONTINUOUS
 62
     7
100
AcDbLine
 10
246.883095
 20
83.16444
 30
0.0
 11
246.883095
 21
80.16444
 31
0.0
  0
LINE
  5
182
330
176
100
AcDbEntity
  8
0
  6
CONTINUOUS
 62
     7
100
AcDbLine
 10
246.883095
 20
83.16444
 30
0.0
 11
247.659552
 21
80.266662
 31
0.0
  0
LINE
  5
183
330
176
100
AcDbEntity
  8
0
  6
CONTINUOUS
 62
     7
100
AcDbLine
 10
246.883095
 20
83.16444
 30
0.0
 11
246.106638
 21
80.266662
 31
0.0
  0
ENDBLK
  5
178
330
176
100
AcDbEntity
  8
0
100
AcDbBlockEnd
  0
BLOCK
  5
185
330
184
100
AcDbEntity
  8
0
100
AcDbBlockBegin
  2
BLKF017
 70
     0
 71
     0
 10
0.0
 20
0.0
 30
0.0
  3
BLKF017
  1

  0
TEXT
  5
188
330
184
100
AcDbEntity
  8
0
 62
     7
100
AcDbText
 10
22.799999
 20
67.561951
 30
0.0
 40
2.8
  1
%%c30
 50
90.0
 41
0.928125
  7
ED_VECTOR
 72
     5
 11
22.799999
 21
74.49195
 31
0.0
100
AcDbText
  0
TEXT
  5
189
330
184
100
AcDbEntity
  8
0
 62
     7
100
AcDbText
 10
21.400002
 20
74.491943
 30
0.0
 40
1.4
  1
-0.02
 50
90.0
 41
0.931452
  7
ED_VECTOR
 72
     5
 11
21.400002
 21
80.266943
 31
0.0
100
AcDbText
  0
TEXT
  5
18A
330
184
100
AcDbEntity
  8
0
 62
     7
100
AcDbText
 10
22.799999
 20
74.491943
 30
0.0
 40
1.4
  1
-0.03
 50
90.0
 41
0.931452
  7
ED_VECTOR
 72
     5
 11
22.799999
 21
80.266943
 31
0.0
100
AcDbText
  0
LINE
  5
18B
330
184
100
AcDbEntity
  8
0
  6
CONTINUOUS
 62
     7
100
AcDbLine
 10
36.905171
 20
58.91444
 30
0.0
 11
23.3
 21
58.91444
 31
0.0
  0
LINE
  5
18C
330
184
100
AcDbEntity
  8
0
  6
CONTINUOUS
 62
     7
100
AcDbLine
 10
36.905171
 20
88.91444
 30
0.0
 11
23.3
 21
88.91444
 31
0.0
  0
LINE
  5
18D
330
184
100
AcDbEntity
  8
0
  6
CONTINUOUS
 62
     7
100
AcDbLine
 10
23.8
 20
58.91444
 30
0.0
 11
23.8
 21
88.91444
 31
0.0
  0
LINE
  5
18E
330
184
100
AcDbEntity
  8
0
  6
CONTINUOUS
 62
     7
100
AcDbLine
 10
23.8
 20
58.91444
 30
0.0
 11
23.8
 21
61.91444
 31
0.0
  0
LINE
  5
18F
330
184
100
AcDbEntity
  8
0
  6
CONTINUOUS
 62
     7
100
AcDbLine
 10
23.8
 20
58.91444
 30
0.0
 11
24.576457
 21
61.812218
 31
0.0
  0
LINE
  5
190
330
184
100
AcDbEntity
  8
0
  6
CONTINUOUS
 62
     7
100
AcDbLine
 10
23.8
 20
58.91444
 30
0.0
 11
23.023543
 21
61.812218
 31
0.0
  0
LINE
  5
191
330
184
100
AcDbEntity
  8
0
  6
CONTINUOUS
 62
     7
100
AcDbLine
 10
23.8
 20
88.91444
 30
0.0
 11
23.8
 21
85.91444
 31
0.0
  0
LINE
  5
192
330
184
100
AcDbEntity
  8
0
  6
CONTINUOUS
 62
     7
100
AcDbLine
 10
23.8
 20
88.91444
 30
0.0
 11
24.576457
 21
86.016662
 31
0.0
  0
LINE
  5
193
330
184
100
AcDbEntity
  8
0
  6
CONTINUOUS
 62
     7
100
AcDbLine
 10
23.8
 20
88.91444
 30
0.0
 11
23.023543
 21
86.016662
 31
0.0
  0
ENDBLK
  5
186
330
184
100
AcDbEntity
  8
0
100
AcDbBlockEnd
  0
ENDSEC
  0
SECTION
  2
ENTITIES
  0
LINE
  5
6F
330
1F
100
AcDbEntity
  8
CSLAYER2
  6
CONTINUOUS
 62
     6
100
AcDbLine
 10
36.905171
 20
88.91444
 30
0.0
 11
36.805171
 21
88.81444
 31
0.0
  0
LINE
  5
70
330
1F
100
AcDbEntity
  8
CSLAYER2
  6
CONTINUOUS
 62
     6
100
AcDbLine
 10
106.605171
 20
88.91444
 30
0.0
 11
106.705171
 21
88.81444
 31
0.0
  0
LINE
  5
71
330
1F
100
AcDbEntity
  8
CSLAYER2
  6
CONTINUOUS
 62
     6
100
AcDbLine
 10
106.705171
 20
59.01444
 30
0.0
 11
106.705171
 21
88.81444
 31
0.0
  0
LINE
  5
72
330
1F
100
AcDbEntity
  8
CSLAYER2
  6
CONTINUOUS
 62
     6
100
AcDbLine
 10
36.905171
 20
88.91444
 30
0.0
 11
44.724978
 21
88.91444
 31
0.0
  0
LINE
  5
73
330
1F
100
AcDbEntity
  8
CSLAYER2
  6
CONTINUOUS
 62
     6
100
AcDbLine
 10
106.605171
 20
58.91444
 30
0.0
 11
106.705171
 21
59.01444
 31
0.0
  0
LINE
  5
74
330
1F
100
AcDbEntity
  8
CSLAYER2
  6
CONTINUOUS
 62
     6
100
AcDbLine
 10
36.905171
 20
58.91444
 30
0.0
 11
44.724978
 21
58.91444
 31
0.0
  0
LINE
  5
75
330
1F
100
AcDbEntity
  8
CSLAYER2
  6
CONTINUOUS
 62
     6
100
AcDbLine
 10
69.305171
 20
80.452788
 30
0.0
 11
69.305171
 21
67.376092
 31
0.0
  0
LINE
  5
76
330
1F
100
AcDbEntity
  8
CSLAYER2
  6
CONTINUOUS
 62
     6
100
AcDbLine
 10
65.805171
 20
80.452788
 30
0.0
 11
65.805171
 21
67.376092
 31
0.0
  0
LINE
  5
77
330
1F
100
AcDbEntity
  8
CSLAYER2
  6
CONTINUOUS
 62
     6
100
AcDbLine
 10
69.305171
 20
67.376092
 30
0.0
 11
65.805171
 21
67.376092
 31
0.0
  0
ARC
  5
78
330
1F
100
AcDbEntity
  8
CSLAYER2
  6
CONTINUOUS
 62
     6
100
AcDbCircle
 10
45.05646
 20
73.91444
 30
0.0
 40
25.114736709
100
AcDbArc
 50
-15.090185
 51
15.090185
  0
ARC
  5
79
330
1F
100
AcDbEntity
  8
CSLAYER2
  6
CONTINUOUS
 62
     6
100
AcDbCircle
 10
90.053882
 20
73.91444
 30
0.0
 40
25.114736709
100
AcDbArc
 50
164.909815
 51
195.090185
  0
LINE
  5
7A
330
1F
100
AcDbEntity
  8
CSLAYER2
  6
CENTER
 62
     1
100
AcDbLine
 10
35.105171
 20
73.91444
 30
0.0
 11
44.724978
 21
73.91444
 31
0.0
  0
LINE
  5
7B
330
1F
100
AcDbEntity
  8
CSLAYER2
  6
CONTINUOUS
 62
     6
100
AcDbLine
 10
135.505171
 20
80.41444
 30
0.0
 11
135.505171
 21
67.41444
 31
0.0
  0
ARC
  5
7C
330
1F
100
AcDbEntity
  8
CSLAYER2
  6
CONTINUOUS
 62
     4
100
AcDbCircle
 10
170.505171
 20
84.51444
 30
0.0
 40
1.0
100
AcDbArc
 50
-53.130102
 51
53.130102
  0
LINE
  5
7D
330
1F
100
AcDbEntity
  8
CSLAYER2
  6
CONTINUOUS
 62
     6
100
AcDbLine
 10
106.705171
 20
88.86444
 30
0.0
 11
106.705171
 21
58.96444
 31
0.0
  0
ARC
  5
7E
330
1F
100
AcDbEntity
  8
CSLAYER2
  6
CONTINUOUS
 62
     6
100
AcDbCircle
 10
107.314195
 20
73.91444
 30
0.0
 40
24.999266656
100
AcDbArc
 50
-14.609483
 51
14.609483
  0
ARC
  5
7F
330
1F
100
AcDbEntity
  8
CSLAYER2
  6
CONTINUOUS
 62
     6
100
AcDbCircle
 10
152.196147
 20
73.91444
 30
0.0
 40
24.999266656
100
AcDbArc
 50
165.390517
 51
194.609483
  0
LINE
  5
80
330
1F
100
AcDbEntity
  8
CSLAYER2
  6
CONTINUOUS
 62
     6
100
AcDbLine
 10
131.505171
 20
67.608887
 30
0.0
 11
131.505171
 21
80.219993
 31
0.0
  0
LINE
  5
81
330
1F
100
AcDbEntity
  8
CSLAYER2
  6
CONTINUOUS
 62
     6
100
AcDbLine
 10
128.005171
 20
80.219993
 30
0.0
 11
128.005171
 21
67.608887
 31
0.0
  0
LINE
  5
82
330
1F
100
AcDbEntity
  8
CSLAYER2
  6
CONTINUOUS
 62
     6
100
AcDbLine
 10
128.005171
 20
67.608887
 30
0.0
 11
131.505171
 21
67.608887
 31
0.0
  0
LINE
  5
83
330
1F
100
AcDbEntity
  8
CSLAYER2
  6
CONTINUOUS
 62
     6
100
AcDbLine
 10
128.005171
 20
80.219993
 30
0.0
 11
131.505171
 21
80.219993
 31
0.0
  0
LINE
  5
84
330
1F
100
AcDbEntity
  8
CSLAYER2
  6
CONTINUOUS
 62
     6
100
AcDbLine
 10
134.505171
 20
88.56444
 30
0.0
 11
134.505171
 21
59.26444
 31
0.0
  0
LINE
  5
85
330
1F
100
AcDbEntity
  8
CSLAYER2
  6
CONTINUOUS
 62
     6
100
AcDbLine
 10
144.105171
 20
81.81444
 30
0.0
 11
144.105171
 21
88.81444
 31
0.0
  0
ARC
  5
86
330
1F
100
AcDbEntity
  8
CSLAYER2
  6
CONTINUOUS
 62
     4
100
AcDbCircle
 10
162.005171
 20
75.91444
 30
0.0
 40
2.500000051
100
AcDbArc
 50
126.869898
 51
233.130103
  0
LINE
  5
87
330
1F
100
AcDbEntity
  8
CSLAYER2
  6
CONTINUOUS
 62
     6
100
AcDbLine
 10
134.605171
 20
81.81444
 30
0.0
 11
134.605171
 21
88.81444
 31
0.0
  0
ARC
  5
88
330
1F
100
AcDbEntity
  8
CSLAYER2
  6
CONTINUOUS
 62
     4
100
AcDbCircle
 10
159.005171
 20
71.91444
 30
0.0
 40
2.500000051
100
AcDbArc
 50
-53.130102
 51
53.130103
  0
LINE
  5
89
330
1F
100
AcDbEntity
  8
CSLAYER2
  6
CONTINUOUS
 62
     6
100
AcDbLine
 10
144.505171
 20
81.81444
 30
0.0
 11
144.505171
 21
88.81444
 31
0.0
  0
ARC
  5
8A
330
1F
100
AcDbEntity
  8
CSLAYER2
  6
CONTINUOUS
 62
     4
100
AcDbCircle
 10
159.005171
 20
75.91444
 30
0.0
 40
2.500000051
100
AcDbArc
 50
-53.130102
 51
53.130103
  0
LINE
  5
8B
330
1F
100
AcDbEntity
  8
CSLAYER2
  6
CONTINUOUS
 62
     6
100
AcDbLine
 10
146.105171
 20
88.31444
 30
0.0
 11
146.105171
 21
82.31444
 31
0.0
  0
LINE
  5
8C
330
1F
100
AcDbEntity
  8
CSLAYER2
  6
CONTINUOUS
 62
     6
100
AcDbLine
 10
141.705171
 20
80.294072
 30
0.0
 11
144.805171
 21
80.294072
 31
0.0
  0
LINE
  5
8D
330
1F
100
AcDbEntity
  8
CSLAYER2
  6
CONTINUOUS
 62
     6
100
AcDbLine
 10
141.505171
 20
79.985593
 30
0.0
 11
141.705171
 21
80.294072
 31
0.0
  0
LINE
  5
8E
330
1F
100
AcDbEntity
  8
CSLAYER2
  6
CONTINUOUS
 62
     6
100
AcDbLine
 10
141.505171
 20
67.61444
 30
0.0
 11
141.505171
 21
80.21444
 31
0.0
  0
LINE
  5
8F
330
1F
100
AcDbEntity
  8
CSLAYER2
  6
CONTINUOUS
 62
     6
100
AcDbLine
 10
144.805171
 20
67.534808
 30
0.0
 11
141.705171
 21
67.534808
 31
0.0
  0
LINE
  5
90
330
1F
100
AcDbEntity
  8
CSLAYER2
  6
CONTINUOUS
 62
     6
100
AcDbLine
 10
141.705171
 20
67.534808
 30
0.0
 11
141.505171
 21
67.843287
 31
0.0
  0
LINE
  5
91
330
1F
100
AcDbEntity
  8
CSLAYER2
  6
CONTINUOUS
 62
     6
100
AcDbLine
 10
141.705171
 20
69.901768
 30
0.0
 11
144.805171
 21
69.901768
 31
0.0
  0
LINE
  5
92
330
1F
100
AcDbEntity
  8
CSLAYER2
  6
CONTINUOUS
 62
     6
100
AcDbLine
 10
144.805171
 20
77.927112
 30
0.0
 11
141.705171
 21
77.927112
 31
0.0
  0
LINE
  5
93
330
1F
100
AcDbEntity
  8
CSLAYER2
  6
CONTINUOUS
 62
     6
100
AcDbLine
 10
141.505171
 20
69.593288
 30
0.0
 11
141.705171
 21
69.901768
 31
0.0
  0
LINE
  5
94
330
1F
100
AcDbEntity
  8
CSLAYER2
  6
CONTINUOUS
 62
     6
100
AcDbLine
 10
141.705171
 20
71.54748
 30
0.0
 11
141.705171
 21
69.901768
 31
0.0
  0
LINE
  5
95
330
1F
100
AcDbEntity
  8
CSLAYER2
  6
CONTINUOUS
 62
     6
100
AcDbLine
 10
141.705171
 20
77.927112
 30
0.0
 11
141.705171
 21
76.2814
 31
0.0
  0
LINE
  5
96
330
1F
100
AcDbEntity
  8
CSLAYER2
  6
CONTINUOUS
 62
     6
100
AcDbLine
 10
141.705171
 20
77.927112
 30
0.0
 11
141.505171
 21
78.235592
 31
0.0
  0
LINE
  5
97
330
1F
100
AcDbEntity
  8
CSLAYER2
  6
CONTINUOUS
 62
     6
100
AcDbLine
 10
144.805171
 20
71.54748
 30
0.0
 11
141.705171
 21
71.54748
 31
0.0
  0
LINE
  5
98
330
1F
100
AcDbEntity
  8
CSLAYER2
  6
CONTINUOUS
 62
     6
100
AcDbLine
 10
141.705171
 20
76.2814
 30
0.0
 11
144.805171
 21
76.2814
 31
0.0
  0
LINE
  5
99
330
1F
100
AcDbEntity
  8
CSLAYER2
  6
CONTINUOUS
 62
     6
100
AcDbLine
 10
141.505171
 20
75.66444
 30
0.0
 11
141.705171
 21
76.2814
 31
0.0
  0
LINE
  5
9A
330
1F
100
AcDbEntity
  8
CSLAYER2
  6
CONTINUOUS
 62
     6
100
AcDbLine
 10
144.805171
 20
67.46444
 30
0.0
 11
145.505171
 21
68.16444
 31
0.0
  0
LINE
  5
9B
330
1F
100
AcDbEntity
  8
CSLAYER2
  6
CONTINUOUS
 62
     6
100
AcDbLine
 10
145.505171
 20
79.66444
 30
0.0
 11
144.805171
 21
80.36444
 31
0.0
  0
LINE
  5
9C
330
1F
100
AcDbEntity
  8
CSLAYER2
  6
CONTINUOUS
 62
     6
100
AcDbLine
 10
141.705171
 20
80.36444
 30
0.0
 11
141.505171
 21
80.16444
 31
0.0
  0
LINE
  5
9D
330
1F
100
AcDbEntity
  8
CSLAYER2
  6
CONTINUOUS
 62
     6
100
AcDbLine
 10
141.505171
 20
67.66444
 30
0.0
 11
141.705171
 21
67.46444
 31
0.0
  0
LINE
  5
9E
330
1F
100
AcDbEntity
  8
CSLAYER2
  6
CONTINUOUS
 62
     6
100
AcDbLine
 10
144.805171
 20
80.36444
 30
0.0
 11
141.705171
 21
80.36444
 31
0.0
  0
LINE
  5
9F
330
1F
100
AcDbEntity
  8
CSLAYER2
  6
CONTINUOUS
 62
     6
100
AcDbLine
 10
141.705171
 20
67.46444
 30
0.0
 11
144.805171
 21
67.46444
 31
0.0
  0
LINE
  5
A0
330
1F
100
AcDbEntity
  8
CSLAYER2
  6
CONTINUOUS
 62
     6
100
AcDbLine
 10
145.505171
 20
79.66444
 30
0.0
 11
145.505171
 21
68.16444
 31
0.0
  0
LINE
  5
A1
330
1F
100
AcDbEntity
  8
CSLAYER2
  6
CONTINUOUS
 62
     6
100
AcDbLine
 10
144.805171
 20
67.46444
 30
0.0
 11
144.805171
 21
67.534808
 31
0.0
  0
ARC
  5
A2
330
1F
100
AcDbEntity
  8
CSLAYER2
  6
CONTINUOUS
 62
     6
100
AcDbCircle
 10
143.424234
 20
68.718288
 30
0.0
 40
1.81868376
100
AcDbArc
 50
-40.596993
 51
40.596993
  0
LINE
  5
A3
330
1F
100
AcDbEntity
  8
CSLAYER2
  6
CONTINUOUS
 62
     6
100
AcDbLine
 10
144.805171
 20
69.901768
 30
0.0
 11
144.805171
 21
71.54748
 31
0.0
  0
ARC
  5
A4
330
1F
100
AcDbEntity
  8
CSLAYER2
  6
CONTINUOUS
 62
     6
100
AcDbCircle
 10
138.589608
 20
73.91444
 30
0.0
 40
6.650993756
100
AcDbArc
 50
-20.847428
 51
20.847428
  0
LINE
  5
A5
330
1F
100
AcDbEntity
  8
CSLAYER2
  6
CONTINUOUS
 62
     6
100
AcDbLine
 10
144.805171
 20
76.2814
 30
0.0
 11
144.805171
 21
77.927112
 31
0.0
  0
ARC
  5
A6
330
1F
100
AcDbEntity
  8
CSLAYER2
  6
CONTINUOUS
 62
     6
100
AcDbCircle
 10
143.424234
 20
79.110592
 30
0.0
 40
1.818683538
100
AcDbArc
 50
-40.596999
 51
40.596999
  0
LINE
  5
A7
330
1F
100
AcDbEntity
  8
CSLAYER2
  6
CONTINUOUS
 62
     6
100
AcDbLine
 10
144.805171
 20
80.294072
 30
0.0
 11
144.805171
 21
80.36444
 31
0.0
  0
LINE
  5
A8
330
1F
100
AcDbEntity
  8
CSLAYER2
  6
CONTINUOUS
 62
     6
100
AcDbLine
 10
141.705171
 20
71.54748
 30
0.0
 11
141.505171
 21
72.16444
 31
0.0
  0
LINE
  5
A9
330
1F
100
AcDbEntity
  8
CSLAYER2
  6
CONTINUOUS
 62
     6
100
AcDbLine
 10
160.505171
 20
77.91444
 30
0.0
 11
145.505171
 21
77.91444
 31
0.0
  0
LINE
  5
AA
330
1F
100
AcDbEntity
  8
CSLAYER2
  6
CONTINUOUS
 62
     6
100
AcDbLine
 10
145.505171
 20
69.91444
 30
0.0
 11
160.505171
 21
69.91444
 31
0.0
  0
LINE
  5
AB
330
1F
100
AcDbEntity
  8
CSLAYER2
  6
CONTINUOUS
 62
     6
100
AcDbLine
 10
135.505171
 20
67.41444
 30
0.0
 11
141.305171
 21
67.41444
 31
0.0
  0
LINE
  5
AC
330
1F
100
AcDbEntity
  8
CSLAYER2
  6
CONTINUOUS
 62
     6
100
AcDbLine
 10
141.305171
 20
80.41444
 30
0.0
 11
135.505171
 21
80.41444
 31
0.0
  0
LINE
  5
AD
330
1F
100
AcDbEntity
  8
CSLAYER2
  6
CONTINUOUS
 62
     6
100
AcDbLine
 10
141.505171
 20
80.21444
 30
0.0
 11
141.305171
 21
80.41444
 31
0.0
  0
LINE
  5
AE
330
1F
100
AcDbEntity
  8
CSLAYER2
  6
CONTINUOUS
 62
     6
100
AcDbLine
 10
141.305171
 20
67.41444
 30
0.0
 11
141.505171
 21
67.61444
 31
0.0
  0
ARC
  5
AF
330
1F
100
AcDbEntity
  8
CSLAYER2
  6
CONTINUOUS
 62
     6
100
AcDbCircle
 10
135.505171
 20
81.41444
 30
0.0
 40
1.0
100
AcDbArc
 50
180.0
 51
270.0
  0
ARC
  5
B0
330
1F
100
AcDbEntity
  8
CSLAYER2
  6
CONTINUOUS
 62
     6
100
AcDbCircle
 10
135.505171
 20
66.41444
 30
0.0
 40
1.0
100
AcDbArc
 50
90.0
 51
180.0
  0
LINE
  5
B1
330
1F
100
AcDbEntity
  8
CSLAYER2
  6
CONTINUOUS
 62
     6
100
AcDbLine
 10
106.705171
 20
58.96444
 30
0.0
 11
134.205171
 21
58.96444
 31
0.0
  0
LINE
  5
B2
330
1F
100
AcDbEntity
  8
CSLAYER2
  6
CONTINUOUS
 62
     6
100
AcDbLine
 10
134.205171
 20
88.86444
 30
0.0
 11
106.705171
 21
88.86444
 31
0.0
  0
LINE
  5
B3
330
1F
100
AcDbEntity
  8
CSLAYER2
  6
CONTINUOUS
 62
     6
100
AcDbLine
 10
134.505171
 20
88.56444
 30
0.0
 11
134.205171
 21
88.86444
 31
0.0
  0
LINE
  5
B4
330
1F
100
AcDbEntity
  8
CSLAYER2
  6
CONTINUOUS
 62
     6
100
AcDbLine
 10
134.205171
 20
58.96444
 30
0.0
 11
134.505171
 21
59.26444
 31
0.0
  0
LINE
  5
B5
330
1F
100
AcDbEntity
  8
CSLAYER2
  6
CONTINUOUS
 62
     6
100
AcDbLine
 10
144.505171
 20
87.38944
 30
0.0
 11
144.105172
 21
87.38944
 31
0.0
  0
LINE
  5
B6
330
1F
100
AcDbEntity
  8
CSLAYER2
  6
CONTINUOUS
 62
     6
100
AcDbLine
 10
144.105172
 20
83.23944
 30
0.0
 11
144.505171
 21
83.23944
 31
0.0
  0
LINE
  5
B7
330
1F
100
AcDbEntity
  8
CSLAYER2
  6
CONTINUOUS
 62
     6
100
AcDbLine
 10
134.605171
 20
88.06444
 30
0.0
 11
134.505171
 21
88.06444
 31
0.0
  0
LINE
  5
B8
330
1F
100
AcDbEntity
  8
CSLAYER2
  6
CONTINUOUS
 62
     6
100
AcDbLine
 10
134.505171
 20
82.56444
 30
0.0
 11
134.605171
 21
82.56444
 31
0.0
  0
LINE
  5
B9
330
1F
100
AcDbEntity
  8
CSLAYER2
  6
CONTINUOUS
 62
     6
100
AcDbLine
 10
144.105171
 20
88.81444
 30
0.0
 11
134.605171
 21
88.81444
 31
0.0
  0
LINE
  5
BA
330
1F
100
AcDbEntity
  8
CSLAYER2
  6
CONTINUOUS
 62
     6
100
AcDbLine
 10
134.605171
 20
81.81444
 30
0.0
 11
144.105171
 21
81.81444
 31
0.0
  0
LINE
  5
BB
330
1F
100
AcDbEntity
  8
CSLAYER2
  6
CONTINUOUS
 62
     6
100
AcDbLine
 10
145.605171
 20
88.81444
 30
0.0
 11
144.505171
 21
88.81444
 31
0.0
  0
LINE
  5
BC
330
1F
100
AcDbEntity
  8
CSLAYER2
  6
CONTINUOUS
 62
     6
100
AcDbLine
 10
144.505171
 20
81.81444
 30
0.0
 11
145.605171
 21
81.81444
 31
0.0
  0
ARC
  5
BD
330
1F
100
AcDbEntity
  8
CSLAYER2
  6
CONTINUOUS
 62
     6
100
AcDbCircle
 10
145.605171
 20
82.31444
 30
0.0
 40
0.5
100
AcDbArc
 50
270.0
 51
360.0
  0
ARC
  5
BE
330
1F
100
AcDbEntity
  8
CSLAYER2
  6
CONTINUOUS
 62
     6
100
AcDbCircle
 10
145.605171
 20
88.31444
 30
0.0
 40
0.5
100
AcDbArc
 50
0.0
 51
90.0
  0
LINE
  5
BF
330
1F
100
AcDbEntity
  8
CSLAYER2
  6
CONTINUOUS
 62
     6
100
AcDbLine
 10
36.905171
 20
58.91444
 30
0.0
 11
36.805171
 21
59.01444
 31
0.0
  0
LINE
  5
C0
330
1F
100
AcDbEntity
  8
CSLAYER2
  6
CONTINUOUS
 62
     1
100
AcDbLine
 10
228.860959
 20
70.139959
 30
0.0
 11
228.933445
 21
66.618316
 31
0.0
  0
LINE
  5
C1
330
1F
100
AcDbEntity
  8
CSLAYER2
  6
CONTINUOUS
 62
     6
100
AcDbLine
 10
226.105171
 20
64.66444
 30
0.0
 11
203.505171
 21
64.66444
 31
0.0
  0
LINE
  5
C2
330
1F
100
AcDbEntity
  8
CSLAYER2
  6
CONTINUOUS
 62
     6
100
AcDbLine
 10
203.505171
 20
64.66444
 30
0.0
 11
203.505171
 21
83.16444
 31
0.0
  0
LINE
  5
C3
330
1F
100
AcDbEntity
  8
CSLAYER2
  6
CONTINUOUS
 62
     6
100
AcDbLine
 10
203.505171
 20
83.16444
 30
0.0
 11
226.105171
 21
83.16444
 31
0.0
  0
LINE
  5
C4
330
1F
100
AcDbEntity
  8
CSLAYER2
  6
CONTINUOUS
 62
     4
100
AcDbLine
 10
222.105171
 20
82.41444
 30
0.0
 11
221.355171
 21
83.16444
 31
0.0
  0
LINE
  5
C5
330
1F
100
AcDbEntity
  8
CSLAYER2
  6
CONTINUOUS
 62
     4
100
AcDbLine
 10
216.105171
 20
77.91444
 30
0.0
 11
221.355171
 21
83.16444
 31
0.0
  0
LINE
  5
C6
330
1F
100
AcDbEntity
  8
CSLAYER2
  6
CONTINUOUS
 62
     6
100
AcDbLine
 10
213.105171
 20
83.16444
 30
0.0
 11
213.105171
 21
64.66444
 31
0.0
  0
LINE
  5
C7
330
1F
100
AcDbEntity
  8
CSLAYER2
  6
CONTINUOUS
 62
     6
100
AcDbLine
 10
207.105171
 20
83.16444
 30
0.0
 11
207.105171
 21
64.66444
 31
0.0
  0
LINE
  5
C8
330
1F
100
AcDbEntity
  8
CSLAYER2
  6
CONTINUOUS
 62
     4
100
AcDbLine
 10
216.105171
 20
81.91444
 30
0.0
 11
217.355171
 21
83.16444
 31
0.0
  0
LINE
  5
C9
330
1F
100
AcDbEntity
  8
CSLAYER2
  6
CONTINUOUS
 62
     4
100
AcDbLine
 10
219.855171
 20
64.66444
 30
0.0
 11
216.105171
 21
68.41444
 31
0.0
  0
LINE
  5
CA
330
1F
100
AcDbEntity
  8
CSLAYER2
  6
CONTINUOUS
 62
     4
100
AcDbLine
 10
218.855171
 20
64.66444
 30
0.0
 11
222.105171
 21
67.91444
 31
0.0
  0
LINE
  5
CB
330
1F
100
AcDbEntity
  8
CSLAYER2
  6
CONTINUOUS
 62
     4
100
AcDbLine
 10
222.105171
 20
66.41444
 30
0.0
 11
216.105171
 21
72.41444
 31
0.0
  0
LINE
  5
CC
330
1F
100
AcDbEntity
  8
CSLAYER2
  6
CONTINUOUS
 62
     4
100
AcDbLine
 10
216.105171
 20
65.91444
 30
0.0
 11
222.105171
 21
71.91444
 31
0.0
  0
LINE
  5
CD
330
1F
100
AcDbEntity
  8
CSLAYER2
  6
CONTINUOUS
 62
     4
100
AcDbLine
 10
222.105171
 20
70.41444
 30
0.0
 11
216.105171
 21
76.41444
 31
0.0
  0
LINE
  5
CE
330
1F
100
AcDbEntity
  8
CSLAYER2
  6
CONTINUOUS
 62
     4
100
AcDbLine
 10
216.105171
 20
69.91444
 30
0.0
 11
222.105171
 21
75.91444
 31
0.0
  0
LINE
  5
CF
330
1F
100
AcDbEntity
  8
CSLAYER2
  6
CONTINUOUS
 62
     4
100
AcDbLine
 10
222.105171
 20
74.41444
 30
0.0
 11
216.105171
 21
80.41444
 31
0.0
  0
LINE
  5
D0
330
1F
100
AcDbEntity
  8
CSLAYER2
  6
CONTINUOUS
 62
     4
100
AcDbLine
 10
216.105171
 20
73.91444
 30
0.0
 11
222.105171
 21
79.91444
 31
0.0
  0
LINE
  5
D1
330
1F
100
AcDbEntity
  8
CSLAYER2
  6
CONTINUOUS
 62
     4
100
AcDbLine
 10
222.105171
 20
78.41444
 30
0.0
 11
217.355171
 21
83.16444
 31
0.0
  0
LINE
  5
D2
330
1F
100
AcDbEntity
  8
CSLAYER2
  6
CONTINUOUS
 62
     6
100
AcDbLine
 10
216.105171
 20
83.16444
 30
0.0
 11
216.105171
 21
64.66444
 31
0.0
  0
LINE
  5
D3
330
1F
100
AcDbEntity
  8
CSLAYER2
  6
CONTINUOUS
 62
     6
100
AcDbLine
 10
222.105171
 20
83.16444
 30
0.0
 11
222.105171
 21
64.66444
 31
0.0
  0
LINE
  5
D4
330
1F
100
AcDbEntity
  8
CSLAYER2
  6
CONTINUOUS
 62
     1
100
AcDbLine
 10
226.745514
 20
81.210564
 30
0.0
 11
226.818
 21
77.688921
 31
0.0
  0
LINE
  5
D5
330
1F
100
AcDbEntity
  8
CSLAYER2
  6
CONTINUOUS
 62
     6
100
AcDbLine
 10
226.105171
 20
83.16444
 30
0.0
 11
226.105171
 21
64.66444
 31
0.0
  0
LINE
  5
D6
330
1F
100
AcDbEntity
  8
CSLAYER2
  6
CONTINUOUS
 62
     1
100
AcDbLine
 10
226.973382
 20
70.139959
 30
0.0
 11
227.045868
 21
66.618316
 31
0.0
  0
LINE
  5
D7
330
1F
100
AcDbEntity
  8
CSLAYER2
  6
CONTINUOUS
 62
     4
100
AcDbLine
 10
213.105171
 20
78.41444
 30
0.0
 11
208.355171
 21
83.16444
 31
0.0
  0
LINE
  5
D8
330
1F
100
AcDbEntity
  8
CSLAYER2
  6
CONTINUOUS
 62
     4
100
AcDbLine
 10
207.105171
 20
73.91444
 30
0.0
 11
213.105171
 21
79.91444
 31
0.0
  0
LINE
  5
D9
330
1F
100
AcDbEntity
  8
CSLAYER2
  6
CONTINUOUS
 62
     4
100
AcDbLine
 10
213.105171
 20
74.41444
 30
0.0
 11
207.105171
 21
80.41444
 31
0.0
  0
LINE
  5
DA
330
1F
100
AcDbEntity
  8
CSLAYER2
  6
CONTINUOUS
 62
     4
100
AcDbLine
 10
207.105171
 20
69.91444
 30
0.0
 11
213.105171
 21
75.91444
 31
0.0
  0
LINE
  5
DB
330
1F
100
AcDbEntity
  8
CSLAYER2
  6
CONTINUOUS
 62
     4
100
AcDbLine
 10
213.105171
 20
70.41444
 30
0.0
 11
207.105171
 21
76.41444
 31
0.0
  0
LINE
  5
DC
330
1F
100
AcDbEntity
  8
CSLAYER2
  6
CONTINUOUS
 62
     4
100
AcDbLine
 10
207.105171
 20
65.91444
 30
0.0
 11
213.105171
 21
71.91444
 31
0.0
  0
LINE
  5
DD
330
1F
100
AcDbEntity
  8
CSLAYER2
  6
CONTINUOUS
 62
     4
100
AcDbLine
 10
213.105171
 20
66.41444
 30
0.0
 11
207.105171
 21
72.41444
 31
0.0
  0
LINE
  5
DE
330
1F
100
AcDbEntity
  8
CSLAYER2
  6
CONTINUOUS
 62
     4
100
AcDbLine
 10
209.855171
 20
64.66444
 30
0.0
 11
213.105171
 21
67.91444
 31
0.0
  0
LINE
  5
DF
330
1F
100
AcDbEntity
  8
CSLAYER2
  6
CONTINUOUS
 62
     4
100
AcDbLine
 10
210.855171
 20
64.66444
 30
0.0
 11
207.105171
 21
68.41444
 31
0.0
  0
LINE
  5
E0
330
1F
100
AcDbEntity
  8
CSLAYER2
  6
CONTINUOUS
 62
     4
100
AcDbLine
 10
207.105171
 20
81.91444
 30
0.0
 11
208.355171
 21
83.16444
 31
0.0
  0
LINE
  5
E1
330
1F
100
AcDbEntity
  8
CSLAYER2
  6
CONTINUOUS
 62
     4
100
AcDbLine
 10
207.105171
 20
77.91444
 30
0.0
 11
212.355171
 21
83.16444
 31
0.0
  0
LINE
  5
E2
330
1F
100
AcDbEntity
  8
CSLAYER2
  6
CONTINUOUS
 62
     4
100
AcDbLine
 10
213.105171
 20
82.41444
 30
0.0
 11
212.355171
 21
83.16444
 31
0.0
  0
LINE
  5
E3
330
1F
100
AcDbEntity
  8
CSLAYER2
  6
CONTINUOUS
 62
     6
100
AcDbLine
 10
203.505171
 20
82.21444
 30
0.0
 11
192.505171
 21
82.21444
 31
0.0
  0
LINE
  5
E4
330
1F
100
AcDbEntity
  8
CSLAYER2
  6
CONTINUOUS
 62
     6
100
AcDbLine
 10
189.505171
 20
79.21444
 30
0.0
 11
189.505171
 21
68.61444
 31
0.0
  0
LINE
  5
E5
330
1F
100
AcDbEntity
  8
CSLAYER2
  6
CONTINUOUS
 62
     6
100
AcDbLine
 10
192.505171
 20
65.61444
 30
0.0
 11
203.505171
 21
65.61444
 31
0.0
  0
LINE
  5
E6
330
1F
100
AcDbEntity
  8
CSLAYER2
  6
CONTINUOUS
 62
     6
100
AcDbLine
 10
192.505171
 20
79.680938
 30
0.0
 11
192.505171
 21
68.147942
 31
0.0
  0
ARC
  5
E7
330
1F
100
AcDbEntity
  8
CSLAYER2
  6
CONTINUOUS
 62
     6
100
AcDbCircle
 10
192.505171
 20
68.61444
 30
0.0
 40
3.0
100
AcDbArc
 50
180.0
 51
270.0
  0
ARC
  5
E8
330
1F
100
AcDbEntity
  8
CSLAYER2
  6
CONTINUOUS
 62
     6
100
AcDbCircle
 10
192.505171
 20
79.21444
 30
0.0
 40
3.0
100
AcDbArc
 50
90.0
 51
180.0
  0
ARC
  5
E9
330
1F
100
AcDbEntity
  8
CSLAYER2
  6
CONTINUOUS
 62
     6
100
AcDbCircle
 10
196.547254
 20
73.91444
 30
0.0
 40
7.042083333
100
AcDbArc
 50
125.028911
 51
234.971089
  0
LINE
  5
EA
330
1F
100
AcDbEntity
  8
CSLAYER2
  6
CONTINUOUS
 62
     6
100
AcDbLine
 10
189.505171
 20
69.91444
 30
0.0
 11
164.505171
 21
69.91444
 31
0.0
  0
LINE
  5
EB
330
1F
100
AcDbEntity
  8
CSLAYER2
  6
CONTINUOUS
 62
     6
100
AcDbLine
 10
189.505171
 20
77.91444
 30
0.0
 11
164.505171
 21
77.91444
 31
0.0
  0
ARC
  5
EC
330
1F
100
AcDbEntity
  8
CSLAYER2
  6
CONTINUOUS
 62
     6
100
AcDbCircle
 10
193.729615
 20
71.788025
 30
0.0
 40
0.72444437
100
AcDbArc
 50
90.0
 51
270.0
  0
LINE
  5
ED
330
1F
100
AcDbEntity
  8
CSLAYER2
  6
CONTINUOUS
 62
     6
100
AcDbLine
 10
203.505171
 20
72.512469
 30
0.0
 11
193.729615
 21
72.512469
 31
0.0
  0
LINE
  5
EE
330
1F
100
AcDbEntity
  8
CSLAYER2
  6
CONTINUOUS
 62
     6
100
AcDbLine
 10
203.505171
 20
76.7653
 30
0.0
 11
193.729615
 21
76.7653
 31
0.0
  0
LINE
  5
EF
330
1F
100
AcDbEntity
  8
CSLAYER2
  6
CONTINUOUS
 62
     6
100
AcDbLine
 10
203.505171
 20
75.316411
 30
0.0
 11
193.729615
 21
75.316411
 31
0.0
  0
ARC
  5
F0
330
1F
100
AcDbEntity
  8
CSLAYER2
  6
CONTINUOUS
 62
     6
100
AcDbCircle
 10
193.729615
 20
76.040856
 30
0.0
 40
0.72444437
100
AcDbArc
 50
90.0
 51
270.0
  0
LINE
  5
F1
330
1F
100
AcDbEntity
  8
CSLAYER2
  6
CONTINUOUS
 62
     6
100
AcDbLine
 10
203.505171
 20
71.06358
 30
0.0
 11
193.729615
 21
71.06358
 31
0.0
  0
LINE
  5
F2
330
1F
100
AcDbEntity
  8
CSLAYER2
  6
CONTINUOUS
 62
     6
100
AcDbLine
 10
203.505171
 20
79.193585
 30
0.0
 11
193.535501
 21
79.193585
 31
0.0
  0
LINE
  5
F3
330
1F
100
AcDbEntity
  8
CSLAYER2
  6
CONTINUOUS
 62
     6
100
AcDbLine
 10
203.505171
 20
80.254245
 30
0.0
 11
193.535501
 21
80.254245
 31
0.0
  0
ARC
  5
F4
330
1F
100
AcDbEntity
  8
CSLAYER2
  6
CONTINUOUS
 62
     6
100
AcDbCircle
 10
193.535501
 20
79.723915
 30
0.0
 40
0.530330086
100
AcDbArc
 50
90.0
 51
270.0
  0
LINE
  5
F5
330
1F
100
AcDbEntity
  8
CSLAYER2
  6
CONTINUOUS
 62
     6
100
AcDbLine
 10
203.505171
 20
81.656216
 30
0.0
 11
193.199285
 21
81.656216
 31
0.0
  0
LINE
  5
F6
330
1F
100
AcDbEntity
  8
CSLAYER2
  6
CONTINUOUS
 62
     6
100
AcDbLine
 10
203.505171
 20
82.044445
 30
0.0
 11
193.199285
 21
82.044445
 31
0.0
  0
ARC
  5
F7
330
1F
100
AcDbEntity
  8
CSLAYER2
  6
CONTINUOUS
 62
     6
100
AcDbCircle
 10
193.199285
 20
81.850331
 30
0.0
 40
0.194114284
100
AcDbArc
 50
90.0
 51
270.0
  0
LINE
  5
F8
330
1F
100
AcDbEntity
  8
CSLAYER2
  6
CONTINUOUS
 62
     6
100
AcDbLine
 10
203.505171
 20
68.635295
 30
0.0
 11
193.535501
 21
68.635295
 31
0.0
  0
LINE
  5
F9
330
1F
100
AcDbEntity
  8
CSLAYER2
  6
CONTINUOUS
 62
     6
100
AcDbLine
 10
203.505171
 20
67.574635
 30
0.0
 11
193.535501
 21
67.574635
 31
0.0
  0
ARC
  5
FA
330
1F
100
AcDbEntity
  8
CSLAYER2
  6
CONTINUOUS
 62
     6
100
AcDbCircle
 10
193.535501
 20
68.104965
 30
0.0
 40
0.530330086
100
AcDbArc
 50
90.0
 51
270.0
  0
LINE
  5
FB
330
1F
100
AcDbEntity
  8
CSLAYER2
  6
CONTINUOUS
 62
     6
100
AcDbLine
 10
203.505171
 20
66.172664
 30
0.0
 11
193.199285
 21
66.172664
 31
0.0
  0
LINE
  5
FC
330
1F
100
AcDbEntity
  8
CSLAYER2
  6
CONTINUOUS
 62
     6
100
AcDbLine
 10
203.505171
 20
65.784435
 30
0.0
 11
193.199285
 21
65.784435
 31
0.0
  0
ARC
  5
FD
330
1F
100
AcDbEntity
  8
CSLAYER2
  6
CONTINUOUS
 62
     6
100
AcDbCircle
 10
193.199285
 20
65.97855
 30
0.0
 40
0.194114284
100
AcDbArc
 50
90.0
 51
270.0
  0
LINE
  5
FE
330
1F
100
AcDbEntity
  8
CSLAYER2
  6
CONTINUOUS
 62
     6
100
AcDbLine
 10
226.479595
 20
65.96444
 30
0.0
 11
226.668353
 21
65.96444
 31
0.0
  0
LINE
  5
FF
330
1F
100
AcDbEntity
  8
CSLAYER2
  6
CONTINUOUS
 62
     6
100
AcDbLine
 10
229.405171
 20
67.16444
 30
0.0
 11
234.005171
 21
67.16444
 31
0.0
  0
LINE
  5
100
330
1F
100
AcDbEntity
  8
CSLAYER2
  6
CONTINUOUS
 62
     6
100
AcDbLine
 10
234.005171
 20
67.16444
 30
0.0
 11
234.005171
 21
80.66444
 31
0.0
  0
LINE
  5
101
330
1F
100
AcDbEntity
  8
CSLAYER2
  6
CONTINUOUS
 62
     6
100
AcDbLine
 10
234.005171
 20
80.66444
 30
0.0
 11
229.405171
 21
80.66444
 31
0.0
  0
LINE
  5
102
330
1F
100
AcDbEntity
  8
CSLAYER2
  6
CONTINUOUS
 62
     6
100
AcDbLine
 10
228.933445
 20
66.618316
 30
0.0
 11
228.55593
 21
65.96444
 31
0.0
  0
LINE
  5
103
330
1F
100
AcDbEntity
  8
CSLAYER2
  6
CONTINUOUS
 62
     1
100
AcDbLine
 10
228.633091
 20
81.210564
 30
0.0
 11
228.705577
 21
77.688921
 31
0.0
  0
LINE
  5
104
330
1F
100
AcDbEntity
  8
CSLAYER2
  6
CONTINUOUS
 62
     6
100
AcDbLine
 10
229.138211
 20
66.263652
 30
0.0
 11
228.933445
 21
66.618316
 31
0.0
  0
LINE
  5
105
330
1F
100
AcDbEntity
  8
CSLAYER2
  6
CONTINUOUS
 62
     6
100
AcDbLine
 10
228.367172
 20
65.96444
 30
0.0
 11
227.989657
 21
66.618316
 31
0.0
  0
LINE
  5
106
330
1F
100
AcDbEntity
  8
CSLAYER2
  6
CONTINUOUS
 62
     6
100
AcDbLine
 10
227.989657
 20
66.618316
 30
0.0
 11
227.612141
 21
65.96444
 31
0.0
  0
LINE
  5
107
330
1F
100
AcDbEntity
  8
CSLAYER2
  6
CONTINUOUS
 62
     6
100
AcDbLine
 10
228.367172
 20
65.96444
 30
0.0
 11
228.55593
 21
65.96444
 31
0.0
  0
LINE
  5
108
330
1F
100
AcDbEntity
  8
CSLAYER2
  6
CONTINUOUS
 62
     6
100
AcDbLine
 10
227.045868
 20
66.618316
 30
0.0
 11
226.668353
 21
65.96444
 31
0.0
  0
LINE
  5
109
330
1F
100
AcDbEntity
  8
CSLAYER2
  6
CONTINUOUS
 62
     6
100
AcDbLine
 10
229.138211
 20
66.263652
 30
0.0
 11
229.405171
 21
66.530612
 31
0.0
  0
LINE
  5
10A
330
1F
100
AcDbEntity
  8
CSLAYER2
  6
CONTINUOUS
 62
     6
100
AcDbLine
 10
229.405171
 20
81.298268
 30
0.0
 11
228.947794
 21
81.755645
 31
0.0
  0
LINE
  5
10B
330
1F
100
AcDbEntity
  8
CSLAYER2
  6
CONTINUOUS
 62
     6
100
AcDbLine
 10
228.066818
 20
81.86444
 30
0.0
 11
228.255575
 21
81.86444
 31
0.0
  0
LINE
  5
10C
330
1F
100
AcDbEntity
  8
CSLAYER2
  6
CONTINUOUS
 62
     6
100
AcDbLine
 10
226.105171
 20
81.86444
 30
0.0
 11
226.367998
 21
81.86444
 31
0.0
  0
LINE
  5
10D
330
1F
100
AcDbEntity
  8
CSLAYER2
  6
CONTINUOUS
 62
     6
100
AcDbLine
 10
227.123029
 20
81.86444
 30
0.0
 11
227.311787
 21
81.86444
 31
0.0
  0
LINE
  5
10E
330
1F
100
AcDbEntity
  8
CSLAYER2
  6
CONTINUOUS
 62
     6
100
AcDbLine
 10
227.423383
 20
65.96444
 30
0.0
 11
227.045868
 21
66.618316
 31
0.0
  0
LINE
  5
10F
330
1F
100
AcDbEntity
  8
CSLAYER2
  6
CONTINUOUS
 62
     6
100
AcDbLine
 10
226.479595
 20
65.96444
 30
0.0
 11
226.10208
 21
66.618316
 31
0.0
  0
LINE
  5
110
330
1F
100
AcDbEntity
  8
CSLAYER2
  6
CONTINUOUS
 62
     6
100
AcDbLine
 10
228.633091
 20
81.210564
 30
0.0
 11
228.255575
 21
81.86444
 31
0.0
  0
LINE
  5
111
330
1F
100
AcDbEntity
  8
CSLAYER2
  6
CONTINUOUS
 62
     6
100
AcDbLine
 10
228.947794
 20
81.755645
 30
0.0
 11
228.633091
 21
81.210564
 31
0.0
  0
LINE
  5
112
330
1F
100
AcDbEntity
  8
CSLAYER2
  6
CONTINUOUS
 62
     6
100
AcDbLine
 10
227.689302
 20
81.210564
 30
0.0
 11
227.311787
 21
81.86444
 31
0.0
  0
LINE
  5
113
330
1F
100
AcDbEntity
  8
CSLAYER2
  6
CONTINUOUS
 62
     6
100
AcDbLine
 10
229.405171
 20
66.530612
 30
0.0
 11
229.405171
 21
81.298268
 31
0.0
  0
LINE
  5
114
330
1F
100
AcDbEntity
  8
CSLAYER2
  6
CONTINUOUS
 62
     6
100
AcDbLine
 10
227.689302
 20
81.210564
 30
0.0
 11
227.989657
 21
66.618316
 31
0.0
  0
LINE
  5
115
330
1F
100
AcDbEntity
  8
CSLAYER2
  6
CONTINUOUS
 62
     6
100
AcDbLine
 10
228.066818
 20
81.86444
 30
0.0
 11
227.689302
 21
81.210564
 31
0.0
  0
LINE
  5
116
330
1F
100
AcDbEntity
  8
CSLAYER2
  6
CONTINUOUS
 62
     6
100
AcDbLine
 10
226.745514
 20
81.210564
 30
0.0
 11
226.367998
 21
81.86444
 31
0.0
  0
LINE
  5
117
330
1F
100
AcDbEntity
  8
CSLAYER2
  6
CONTINUOUS
 62
     6
100
AcDbLine
 10
227.123029
 20
81.86444
 30
0.0
 11
226.745514
 21
81.210564
 31
0.0
  0
LINE
  5
118
330
1F
100
AcDbEntity
  8
CSLAYER2
  6
CONTINUOUS
 62
     6
100
AcDbLine
 10
227.423383
 20
65.96444
 30
0.0
 11
227.612141
 21
65.96444
 31
0.0
  0
ARC
  5
119
330
1F
100
AcDbEntity
  8
CSLAYER2
  6
CONTINUOUS
 62
     4
100
AcDbCircle
 10
166.005171
 20
75.91444
 30
0.0
 40
2.5
100
AcDbArc
 50
126.869898
 51
233.130102
  0
ARC
  5
11A
330
1F
100
AcDbEntity
  8
CSLAYER2
  6
CONTINUOUS
 62
     4
100
AcDbCircle
 10
163.005171
 20
71.91444
 30
0.0
 40
2.5
100
AcDbArc
 50
-53.130102
 51
53.130102
  0
ARC
  5
11B
330
1F
100
AcDbEntity
  8
CSLAYER2
  6
CONTINUOUS
 62
     4
100
AcDbCircle
 10
166.005171
 20
71.91444
 30
0.0
 40
2.5
100
AcDbArc
 50
126.869898
 51
233.130102
  0
LINE
  5
11C
330
1F
100
AcDbEntity
  8
CSLAYER2
  6
CONTINUOUS
 62
     6
100
AcDbLine
 10
141.705171
 20
80.36444
 30
0.0
 11
141.705171
 21
80.294072
 31
0.0
  0
LINE
  5
11D
330
1F
100
AcDbEntity
  8
CSLAYER2
  6
CONTINUOUS
 62
     6
100
AcDbLine
 10
141.705171
 20
67.534808
 30
0.0
 11
141.705171
 21
67.46444
 31
0.0
  0
LINE
  5
11E
330
1F
100
AcDbEntity
  8
CSLAYER2
  6
CONTINUOUS
 62
     6
100
AcDbLine
 10
141.505171
 20
67.66444
 30
0.0
 11
141.505171
 21
80.16444
 31
0.0
  0
ARC
  5
11F
330
1F
100
AcDbEntity
  8
CSLAYER2
  6
CONTINUOUS
 62
     4
100
AcDbCircle
 10
171.705171
 20
86.11444
 30
0.0
 40
1.0
100
AcDbArc
 50
126.869898
 51
233.130102
  0
ARC
  5
120
330
1F
100
AcDbEntity
  8
CSLAYER2
  6
CONTINUOUS
 62
     4
100
AcDbCircle
 10
170.505171
 20
86.11444
 30
0.0
 40
1.0
100
AcDbArc
 50
-53.130102
 51
53.130102
  0
ARC
  5
121
330
1F
100
AcDbEntity
  8
CSLAYER2
  6
CONTINUOUS
 62
     4
100
AcDbCircle
 10
173.305171
 20
86.11444
 30
0.0
 40
1.0
100
AcDbArc
 50
126.869898
 51
233.130102
  0
ARC
  5
122
330
1F
100
AcDbEntity
  8
CSLAYER2
  6
CONTINUOUS
 62
     4
100
AcDbCircle
 10
172.105171
 20
84.51444
 30
0.0
 40
1.0
100
AcDbArc
 50
-53.130102
 51
53.130102
  0
ARC
  5
123
330
1F
100
AcDbEntity
  8
CSLAYER2
  6
CONTINUOUS
 62
     4
100
AcDbCircle
 10
173.305171
 20
84.51444
 30
0.0
 40
1.0
100
AcDbArc
 50
126.869898
 51
233.130102
  0
LINE
  5
124
330
1F
100
AcDbEntity
  8
CSLAYER2
  6
CONTINUOUS
 62
     6
100
AcDbLine
 10
226.105171
 20
83.71444
 30
0.0
 11
172.705171
 21
83.71444
 31
0.0
  0
LINE
  5
125
330
1F
100
AcDbEntity
  8
CSLAYER2
  6
CONTINUOUS
 62
     6
100
AcDbLine
 10
226.105171
 20
86.91444
 30
0.0
 11
226.105171
 21
83.71444
 31
0.0
  0
LINE
  5
126
330
1F
100
AcDbEntity
  8
CSLAYER2
  6
CONTINUOUS
 62
     6
100
AcDbLine
 10
146.105171
 20
86.91444
 30
0.0
 11
171.105171
 21
86.91444
 31
0.0
  0
LINE
  5
127
330
1F
100
AcDbEntity
  8
CSLAYER2
  6
CONTINUOUS
 62
     6
100
AcDbLine
 10
171.105171
 20
83.71444
 30
0.0
 11
146.105171
 21
83.71444
 31
0.0
  0
LINE
  5
128
330
1F
100
AcDbEntity
  8
CSLAYER2
  6
CONTINUOUS
 62
     6
100
AcDbLine
 10
172.705171
 20
86.91444
 30
0.0
 11
226.105171
 21
86.91444
 31
0.0
  0
LINE
  5
129
330
1F
100
AcDbEntity
  8
CSLAYER2
  6
CENTER
 62
     1
100
AcDbLine
 10
132.605171
 20
85.31444
 30
0.0
 11
228.105171
 21
85.31444
 31
0.0
  0
LINE
  5
12A
330
1F
100
AcDbEntity
  8
CSLAYER2
  6
CONTINUOUS
 62
     6
100
AcDbLine
 10
69.305171
 20
80.452788
 30
0.0
 11
65.805171
 21
80.452788
 31
0.0
  0
LINE
  5
12B
330
1F
100
AcDbEntity
  8
CSLAYER2
  6
CONTINUOUS
 62
     6
100
AcDbLine
 10
44.724978
 20
88.91444
 30
0.0
 11
106.605171
 21
88.91444
 31
0.0
  0
LINE
  5
12C
330
1F
100
AcDbEntity
  8
CSLAYER2
  6
CONTINUOUS
 62
     6
100
AcDbLine
 10
44.724978
 20
58.91444
 30
0.0
 11
106.605171
 21
58.91444
 31
0.0
  0
LINE
  5
12D
330
1F
100
AcDbEntity
  8
CSLAYER2
  6
CENTER
 62
     1
100
AcDbLine
 10
44.724978
 20
73.91444
 30
0.0
 11
237.005171
 21
73.91444
 31
0.0
  0
LINE
  5
12E
330
1F
100
AcDbEntity
  8
CSLAYER2
  6
CONTINUOUS
 62
     6
100
AcDbLine
 10
36.805171
 20
59.01444
 30
0.0
 11
36.805171
 21
88.81444
 31
0.0
  0
TEXT
  5
12F
330
1F
100
AcDbEntity
  8
CSLAYER2
 62
     3
100
AcDbText
 10
118.933685
 20
20.0
 30
0.0
 40
4.0
  1
ＥＭ－３０８０Ｊ
 41
1.165012
  7
ED_VECTOR
 72
     5
 11
150.222574
 21
20.0
 31
0.0
100
AcDbText
  0
INSERT
  5
133
330
1F
100
AcDbEntity
  8
0
100
AcDbBlockReference
  2
BLKF011
 10
0.0
 20
0.0
 30
0.0
  0
INSERT
  5
141
330
1F
100
AcDbEntity
  8
0
100
AcDbBlockReference
  2
BLKF012
 10
0.0
 20
0.0
 30
0.0
  0
INSERT
  5
14F
330
1F
100
AcDbEntity
  8
0
100
AcDbBlockReference
  2
BLKF013
 10
0.0
 20
0.0
 30
0.0
  0
INSERT
  5
15D
330
1F
100
AcDbEntity
  8
0
100
AcDbBlockReference
  2
BLKF014
 10
0.0
 20
0.0
 30
0.0
  0
INSERT
  5
16B
330
1F
100
AcDbEntity
  8
0
100
AcDbBlockReference
  2
BLKF015
 10
0.0
 20
0.0
 30
0.0
  0
INSERT
  5
179
330
1F
100
AcDbEntity
  8
0
100
AcDbBlockReference
  2
BLKF016
 10
0.0
 20
0.0
 30
0.0
  0
INSERT
  5
187
330
1F
100
AcDbEntity
  8
0
100
AcDbBlockReference
  2
BLKF017
 10
0.0
 20
0.0
 30
0.0
  0
TEXT
  5
194
330
1F
100
AcDbEntity
  8
0
 62
     7
100
AcDbText
 10
118.340347
 20
68.13945
 30
0.0
 40
2.8
  1
%%c29.9
 50
90.0
 41
1.019118
  7
ED_VECTOR
 72
     5
 11
118.340347
 21
79.689449
 31
0.0
100
AcDbText
  0
LINE
  5
195
330
1F
100
AcDbEntity
  8
0
  6
CONTINUOUS
 62
     7
100
AcDbLine
 10
119.340344
 20
58.96444
 30
0.0
 11
119.340344
 21
88.86444
 31
0.0
  0
LINE
  5
196
330
1F
100
AcDbEntity
  8
0
  6
CONTINUOUS
 62
     7
100
AcDbLine
 10
119.340344
 20
58.96444
 30
0.0
 11
119.340344
 21
61.96444
 31
0.0
  0
LINE
  5
197
330
1F
100
AcDbEntity
  8
0
  6
CONTINUOUS
 62
     7
100
AcDbLine
 10
119.340344
 20
58.96444
 30
0.0
 11
120.116801
 21
61.862218
 31
0.0
  0
LINE
  5
198
330
1F
100
AcDbEntity
  8
0
  6
CONTINUOUS
 62
     7
100
AcDbLine
 10
119.340344
 20
58.96444
 30
0.0
 11
118.563887
 21
61.862218
 31
0.0
  0
LINE
  5
199
330
1F
100
AcDbEntity
  8
0
  6
CONTINUOUS
 62
     7
100
AcDbLine
 10
119.340344
 20
88.86444
 30
0.0
 11
119.340344
 21
85.86444
 31
0.0
  0
LINE
  5
19A
330
1F
100
AcDbEntity
  8
0
  6
CONTINUOUS
 62
     7
100
AcDbLine
 10
119.340344
 20
88.86444
 30
0.0
 11
120.116801
 21
85.966662
 31
0.0
  0
LINE
  5
19B
330
1F
100
AcDbEntity
  8
0
  6
CONTINUOUS
 62
     7
100
AcDbLine
 10
119.340344
 20
88.86444
 30
0.0
 11
118.563887
 21
85.966662
 31
0.0
  0
ENDSEC
  0
SECTION
  2
OBJECTS
  0
DICTIONARY
  5
C
330
0
100
AcDbDictionary
  3
ACAD_GROUP
350
D
  3
ACAD_LAYOUT
350
1A
  3
ACAD_MLINESTYLE
350
17
  3
ACAD_PLOTSETTINGS
350
19
1001
ACAD
1000
TREAT_AS_HARD
1070
     0
  0
DICTIONARY
  5
D
102
{ACAD_REACTORS
330
C
102
}
330
C
100
AcDbDictionary
1001
ACAD
1000
TREAT_AS_HARD
1070
     0
  0
DICTIONARY
  5
1A
102
{ACAD_REACTORS
330
C
102
}
330
C
100
AcDbDictionary
1001
ACAD
1000
TREAT_AS_HARD
1070
     0
  0
DICTIONARY
  5
17
102
{ACAD_REACTORS
330
C
102
}
330
C
100
AcDbDictionary
  3
STANDARD
350
18
1001
ACAD
1000
TREAT_AS_HARD
1070
     0
  0
DICTIONARY
  5
19
102
{ACAD_REACTORS
330
C
102
}
330
C
100
AcDbDictionary
1001
ACAD
1000
TREAT_AS_HARD
1070
     0
  0
MLINESTYLE
  5
18
102
{ACAD_REACTORS
330
17
102
}
330
17
100
AcDbMlineStyle
  2
Standard
 70
     0
  3

 62
   256
 51
90.0
 52
90.0
 71
     2
 49
0.5
 62
   256
  6
BYLAYER
 49
-0.5
 62
   256
  6
BYLAYER
  0
ENDSEC
  0
EOF
