  0
SECTION
  2
HEADER
  9
$ACADVER
  1
AC1012
  9
$DWGCODEPAGE
  3
ansi_932
  9
$INSBASE
 10
0.0
 20
0.0
 30
0.0
  9
$EXTMIN
 10
0.0
 20
0.0
 30
0.0
  9
$EXTMAX
 10
230.879586
 20
210.431046
 30
0.0
  9
$LIMMIN
 10
0.0
 20
0.0
  9
$LIMMAX
 10
230.879586
 20
210.431046
  9
$ORTHOMODE
 70
     0
  9
$REGENMODE
 70
     1
  9
$FILLMODE
 70
     1
  9
$QTEXTMODE
 70
     0
  9
$MIRRTEXT
 70
     1
  9
$DRAGMODE
 70
     2
  9
$LTSCALE
 40
1.0
  9
$OSMODE
 70
    37
  9
$ATTMODE
 70
     1
  9
$TEXTSIZE
 40
0.2
  9
$TRACEWID
 40
0.05
  9
$TEXTSTYLE
  7
ED_VECTOR
  9
$CLAYER
  8
0
  9
$CELTYPE
  6
BYLAYER
  9
$CECOLOR
 62
   256
  9
$CELTSCALE
 40
1.0
  9
$DELOBJ
 70
     1
  9
$DISPSILH
 70
     0
  9
$DIMSCALE
 40
1.0
  9
$DIMASZ
 40
3.0
  9
$DIMEXO
 40
1.0
  9
$DIMDLI
 40
10.0
  9
$DIMRND
 40
0.0
  9
$DIMDLE
 40
5.0
  9
$DIMEXE
 40
1.0
  9
$DIMTP
 40
0.0
  9
$DIMTM
 40
0.0
  9
$DIMTXT
 40
4.0
  9
$DIMCEN
 40
2.5
  9
$DIMTSZ
 40
0.0
  9
$DIMTOL
 70
     0
  9
$DIMLIM
 70
     0
  9
$DIMTIH
 70
     0
  9
$DIMTOH
 70
     0
  9
$DIMSE1
 70
     0
  9
$DIMSE2
 70
     0
  9
$DIMTAD
 70
     1
  9
$DIMZIN
 70
     8
  9
$DIMBLK
  1

  9
$DIMASO
 70
     1
  9
$DIMSHO
 70
     1
  9
$DIMPOST
  1

  9
$DIMAPOST
  1

  9
$DIMALT
 70
     0
  9
$DIMALTD
 70
     3
  9
$DIMALTF
 40
0.03937
  9
$DIMLFAC
 40
1.0
  9
$DIMTOFL
 70
     1
  9
$DIMTVP
 40
0.0
  9
$DIMTIX
 70
     0
  9
$DIMSOXD
 70
     0
  9
$DIMSAH
 70
     1
  9
$DIMBLK1
  1
EDTIP_ARROW_S
  9
$DIMBLK2
  1
EDTIP_ARROW_E
  9
$DIMSTYLE
  2
EDDIMINFO
  9
$DIMCLRD
 70
     7
  9
$DIMCLRE
 70
     7
  9
$DIMCLRT
 70
     7
  9
$DIMTFAC
 40
1.0
  9
$DIMGAP
 40
1.0
  9
$DIMJUST
 70
     0
  9
$DIMSD1
 70
     0
  9
$DIMSD2
 70
     0
  9
$DIMTOLJ
 70
     0
  9
$DIMTZIN
 70
     8
  9
$DIMALTZ
 70
     0
  9
$DIMALTTZ
 70
     0
  9
$DIMFIT
 70
     3
  9
$DIMUPT
 70
     0
  9
$DIMUNIT
 70
     2
  9
$DIMDEC
 70
     2
  9
$DIMTDEC
 70
     2
  9
$DIMALTU
 70
     2
  9
$DIMALTTD
 70
     3
  9
$DIMTXSTY
  7
ED_VECTOR
  9
$DIMAUNIT
 70
     0
  9
$LUNITS
 70
     2
  9
$LUPREC
 70
     4
  9
$SKETCHINC
 40
0.1
  9
$FILLETRAD
 40
0.5
  9
$AUNITS
 70
     0
  9
$AUPREC
 70
     0
  9
$MENU
  1
.
  9
$ELEVATION
 40
0.0
  9
$PELEVATION
 40
0.0
  9
$THICKNESS
 40
0.0
  9
$LIMCHECK
 70
     0
  9
$CHAMFERA
 40
0.5
  9
$CHAMFERB
 40
0.5
  9
$CHAMFERC
 40
1.0
  9
$CHAMFERD
 40
0.0
  9
$SKPOLY
 70
     0
  9
$TDCREATE
 40
2456622.428341076
  9
$TDUPDATE
 40
2456622.428341088
  9
$TDINDWG
 40
0.0000000116
  9
$TDUSRTIMER
 40
0.0000000116
  9
$USRTIMER
 70
     1
  9
$ANGBASE
 50
0.0
  9
$ANGDIR
 70
     0
  9
$PDMODE
 70
     0
  9
$PDSIZE
 40
0.0
  9
$PLINEWID
 40
0.0
  9
$COORDS
 70
     1
  9
$SPLFRAME
 70
     0
  9
$SPLINETYPE
 70
     6
  9
$SPLINESEGS
 70
     8
  9
$ATTDIA
 70
     0
  9
$ATTREQ
 70
     1
  9
$HANDLING
 70
     1
  9
$HANDSEED
  5
621
  9
$SURFTAB1
 70
     6
  9
$SURFTAB2
 70
     6
  9
$SURFTYPE
 70
     6
  9
$SURFU
 70
     6
  9
$SURFV
 70
     6
  9
$UCSNAME
  2

  9
$UCSORG
 10
0.0
 20
0.0
 30
0.0
  9
$UCSXDIR
 10
1.0
 20
0.0
 30
0.0
  9
$UCSYDIR
 10
0.0
 20
1.0
 30
0.0
  9
$PUCSNAME
  2

  9
$PUCSORG
 10
0.0
 20
0.0
 30
0.0
  9
$PUCSXDIR
 10
1.0
 20
0.0
 30
0.0
  9
$PUCSYDIR
 10
0.0
 20
1.0
 30
0.0
  9
$USERI1
 70
     0
  9
$USERI2
 70
     0
  9
$USERI3
 70
     0
  9
$USERI4
 70
     0
  9
$USERI5
 70
     0
  9
$USERR1
 40
0.0
  9
$USERR2
 40
0.0
  9
$USERR3
 40
0.0
  9
$USERR4
 40
0.0
  9
$USERR5
 40
0.0
  9
$WORLDVIEW
 70
     1
  9
$SHADEDGE
 70
     3
  9
$SHADEDIF
 70
    70
  9
$TILEMODE
 70
     1
  9
$MAXACTVP
 70
    64
  9
$PINSBASE
 10
0.0
 20
0.0
 30
0.0
  9
$PLIMCHECK
 70
     0
  9
$PEXTMIN
 10
1.000000E+20
 20
1.000000E+20
 30
1.000000E+20
  9
$PEXTMAX
 10
-1.000000E+20
 20
-1.000000E+20
 30
-1.000000E+20
  9
$PLIMMIN
 10
0.0
 20
0.0
  9
$PLIMMAX
 10
12.0
 20
9.0
  9
$UNITMODE
 70
     0
  9
$VISRETAIN
 70
     1
  9
$PLINEGEN
 70
     0
  9
$PSLTSCALE
 70
     1
  9
$TREEDEPTH
 70
  3020
  9
$PICKSTYLE
 70
     1
  9
$CMLSTYLE
  2
STANDARD
  9
$CMLJUST
 70
     0
  9
$CMLSCALE
 40
1.0
  9
$SAVEIMAGES
 70
     1
  0
ENDSEC
  0
SECTION
  2
CLASSES
  0
CLASS
  1
ACDBDICTIONARYWDFLT
  2
AcDbDictionaryWithDefault
  3
ObjectDBX Classes
 90
    32768
280
     0
281
     0
  0
CLASS
  1
XRECORD
  2
AcDbXrecord
  3
AutoCAD 2000
 90
    32768
280
     0
281
     0
  0
CLASS
  1
LWPOLYLINE
  2
AcDbPolyline
  3
AutoCAD 2000
 90
    32768
280
     0
281
     1
  0
CLASS
  1
HATCH
  2
AcDbHatch
  3
AutoCAD 2000
 90
    32768
280
     0
281
     1
  0
CLASS
  1
ACDBPLACEHOLDER
  2
AcDbPlaceHolder
  3
ObjectDBX Classes
 90
        0
280
     0
281
     0
  0
CLASS
  1
LAYOUT
  2
AcDbLayout
  3
ObjectDBX Classes
 90
        0
280
     0
281
     0
  0
ENDSEC
  0
SECTION
  2
TABLES
  0
TABLE
  2
VPORT
  5
8
330
0
100
AcDbSymbolTable
 70
     1
  0
VPORT
  5
29
330
8
100
AcDbSymbolTableRecord
100
AcDbViewportTableRecord
  2
*ACTIVE
 70
     0
 10
0.0
 20
0.0
 11
1.0
 21
1.0
 12
115.439793
 22
105.215523
 13
0.0
 23
0.0
 14
0.5
 24
0.5
 15
0.5
 25
0.5
 16
0.0
 26
0.0
 36
1.0
 17
0.0
 27
0.0
 37
0.0
 40
210.431046
 41
1.097175
 42
50.0
 43
0.0
 44
0.0
 50
0.0
 51
0.0
 71
     0
 72
   100
 73
     1
 74
     3
 75
     0
 76
     0
 77
     0
 78
     0
  0
ENDTAB
  0
TABLE
  2
LTYPE
  5
5
330
0
100
AcDbSymbolTable
 70
     5
  0
LTYPE
  5
14
330
5
100
AcDbSymbolTableRecord
100
AcDbLinetypeTableRecord
  2
BYBLOCK
 70
     0
  3

 72
    65
 73
     0
 40
0.0
  0
LTYPE
  5
15
330
5
100
AcDbSymbolTableRecord
100
AcDbLinetypeTableRecord
  2
BYLAYER
 70
     0
  3

 72
    65
 73
     0
 40
0.0
  0
LTYPE
  5
16
330
5
100
AcDbSymbolTableRecord
100
AcDbLinetypeTableRecord
  2
CONTINUOUS
 70
     0
  3
--------------------
 72
    65
 73
     0
 40
0.0
  0
LTYPE
  5
2A
330
5
100
AcDbSymbolTableRecord
100
AcDbLinetypeTableRecord
  2
DASHED
 70
     0
  3
- - - - - - - - - - -
 72
    65
 73
     2
 40
19.1
 49
12.7
 74
     0
 49
-6.4
 74
     0
  0
LTYPE
  5
2B
330
5
100
AcDbSymbolTableRecord
100
AcDbLinetypeTableRecord
  2
CENTER
 70
     0
  3
- ･ - ･ - ･ - ･ - ･ - ･ - ･ - ･ - ･ - ･ -
 72
    65
 73
     4
 40
51.0
 49
31.8
 74
     0
 49
-6.4
 74
     0
 49
6.4
 74
     0
 49
-6.4
 74
     0
  0
LTYPE
  5
2C
330
5
100
AcDbSymbolTableRecord
100
AcDbLinetypeTableRecord
  2
PHANTOM
 70
     0
  3
- ･ ･ - ･ ･ - ･ ･ - ･ ･ - ･ ･ - ･ ･ - ･ ･ - 
 72
    65
 73
     6
 40
63.8
 49
31.8
 74
     0
 49
-6.4
 74
     0
 49
6.4
 74
     0
 49
-6.4
 74
     0
 49
6.4
 74
     0
 49
-6.4
 74
     0
  0
LTYPE
  5
2D
330
5
100
AcDbSymbolTableRecord
100
AcDbLinetypeTableRecord
  2
DOT
 70
     0
  3
・・・・・・・・・・・・・・・
 72
    65
 73
     2
 40
6.5
 49
0.1
 74
     0
 49
-6.4
 74
     0
  0
ENDTAB
  0
TABLE
  2
LAYER
  5
2
330
0
100
AcDbSymbolTable
 70
    16
  0
LAYER
  5
10
330
2
100
AcDbSymbolTableRecord
100
AcDbLayerTableRecord
  2
0
 70
     0
 62
     7
  6
CONTINUOUS
  0
LAYER
  5
2E
330
2
100
AcDbSymbolTableRecord
100
AcDbLayerTableRecord
  2
CSLAYER2
 70
     0
 62
     7
  6
CONTINUOUS
  0
LAYER
  5
2F
330
2
100
AcDbSymbolTableRecord
100
AcDbLayerTableRecord
  2
CSLAYER3
 70
     0
 62
     7
  6
CONTINUOUS
  0
ENDTAB
  0
TABLE
  2
STYLE
  5
3
330
0
100
AcDbSymbolTable
 70
     2
  0
STYLE
  5
11
330
3
100
AcDbSymbolTableRecord
100
AcDbTextStyleTableRecord
  2
STANDARD
 70
     0
 40
0.0
 41
1.0
 50
0.0
 71
     0
 42
0.2
  3
txt
  4

  0
STYLE
  5
3D
330
3
100
AcDbSymbolTableRecord
100
AcDbTextStyleTableRecord
  2
ED_VECTOR
 70
     0
 40
0.0
 41
1.0
 50
0.0
 71
     0
 42
0.2
  3
MONOTXT.SHX
  4
BIGFONT.SHX
  0
ENDTAB
  0
TABLE
  2
VIEW
  5
6
330
0
100
AcDbSymbolTable
 70
     0
  0
ENDTAB
  0
TABLE
  2
UCS
  5
7
330
0
100
AcDbSymbolTable
 70
     0
  0
ENDTAB
  0
TABLE
  2
APPID
  5
9
330
0
100
AcDbSymbolTable
 70
     1
  0
APPID
  5
12
330
9
100
AcDbSymbolTableRecord
100
AcDbRegAppTableRecord
  2
ACAD
 70
     0
  0
ENDTAB
  0
TABLE
  2
DIMSTYLE
  5
A
330
0
100
AcDbSymbolTable
 70
     2
  0
DIMSTYLE
105
27
330
A
100
AcDbSymbolTableRecord
100
AcDbDimStyleTableRecord
  2
STANDARD
 70
     0
  3

  4

  5

  6

  7

 40
1.0
 41
0.18
 42
0.0625
 43
0.38
 44
0.18
 45
0.0
 46
0.0
 47
0.0
 48
0.0
140
0.18
141
0.09
142
0.0
143
25.4
144
1.0
145
0.0
146
1.0
147
0.09
 71
     0
 72
     0
 73
     1
 74
     1
 75
     0
 76
     0
 77
     0
 78
     0
170
     0
171
     2
172
     0
173
     0
174
     0
175
     0
176
     0
177
     0
178
     0
270
     2
271
     4
272
     4
273
     2
274
     2
340
11
275
     0
280
     0
281
     0
282
     0
283
     1
284
     0
285
     0
286
     0
287
     3
288
     0
  0
DIMSTYLE
105
6E
330
A
100
AcDbSymbolTableRecord
100
AcDbDimStyleTableRecord
  2
EDDIMINFO
 70
     0
  3

  4

  5

  6
EDTIP_ARROW_S
  7
EDTIP_ARROW_E
 40
1.0
 41
3.0
 42
1.0
 43
10.0
 44
1.0
 45
0.0
 46
5.0
 47
0.0
 48
0.0
140
4.0
141
2.5
142
0.0
143
0.03937
144
1.0
145
0.0
146
1.0
147
1.0
 71
     0
 72
     0
 73
     0
 74
     0
 75
     0
 76
     0
 77
     1
 78
     8
170
     0
171
     3
172
     1
173
     1
174
     0
175
     0
176
     7
177
     7
178
     7
179
     2
270
     2
271
     2
272
     2
273
     2
274
     3
340
3D
275
     0
280
     0
281
     0
282
     0
283
     0
284
     8
285
     0
286
     0
287
     3
288
     0
  0
ENDTAB
  0
TABLE
  2
BLOCK_RECORD
  5
1
330
0
100
AcDbSymbolTable
 70
    44
  0
BLOCK_RECORD
  5
1F
330
1
100
AcDbSymbolTableRecord
100
AcDbBlockTableRecord
  2
*MODEL_SPACE
  0
BLOCK_RECORD
  5
1B
330
1
100
AcDbSymbolTableRecord
100
AcDbBlockTableRecord
  2
*PAPER_SPACE
  0
BLOCK_RECORD
  5
3E
330
1
100
AcDbSymbolTableRecord
100
AcDbBlockTableRecord
  2
EDTIP_ARROW_S
  0
BLOCK_RECORD
  5
44
330
1
100
AcDbSymbolTableRecord
100
AcDbBlockTableRecord
  2
EDTIP_ARROW_E
  0
BLOCK_RECORD
  5
4A
330
1
100
AcDbSymbolTableRecord
100
AcDbBlockTableRecord
  2
EDTIP_BLACKDOT_S
  0
BLOCK_RECORD
  5
50
330
1
100
AcDbSymbolTableRecord
100
AcDbBlockTableRecord
  2
EDTIP_BLACKDOT_E
  0
BLOCK_RECORD
  5
56
330
1
100
AcDbSymbolTableRecord
100
AcDbBlockTableRecord
  2
EDTIP_ARCHITECT_S
  0
BLOCK_RECORD
  5
5C
330
1
100
AcDbSymbolTableRecord
100
AcDbBlockTableRecord
  2
EDTIP_ARCHITECT_E
  0
BLOCK_RECORD
  5
62
330
1
100
AcDbSymbolTableRecord
100
AcDbBlockTableRecord
  2
EDTIP_CIVIL_S
  0
BLOCK_RECORD
  5
68
330
1
100
AcDbSymbolTableRecord
100
AcDbBlockTableRecord
  2
EDTIP_CIVIL_E
  0
BLOCK_RECORD
  5
A5
330
1
100
AcDbSymbolTableRecord
100
AcDbBlockTableRecord
  2
BLKF011
  0
BLOCK_RECORD
  5
D0
330
1
100
AcDbSymbolTableRecord
100
AcDbBlockTableRecord
  2
BLKF012
  0
BLOCK_RECORD
  5
E1
330
1
100
AcDbSymbolTableRecord
100
AcDbBlockTableRecord
  2
BLKF013
  0
BLOCK_RECORD
  5
105
330
1
100
AcDbSymbolTableRecord
100
AcDbBlockTableRecord
  2
BLKF014
  0
BLOCK_RECORD
  5
13F
330
1
100
AcDbSymbolTableRecord
100
AcDbBlockTableRecord
  2
BLKF015
  0
BLOCK_RECORD
  5
14D
330
1
100
AcDbSymbolTableRecord
100
AcDbBlockTableRecord
  2
BLKF016
  0
BLOCK_RECORD
  5
186
330
1
100
AcDbSymbolTableRecord
100
AcDbBlockTableRecord
  2
BLKF017
  0
BLOCK_RECORD
  5
1A0
330
1
100
AcDbSymbolTableRecord
100
AcDbBlockTableRecord
  2
BLKF018
  0
BLOCK_RECORD
  5
1D8
330
1
100
AcDbSymbolTableRecord
100
AcDbBlockTableRecord
  2
BLKF019
  0
BLOCK_RECORD
  5
1E7
330
1
100
AcDbSymbolTableRecord
100
AcDbBlockTableRecord
  2
BLKF020
  0
BLOCK_RECORD
  5
207
330
1
100
AcDbSymbolTableRecord
100
AcDbBlockTableRecord
  2
BLKF021
  0
BLOCK_RECORD
  5
218
330
1
100
AcDbSymbolTableRecord
100
AcDbBlockTableRecord
  2
BLKF022
  0
BLOCK_RECORD
  5
250
330
1
100
AcDbSymbolTableRecord
100
AcDbBlockTableRecord
  2
BLKF023
  0
BLOCK_RECORD
  5
25C
330
1
100
AcDbSymbolTableRecord
100
AcDbBlockTableRecord
  2
BLKF024
  0
BLOCK_RECORD
  5
2AA
330
1
100
AcDbSymbolTableRecord
100
AcDbBlockTableRecord
  2
BLKF025
  0
BLOCK_RECORD
  5
2BD
330
1
100
AcDbSymbolTableRecord
100
AcDbBlockTableRecord
  2
BLKF026
  0
BLOCK_RECORD
  5
391
330
1
100
AcDbSymbolTableRecord
100
AcDbBlockTableRecord
  2
BLKF027
  0
BLOCK_RECORD
  5
3AA
330
1
100
AcDbSymbolTableRecord
100
AcDbBlockTableRecord
  2
BLKF028
  0
BLOCK_RECORD
  5
3C0
330
1
100
AcDbSymbolTableRecord
100
AcDbBlockTableRecord
  2
BLKF029
  0
BLOCK_RECORD
  5
3FE
330
1
100
AcDbSymbolTableRecord
100
AcDbBlockTableRecord
  2
BLKF030
  0
BLOCK_RECORD
  5
417
330
1
100
AcDbSymbolTableRecord
100
AcDbBlockTableRecord
  2
BLKF031
  0
BLOCK_RECORD
  5
42D
330
1
100
AcDbSymbolTableRecord
100
AcDbBlockTableRecord
  2
BLKF032
  0
BLOCK_RECORD
  5
48A
330
1
100
AcDbSymbolTableRecord
100
AcDbBlockTableRecord
  2
BLKF033
  0
BLOCK_RECORD
  5
4AA
330
1
100
AcDbSymbolTableRecord
100
AcDbBlockTableRecord
  2
BLKF034
  0
BLOCK_RECORD
  5
4E7
330
1
100
AcDbSymbolTableRecord
100
AcDbBlockTableRecord
  2
BLKF035
  0
BLOCK_RECORD
  5
554
330
1
100
AcDbSymbolTableRecord
100
AcDbBlockTableRecord
  2
BLKF036
  0
BLOCK_RECORD
  5
567
330
1
100
AcDbSymbolTableRecord
100
AcDbBlockTableRecord
  2
BLKF037
  0
BLOCK_RECORD
  5
5AE
330
1
100
AcDbSymbolTableRecord
100
AcDbBlockTableRecord
  2
BLKF038
  0
BLOCK_RECORD
  5
5BC
330
1
100
AcDbSymbolTableRecord
100
AcDbBlockTableRecord
  2
BLKF039
  0
BLOCK_RECORD
  5
5CC
330
1
100
AcDbSymbolTableRecord
100
AcDbBlockTableRecord
  2
BLKF040
  0
BLOCK_RECORD
  5
5DA
330
1
100
AcDbSymbolTableRecord
100
AcDbBlockTableRecord
  2
BLKF041
  0
BLOCK_RECORD
  5
5E8
330
1
100
AcDbSymbolTableRecord
100
AcDbBlockTableRecord
  2
BLKF042
  0
BLOCK_RECORD
  5
5F6
330
1
100
AcDbSymbolTableRecord
100
AcDbBlockTableRecord
  2
BLKF043
  0
BLOCK_RECORD
  5
604
330
1
100
AcDbSymbolTableRecord
100
AcDbBlockTableRecord
  2
BLKF044
  0
BLOCK_RECORD
  5
612
330
1
100
AcDbSymbolTableRecord
100
AcDbBlockTableRecord
  2
BLKF045
  0
ENDTAB
  0
ENDSEC
  0
SECTION
  2
BLOCKS
  0
BLOCK
  5
20
330
1F
100
AcDbEntity
  8
0
100
AcDbBlockBegin
  2
*MODEL_SPACE
 70
     0
 71
     0
 10
0.0
 20
0.0
 30
0.0
  3
*MODEL_SPACE
  1

  0
ENDBLK
  5
21
330
1F
100
AcDbEntity
  8
0
100
AcDbBlockEnd
  0
BLOCK
  5
1C
330
1B
100
AcDbEntity
 67
     1
  8
0
100
AcDbBlockBegin
  2
*PAPER_SPACE
 70
     0
 71
     0
 10
0.0
 20
0.0
 30
0.0
  3
*PAPER_SPACE
  1

  0
ENDBLK
  5
1D
330
1B
100
AcDbEntity
 67
     1
  8
0
100
AcDbBlockEnd
  0
BLOCK
  5
3F
330
3E
100
AcDbEntity
  8
0
100
AcDbBlockBegin
  2
EDTIP_ARROW_S
 70
     0
 71
     0
 10
0.0
 20
0.0
 30
0.0
  3
EDTIP_ARROW_S
  1

  0
LINE
  5
41
330
3E
100
AcDbEntity
  8
0
  6
CONTINUOUS
 62
     0
100
AcDbLine
 10
0.0
 20
0.0
 30
0.0
 11
-1.0
 21
0.0
 31
0.0
  0
LINE
  5
42
330
3E
100
AcDbEntity
  8
0
  6
CONTINUOUS
 62
     0
100
AcDbLine
 10
0.0
 20
0.0
 30
0.0
 11
-0.965926
 21
0.258819
 31
0.0
  0
LINE
  5
43
330
3E
100
AcDbEntity
  8
0
  6
CONTINUOUS
 62
     0
100
AcDbLine
 10
0.0
 20
0.0
 30
0.0
 11
-0.965926
 21
-0.258819
 31
0.0
  0
ENDBLK
  5
40
330
3E
100
AcDbEntity
  8
0
100
AcDbBlockEnd
  0
BLOCK
  5
45
330
44
100
AcDbEntity
  8
0
100
AcDbBlockBegin
  2
EDTIP_ARROW_E
 70
     0
 71
     0
 10
0.0
 20
0.0
 30
0.0
  3
EDTIP_ARROW_E
  1

  0
LINE
  5
47
330
44
100
AcDbEntity
  8
0
  6
CONTINUOUS
 62
     0
100
AcDbLine
 10
0.0
 20
0.0
 30
0.0
 11
-1.0
 21
0.0
 31
0.0
  0
LINE
  5
48
330
44
100
AcDbEntity
  8
0
  6
CONTINUOUS
 62
     0
100
AcDbLine
 10
0.0
 20
0.0
 30
0.0
 11
-0.965926
 21
-0.258819
 31
0.0
  0
LINE
  5
49
330
44
100
AcDbEntity
  8
0
  6
CONTINUOUS
 62
     0
100
AcDbLine
 10
0.0
 20
0.0
 30
0.0
 11
-0.965926
 21
0.258819
 31
0.0
  0
ENDBLK
  5
46
330
44
100
AcDbEntity
  8
0
100
AcDbBlockEnd
  0
BLOCK
  5
4B
330
4A
100
AcDbEntity
  8
0
100
AcDbBlockBegin
  2
EDTIP_BLACKDOT_S
 70
     0
 71
     0
 10
0.0
 20
0.0
 30
0.0
  3
EDTIP_BLACKDOT_S
  1

  0
LINE
  5
4D
330
4A
100
AcDbEntity
  8
0
  6
CONTINUOUS
 62
     0
100
AcDbLine
 10
0.0
 20
0.0
 30
0.0
 11
-1.0
 21
0.0
 31
0.0
  0
CIRCLE
  5
4E
330
4A
100
AcDbEntity
  8
0
  6
CONTINUOUS
 62
     0
100
AcDbCircle
 10
0.0
 20
0.0
 30
0.0
 40
0.5
  0
CIRCLE
  5
4F
330
4A
100
AcDbEntity
  8
0
  6
CONTINUOUS
 62
     0
100
AcDbCircle
 10
0.0
 20
0.0
 30
0.0
 40
0.25
  0
ENDBLK
  5
4C
330
4A
100
AcDbEntity
  8
0
100
AcDbBlockEnd
  0
BLOCK
  5
51
330
50
100
AcDbEntity
  8
0
100
AcDbBlockBegin
  2
EDTIP_BLACKDOT_E
 70
     0
 71
     0
 10
0.0
 20
0.0
 30
0.0
  3
EDTIP_BLACKDOT_E
  1

  0
LINE
  5
53
330
50
100
AcDbEntity
  8
0
  6
CONTINUOUS
 62
     0
100
AcDbLine
 10
0.0
 20
0.0
 30
0.0
 11
-1.0
 21
0.0
 31
0.0
  0
CIRCLE
  5
54
330
50
100
AcDbEntity
  8
0
  6
CONTINUOUS
 62
     0
100
AcDbCircle
 10
0.0
 20
0.0
 30
0.0
 40
0.5
  0
CIRCLE
  5
55
330
50
100
AcDbEntity
  8
0
  6
CONTINUOUS
 62
     0
100
AcDbCircle
 10
0.0
 20
0.0
 30
0.0
 40
0.25
  0
ENDBLK
  5
52
330
50
100
AcDbEntity
  8
0
100
AcDbBlockEnd
  0
BLOCK
  5
57
330
56
100
AcDbEntity
  8
0
100
AcDbBlockBegin
  2
EDTIP_ARCHITECT_S
 70
     0
 71
     0
 10
0.0
 20
0.0
 30
0.0
  3
EDTIP_ARCHITECT_S
  1

  0
LINE
  5
59
330
56
100
AcDbEntity
  8
0
  6
CONTINUOUS
 62
     0
100
AcDbLine
 10
0.0
 20
0.0
 30
0.0
 11
-1.0
 21
0.0
 31
0.0
  0
LINE
  5
5A
330
56
100
AcDbEntity
  8
0
  6
CONTINUOUS
 62
     0
100
AcDbLine
 10
0.0
 20
0.0
 30
0.0
 11
-0.707107
 21
-0.707107
 31
0.0
  0
LINE
  5
5B
330
56
100
AcDbEntity
  8
0
  6
CONTINUOUS
 62
     0
100
AcDbLine
 10
0.0
 20
0.0
 30
0.0
 11
0.707107
 21
0.707107
 31
0.0
  0
ENDBLK
  5
58
330
56
100
AcDbEntity
  8
0
100
AcDbBlockEnd
  0
BLOCK
  5
5D
330
5C
100
AcDbEntity
  8
0
100
AcDbBlockBegin
  2
EDTIP_ARCHITECT_E
 70
     0
 71
     0
 10
0.0
 20
0.0
 30
0.0
  3
EDTIP_ARCHITECT_E
  1

  0
LINE
  5
5F
330
5C
100
AcDbEntity
  8
0
  6
CONTINUOUS
 62
     0
100
AcDbLine
 10
0.0
 20
0.0
 30
0.0
 11
-1.0
 21
0.0
 31
0.0
  0
LINE
  5
60
330
5C
100
AcDbEntity
  8
0
  6
CONTINUOUS
 62
     0
100
AcDbLine
 10
0.0
 20
0.0
 30
0.0
 11
-0.707107
 21
-0.707107
 31
0.0
  0
LINE
  5
61
330
5C
100
AcDbEntity
  8
0
  6
CONTINUOUS
 62
     0
100
AcDbLine
 10
0.0
 20
0.0
 30
0.0
 11
0.707107
 21
0.707107
 31
0.0
  0
ENDBLK
  5
5E
330
5C
100
AcDbEntity
  8
0
100
AcDbBlockEnd
  0
BLOCK
  5
63
330
62
100
AcDbEntity
  8
0
100
AcDbBlockBegin
  2
EDTIP_CIVIL_S
 70
     0
 71
     0
 10
0.0
 20
0.0
 30
0.0
  3
EDTIP_CIVIL_S
  1

  0
LINE
  5
65
330
62
100
AcDbEntity
  8
0
  6
CONTINUOUS
 62
     0
100
AcDbLine
 10
0.0
 20
0.0
 30
0.0
 11
-1.0
 21
0.0
 31
0.0
  0
LINE
  5
66
330
62
100
AcDbEntity
  8
0
  6
CONTINUOUS
 62
     0
100
AcDbLine
 10
0.0
 20
-0.083333
 30
0.0
 11
-1.0
 21
-0.083333
 31
0.0
  0
LINE
  5
67
330
62
100
AcDbEntity
  8
0
  6
CONTINUOUS
 62
     0
100
AcDbLine
 10
0.0
 20
-0.166667
 30
0.0
 11
-1.0
 21
-0.166667
 31
0.0
  0
ENDBLK
  5
64
330
62
100
AcDbEntity
  8
0
100
AcDbBlockEnd
  0
BLOCK
  5
69
330
68
100
AcDbEntity
  8
0
100
AcDbBlockBegin
  2
EDTIP_CIVIL_E
 70
     0
 71
     0
 10
0.0
 20
0.0
 30
0.0
  3
EDTIP_CIVIL_E
  1

  0
LINE
  5
6B
330
68
100
AcDbEntity
  8
0
  6
CONTINUOUS
 62
     0
100
AcDbLine
 10
0.0
 20
0.0
 30
0.0
 11
-1.0
 21
0.0
 31
0.0
  0
LINE
  5
6C
330
68
100
AcDbEntity
  8
0
  6
CONTINUOUS
 62
     0
100
AcDbLine
 10
0.0
 20
0.083333
 30
0.0
 11
-1.0
 21
0.083333
 31
0.0
  0
LINE
  5
6D
330
68
100
AcDbEntity
  8
0
  6
CONTINUOUS
 62
     0
100
AcDbLine
 10
0.0
 20
0.166667
 30
0.0
 11
-1.0
 21
0.166667
 31
0.0
  0
ENDBLK
  5
6A
330
68
100
AcDbEntity
  8
0
100
AcDbBlockEnd
  0
BLOCK
  5
A6
330
A5
100
AcDbEntity
  8
0
100
AcDbBlockBegin
  2
BLKF011
 70
     0
 71
     0
 10
0.0
 20
0.0
 30
0.0
  3
BLKF011
  1

  0
LINE
  5
A9
330
A5
100
AcDbEntity
  8
0
  6
CONTINUOUS
 62
     3
100
AcDbLine
 10
161.065319
 20
109.957266
 30
0.0
 11
161.029236
 21
109.95763
 31
0.0
  0
LINE
  5
AA
330
A5
100
AcDbEntity
  8
0
  6
CONTINUOUS
 62
     3
100
AcDbLine
 10
161.029236
 20
109.95763
 30
0.0
 11
160.993165
 21
109.958108
 31
0.0
  0
LINE
  5
AB
330
A5
100
AcDbEntity
  8
0
  6
CONTINUOUS
 62
     3
100
AcDbLine
 10
160.993165
 20
109.958108
 30
0.0
 11
160.957117
 21
109.958813
 31
0.0
  0
LINE
  5
AC
330
A5
100
AcDbEntity
  8
0
  6
CONTINUOUS
 62
     3
100
AcDbLine
 10
160.957117
 20
109.958813
 30
0.0
 11
160.921105
 21
109.959859
 31
0.0
  0
LINE
  5
AD
330
A5
100
AcDbEntity
  8
0
  6
CONTINUOUS
 62
     3
100
AcDbLine
 10
160.921105
 20
109.959859
 30
0.0
 11
160.900601
 21
109.960647
 31
0.0
  0
LINE
  5
AE
330
A5
100
AcDbEntity
  8
0
  6
CONTINUOUS
 62
     3
100
AcDbLine
 10
160.900601
 20
109.960647
 30
0.0
 11
160.880111
 21
109.961581
 31
0.0
  0
LINE
  5
AF
330
A5
100
AcDbEntity
  8
0
  6
CONTINUOUS
 62
     3
100
AcDbLine
 10
160.880111
 20
109.961581
 30
0.0
 11
160.859636
 21
109.962658
 31
0.0
  0
LINE
  5
B0
330
A5
100
AcDbEntity
  8
0
  6
CONTINUOUS
 62
     3
100
AcDbLine
 10
160.859636
 20
109.962658
 30
0.0
 11
160.839176
 21
109.963875
 31
0.0
  0
LINE
  5
B1
330
A5
100
AcDbEntity
  8
0
  6
CONTINUOUS
 62
     3
100
AcDbLine
 10
160.839176
 20
109.963875
 30
0.0
 11
160.798299
 21
109.966724
 31
0.0
  0
LINE
  5
B2
330
A5
100
AcDbEntity
  8
0
  6
CONTINUOUS
 62
     3
100
AcDbLine
 10
160.798299
 20
109.966724
 30
0.0
 11
160.757477
 21
109.970108
 31
0.0
  0
LINE
  5
B3
330
A5
100
AcDbEntity
  8
0
  6
CONTINUOUS
 62
     3
100
AcDbLine
 10
160.757477
 20
109.970108
 30
0.0
 11
160.716709
 21
109.974008
 31
0.0
  0
LINE
  5
B4
330
A5
100
AcDbEntity
  8
0
  6
CONTINUOUS
 62
     3
100
AcDbLine
 10
160.716709
 20
109.974008
 30
0.0
 11
160.675993
 21
109.978407
 31
0.0
  0
LINE
  5
B5
330
A5
100
AcDbEntity
  8
0
  6
CONTINUOUS
 62
     3
100
AcDbLine
 10
160.675993
 20
109.978407
 30
0.0
 11
160.635326
 21
109.983286
 31
0.0
  0
LINE
  5
B6
330
A5
100
AcDbEntity
  8
0
  6
CONTINUOUS
 62
     3
100
AcDbLine
 10
160.635326
 20
109.983286
 30
0.0
 11
160.594708
 21
109.988627
 31
0.0
  0
LINE
  5
B7
330
A5
100
AcDbEntity
  8
0
  6
CONTINUOUS
 62
     3
100
AcDbLine
 10
160.594708
 20
109.988627
 30
0.0
 11
160.554136
 21
109.994411
 31
0.0
  0
LINE
  5
B8
330
A5
100
AcDbEntity
  8
0
  6
CONTINUOUS
 62
     3
100
AcDbLine
 10
160.554136
 20
109.994411
 30
0.0
 11
160.513608
 21
110.000619
 31
0.0
  0
LINE
  5
B9
330
A5
100
AcDbEntity
  8
0
  6
CONTINUOUS
 62
     3
100
AcDbLine
 10
160.513608
 20
110.000619
 30
0.0
 11
160.473122
 21
110.007233
 31
0.0
  0
LINE
  5
BA
330
A5
100
AcDbEntity
  8
0
  6
CONTINUOUS
 62
     3
100
AcDbLine
 10
160.473122
 20
110.007233
 30
0.0
 11
160.432677
 21
110.014236
 31
0.0
  0
LINE
  5
BB
330
A5
100
AcDbEntity
  8
0
  6
CONTINUOUS
 62
     3
100
AcDbLine
 10
160.432677
 20
110.014236
 30
0.0
 11
160.39227
 21
110.021607
 31
0.0
  0
LINE
  5
BC
330
A5
100
AcDbEntity
  8
0
  6
CONTINUOUS
 62
     3
100
AcDbLine
 10
160.39227
 20
110.021607
 30
0.0
 11
160.351899
 21
110.029329
 31
0.0
  0
LINE
  5
BD
330
A5
100
AcDbEntity
  8
0
  6
CONTINUOUS
 62
     3
100
AcDbLine
 10
160.351899
 20
110.029329
 30
0.0
 11
160.311563
 21
110.037384
 31
0.0
  0
LINE
  5
BE
330
A5
100
AcDbEntity
  8
0
  6
CONTINUOUS
 62
     3
100
AcDbLine
 10
160.311563
 20
110.037384
 30
0.0
 11
160.271259
 21
110.045752
 31
0.0
  0
LINE
  5
BF
330
A5
100
AcDbEntity
  8
0
  6
CONTINUOUS
 62
     3
100
AcDbLine
 10
160.271259
 20
110.045752
 30
0.0
 11
160.230987
 21
110.054416
 31
0.0
  0
LINE
  5
C0
330
A5
100
AcDbEntity
  8
0
  6
CONTINUOUS
 62
     3
100
AcDbLine
 10
160.230987
 20
110.054416
 30
0.0
 11
160.190743
 21
110.063356
 31
0.0
  0
LINE
  5
C1
330
A5
100
AcDbEntity
  8
0
  6
CONTINUOUS
 62
     3
100
AcDbLine
 10
160.190743
 20
110.063356
 30
0.0
 11
160.150525
 21
110.072555
 31
0.0
  0
LINE
  5
C2
330
A5
100
AcDbEntity
  8
0
  6
CONTINUOUS
 62
     3
100
AcDbLine
 10
160.150525
 20
110.072555
 30
0.0
 11
160.110333
 21
110.081994
 31
0.0
  0
LINE
  5
C3
330
A5
100
AcDbEntity
  8
0
  6
CONTINUOUS
 62
     3
100
AcDbLine
 10
160.110333
 20
110.081994
 30
0.0
 11
160.070164
 21
110.091655
 31
0.0
  0
LINE
  5
C4
330
A5
100
AcDbEntity
  8
0
  6
CONTINUOUS
 62
     3
100
AcDbLine
 10
160.070164
 20
110.091655
 30
0.0
 11
160.030016
 21
110.101518
 31
0.0
  0
LINE
  5
C5
330
A5
100
AcDbEntity
  8
0
  6
CONTINUOUS
 62
     3
100
AcDbLine
 10
160.030016
 20
110.101518
 30
0.0
 11
159.989887
 21
110.111567
 31
0.0
  0
LINE
  5
C6
330
A5
100
AcDbEntity
  8
0
  6
CONTINUOUS
 62
     3
100
AcDbLine
 10
159.989887
 20
110.111567
 30
0.0
 11
159.949776
 21
110.121781
 31
0.0
  0
LINE
  5
C7
330
A5
100
AcDbEntity
  8
0
  6
CONTINUOUS
 62
     3
100
AcDbLine
 10
159.949776
 20
110.121781
 30
0.0
 11
159.90968
 21
110.132143
 31
0.0
  0
LINE
  5
C8
330
A5
100
AcDbEntity
  8
0
  6
CONTINUOUS
 62
     3
100
AcDbLine
 10
159.90968
 20
110.132143
 30
0.0
 11
159.869597
 21
110.142635
 31
0.0
  0
LINE
  5
C9
330
A5
100
AcDbEntity
  8
0
  6
CONTINUOUS
 62
     3
100
AcDbLine
 10
159.869597
 20
110.142635
 30
0.0
 11
159.829526
 21
110.153237
 31
0.0
  0
LINE
  5
CA
330
A5
100
AcDbEntity
  8
0
  6
CONTINUOUS
 62
     3
100
AcDbLine
 10
159.829526
 20
110.153237
 30
0.0
 11
159.789464
 21
110.163931
 31
0.0
  0
LINE
  5
CB
330
A5
100
AcDbEntity
  8
0
  6
CONTINUOUS
 62
     3
100
AcDbLine
 10
159.789464
 20
110.163931
 30
0.0
 11
159.709362
 21
110.185523
 31
0.0
  0
LINE
  5
CC
330
A5
100
AcDbEntity
  8
0
  6
CONTINUOUS
 62
     3
100
AcDbLine
 10
159.709362
 20
110.185523
 30
0.0
 11
159.629275
 21
110.207263
 31
0.0
  0
ENDBLK
  5
A7
330
A5
100
AcDbEntity
  8
0
100
AcDbBlockEnd
  0
BLOCK
  5
D1
330
D0
100
AcDbEntity
  8
0
100
AcDbBlockBegin
  2
BLKF012
 70
     0
 71
     0
 10
0.0
 20
0.0
 30
0.0
  3
BLKF012
  1

  0
LINE
  5
D4
330
D0
100
AcDbEntity
  8
0
  6
CONTINUOUS
 62
     3
100
AcDbLine
 10
159.629275
 20
112.857263
 30
0.0
 11
159.689933
 21
112.876956
 31
0.0
  0
LINE
  5
D5
330
D0
100
AcDbEntity
  8
0
  6
CONTINUOUS
 62
     3
100
AcDbLine
 10
159.689933
 20
112.876956
 30
0.0
 11
159.720287
 21
112.886715
 31
0.0
  0
LINE
  5
D6
330
D0
100
AcDbEntity
  8
0
  6
CONTINUOUS
 62
     3
100
AcDbLine
 10
159.720287
 20
112.886715
 30
0.0
 11
159.750672
 21
112.896369
 31
0.0
  0
LINE
  5
D7
330
D0
100
AcDbEntity
  8
0
  6
CONTINUOUS
 62
     3
100
AcDbLine
 10
159.750672
 20
112.896369
 30
0.0
 11
159.781098
 21
112.905883
 31
0.0
  0
LINE
  5
D8
330
D0
100
AcDbEntity
  8
0
  6
CONTINUOUS
 62
     3
100
AcDbLine
 10
159.781098
 20
112.905883
 30
0.0
 11
159.811576
 21
112.915222
 31
0.0
  0
LINE
  5
D9
330
D0
100
AcDbEntity
  8
0
  6
CONTINUOUS
 62
     3
100
AcDbLine
 10
159.811576
 20
112.915222
 30
0.0
 11
159.842115
 21
112.924352
 31
0.0
  0
LINE
  5
DA
330
D0
100
AcDbEntity
  8
0
  6
CONTINUOUS
 62
     3
100
AcDbLine
 10
159.842115
 20
112.924352
 30
0.0
 11
159.872727
 21
112.933236
 31
0.0
  0
LINE
  5
DB
330
D0
100
AcDbEntity
  8
0
  6
CONTINUOUS
 62
     3
100
AcDbLine
 10
159.872727
 20
112.933236
 30
0.0
 11
159.894441
 21
112.939366
 31
0.0
  0
LINE
  5
DC
330
D0
100
AcDbEntity
  8
0
  6
CONTINUOUS
 62
     3
100
AcDbLine
 10
159.894441
 20
112.939366
 30
0.0
 11
159.916186
 21
112.945391
 31
0.0
  0
LINE
  5
DD
330
D0
100
AcDbEntity
  8
0
  6
CONTINUOUS
 62
     3
100
AcDbLine
 10
159.916186
 20
112.945391
 30
0.0
 11
159.959727
 21
112.957265
 31
0.0
  0
ENDBLK
  5
D2
330
D0
100
AcDbEntity
  8
0
100
AcDbBlockEnd
  0
BLOCK
  5
E2
330
E1
100
AcDbEntity
  8
0
100
AcDbBlockBegin
  2
BLKF013
 70
     0
 71
     0
 10
0.0
 20
0.0
 30
0.0
  3
BLKF013
  1

  0
LINE
  5
E5
330
E1
100
AcDbEntity
  8
0
  6
CONTINUOUS
 62
     3
100
AcDbLine
 10
162.501359
 20
110.207263
 30
0.0
 11
162.410926
 21
110.178311
 31
0.0
  0
LINE
  5
E6
330
E1
100
AcDbEntity
  8
0
  6
CONTINUOUS
 62
     3
100
AcDbLine
 10
162.410926
 20
110.178311
 30
0.0
 11
162.365662
 21
110.164059
 31
0.0
  0
LINE
  5
E7
330
E1
100
AcDbEntity
  8
0
  6
CONTINUOUS
 62
     3
100
AcDbLine
 10
162.365662
 20
110.164059
 30
0.0
 11
162.32034
 21
110.150077
 31
0.0
  0
LINE
  5
E8
330
E1
100
AcDbEntity
  8
0
  6
CONTINUOUS
 62
     3
100
AcDbLine
 10
162.32034
 20
110.150077
 30
0.0
 11
162.274941
 21
110.136454
 31
0.0
  0
LINE
  5
E9
330
E1
100
AcDbEntity
  8
0
  6
CONTINUOUS
 62
     3
100
AcDbLine
 10
162.274941
 20
110.136454
 30
0.0
 11
162.229446
 21
110.123281
 31
0.0
  0
LINE
  5
EA
330
E1
100
AcDbEntity
  8
0
  6
CONTINUOUS
 62
     3
100
AcDbLine
 10
162.229446
 20
110.123281
 30
0.0
 11
162.183836
 21
110.110646
 31
0.0
  0
LINE
  5
EB
330
E1
100
AcDbEntity
  8
0
  6
CONTINUOUS
 62
     3
100
AcDbLine
 10
162.183836
 20
110.110646
 30
0.0
 11
162.138091
 21
110.098641
 31
0.0
  0
LINE
  5
EC
330
E1
100
AcDbEntity
  8
0
  6
CONTINUOUS
 62
     3
100
AcDbLine
 10
162.138091
 20
110.098641
 30
0.0
 11
162.105363
 21
110.090502
 31
0.0
  0
LINE
  5
ED
330
E1
100
AcDbEntity
  8
0
  6
CONTINUOUS
 62
     3
100
AcDbLine
 10
162.105363
 20
110.090502
 30
0.0
 11
162.072559
 21
110.082717
 31
0.0
  0
LINE
  5
EE
330
E1
100
AcDbEntity
  8
0
  6
CONTINUOUS
 62
     3
100
AcDbLine
 10
162.072559
 20
110.082717
 30
0.0
 11
162.039682
 21
110.075276
 31
0.0
  0
LINE
  5
EF
330
E1
100
AcDbEntity
  8
0
  6
CONTINUOUS
 62
     3
100
AcDbLine
 10
162.039682
 20
110.075276
 30
0.0
 11
162.006734
 21
110.068166
 31
0.0
  0
LINE
  5
F0
330
E1
100
AcDbEntity
  8
0
  6
CONTINUOUS
 62
     3
100
AcDbLine
 10
162.006734
 20
110.068166
 30
0.0
 11
161.973717
 21
110.061376
 31
0.0
  0
LINE
  5
F1
330
E1
100
AcDbEntity
  8
0
  6
CONTINUOUS
 62
     3
100
AcDbLine
 10
161.973717
 20
110.061376
 30
0.0
 11
161.940634
 21
110.054895
 31
0.0
  0
LINE
  5
F2
330
E1
100
AcDbEntity
  8
0
  6
CONTINUOUS
 62
     3
100
AcDbLine
 10
161.940634
 20
110.054895
 30
0.0
 11
161.907488
 21
110.048711
 31
0.0
  0
LINE
  5
F3
330
E1
100
AcDbEntity
  8
0
  6
CONTINUOUS
 62
     3
100
AcDbLine
 10
161.907488
 20
110.048711
 30
0.0
 11
161.874281
 21
110.042812
 31
0.0
  0
LINE
  5
F4
330
E1
100
AcDbEntity
  8
0
  6
CONTINUOUS
 62
     3
100
AcDbLine
 10
161.874281
 20
110.042812
 30
0.0
 11
161.841015
 21
110.037188
 31
0.0
  0
LINE
  5
F5
330
E1
100
AcDbEntity
  8
0
  6
CONTINUOUS
 62
     3
100
AcDbLine
 10
161.841015
 20
110.037188
 30
0.0
 11
161.807692
 21
110.031827
 31
0.0
  0
LINE
  5
F6
330
E1
100
AcDbEntity
  8
0
  6
CONTINUOUS
 62
     3
100
AcDbLine
 10
161.807692
 20
110.031827
 30
0.0
 11
161.774316
 21
110.026718
 31
0.0
  0
LINE
  5
F7
330
E1
100
AcDbEntity
  8
0
  6
CONTINUOUS
 62
     3
100
AcDbLine
 10
161.774316
 20
110.026718
 30
0.0
 11
161.740889
 21
110.021848
 31
0.0
  0
LINE
  5
F8
330
E1
100
AcDbEntity
  8
0
  6
CONTINUOUS
 62
     3
100
AcDbLine
 10
161.740889
 20
110.021848
 30
0.0
 11
161.673889
 21
110.012784
 31
0.0
  0
LINE
  5
F9
330
E1
100
AcDbEntity
  8
0
  6
CONTINUOUS
 62
     3
100
AcDbLine
 10
161.673889
 20
110.012784
 30
0.0
 11
161.606714
 21
110.004542
 31
0.0
  0
LINE
  5
FA
330
E1
100
AcDbEntity
  8
0
  6
CONTINUOUS
 62
     3
100
AcDbLine
 10
161.606714
 20
110.004542
 30
0.0
 11
161.539382
 21
109.997032
 31
0.0
  0
LINE
  5
FB
330
E1
100
AcDbEntity
  8
0
  6
CONTINUOUS
 62
     3
100
AcDbLine
 10
161.539382
 20
109.997032
 30
0.0
 11
161.471913
 21
109.990163
 31
0.0
  0
LINE
  5
FC
330
E1
100
AcDbEntity
  8
0
  6
CONTINUOUS
 62
     3
100
AcDbLine
 10
161.471913
 20
109.990163
 30
0.0
 11
161.404327
 21
109.983842
 31
0.0
  0
LINE
  5
FD
330
E1
100
AcDbEntity
  8
0
  6
CONTINUOUS
 62
     3
100
AcDbLine
 10
161.404327
 20
109.983842
 30
0.0
 11
161.336643
 21
109.977978
 31
0.0
  0
LINE
  5
FE
330
E1
100
AcDbEntity
  8
0
  6
CONTINUOUS
 62
     3
100
AcDbLine
 10
161.336643
 20
109.977978
 30
0.0
 11
161.26888
 21
109.97248
 31
0.0
  0
LINE
  5
FF
330
E1
100
AcDbEntity
  8
0
  6
CONTINUOUS
 62
     3
100
AcDbLine
 10
161.26888
 20
109.97248
 30
0.0
 11
161.201059
 21
109.967256
 31
0.0
  0
LINE
  5
100
330
E1
100
AcDbEntity
  8
0
  6
CONTINUOUS
 62
     3
100
AcDbLine
 10
161.201059
 20
109.967256
 30
0.0
 11
161.065319
 21
109.957266
 31
0.0
  0
ENDBLK
  5
E3
330
E1
100
AcDbEntity
  8
0
100
AcDbBlockEnd
  0
BLOCK
  5
106
330
105
100
AcDbEntity
  8
0
100
AcDbBlockBegin
  2
BLKF014
 70
     0
 71
     0
 10
0.0
 20
0.0
 30
0.0
  3
BLKF014
  1

  0
LINE
  5
109
330
105
100
AcDbEntity
  8
0
  6
CONTINUOUS
 62
     3
100
AcDbLine
 10
164.505777
 20
109.957266
 30
0.0
 11
164.485512
 21
109.957555
 31
0.0
  0
LINE
  5
10A
330
105
100
AcDbEntity
  8
0
  6
CONTINUOUS
 62
     3
100
AcDbLine
 10
164.485512
 20
109.957555
 30
0.0
 11
164.475395
 21
109.957784
 31
0.0
  0
LINE
  5
10B
330
105
100
AcDbEntity
  8
0
  6
CONTINUOUS
 62
     3
100
AcDbLine
 10
164.475395
 20
109.957784
 30
0.0
 11
164.465298
 21
109.958115
 31
0.0
  0
LINE
  5
10C
330
105
100
AcDbEntity
  8
0
  6
CONTINUOUS
 62
     3
100
AcDbLine
 10
164.465298
 20
109.958115
 30
0.0
 11
164.454288
 21
109.958626
 31
0.0
  0
LINE
  5
10D
330
105
100
AcDbEntity
  8
0
  6
CONTINUOUS
 62
     3
100
AcDbLine
 10
164.454288
 20
109.958626
 30
0.0
 11
164.443308
 21
109.959297
 31
0.0
  0
LINE
  5
10E
330
105
100
AcDbEntity
  8
0
  6
CONTINUOUS
 62
     3
100
AcDbLine
 10
164.443308
 20
109.959297
 30
0.0
 11
164.432359
 21
109.960125
 31
0.0
  0
LINE
  5
10F
330
105
100
AcDbEntity
  8
0
  6
CONTINUOUS
 62
     3
100
AcDbLine
 10
164.432359
 20
109.960125
 30
0.0
 11
164.421439
 21
109.961107
 31
0.0
  0
LINE
  5
110
330
105
100
AcDbEntity
  8
0
  6
CONTINUOUS
 62
     3
100
AcDbLine
 10
164.421439
 20
109.961107
 30
0.0
 11
164.410549
 21
109.962242
 31
0.0
  0
LINE
  5
111
330
105
100
AcDbEntity
  8
0
  6
CONTINUOUS
 62
     3
100
AcDbLine
 10
164.410549
 20
109.962242
 30
0.0
 11
164.399688
 21
109.963526
 31
0.0
  0
LINE
  5
112
330
105
100
AcDbEntity
  8
0
  6
CONTINUOUS
 62
     3
100
AcDbLine
 10
164.399688
 20
109.963526
 30
0.0
 11
164.388854
 21
109.964958
 31
0.0
  0
LINE
  5
113
330
105
100
AcDbEntity
  8
0
  6
CONTINUOUS
 62
     3
100
AcDbLine
 10
164.388854
 20
109.964958
 30
0.0
 11
164.378049
 21
109.966534
 31
0.0
  0
LINE
  5
114
330
105
100
AcDbEntity
  8
0
  6
CONTINUOUS
 62
     3
100
AcDbLine
 10
164.378049
 20
109.966534
 30
0.0
 11
164.367271
 21
109.968252
 31
0.0
  0
LINE
  5
115
330
105
100
AcDbEntity
  8
0
  6
CONTINUOUS
 62
     3
100
AcDbLine
 10
164.367271
 20
109.968252
 30
0.0
 11
164.35652
 21
109.97011
 31
0.0
  0
LINE
  5
116
330
105
100
AcDbEntity
  8
0
  6
CONTINUOUS
 62
     3
100
AcDbLine
 10
164.35652
 20
109.97011
 30
0.0
 11
164.345796
 21
109.972104
 31
0.0
  0
LINE
  5
117
330
105
100
AcDbEntity
  8
0
  6
CONTINUOUS
 62
     3
100
AcDbLine
 10
164.345796
 20
109.972104
 30
0.0
 11
164.335097
 21
109.974233
 31
0.0
  0
LINE
  5
118
330
105
100
AcDbEntity
  8
0
  6
CONTINUOUS
 62
     3
100
AcDbLine
 10
164.335097
 20
109.974233
 30
0.0
 11
164.324423
 21
109.976494
 31
0.0
  0
LINE
  5
119
330
105
100
AcDbEntity
  8
0
  6
CONTINUOUS
 62
     3
100
AcDbLine
 10
164.324423
 20
109.976494
 30
0.0
 11
164.313775
 21
109.978884
 31
0.0
  0
LINE
  5
11A
330
105
100
AcDbEntity
  8
0
  6
CONTINUOUS
 62
     3
100
AcDbLine
 10
164.313775
 20
109.978884
 30
0.0
 11
164.303151
 21
109.981401
 31
0.0
  0
LINE
  5
11B
330
105
100
AcDbEntity
  8
0
  6
CONTINUOUS
 62
     3
100
AcDbLine
 10
164.303151
 20
109.981401
 30
0.0
 11
164.292551
 21
109.984043
 31
0.0
  0
LINE
  5
11C
330
105
100
AcDbEntity
  8
0
  6
CONTINUOUS
 62
     3
100
AcDbLine
 10
164.292551
 20
109.984043
 30
0.0
 11
164.281974
 21
109.986806
 31
0.0
  0
LINE
  5
11D
330
105
100
AcDbEntity
  8
0
  6
CONTINUOUS
 62
     3
100
AcDbLine
 10
164.281974
 20
109.986806
 30
0.0
 11
164.27142
 21
109.989688
 31
0.0
  0
LINE
  5
11E
330
105
100
AcDbEntity
  8
0
  6
CONTINUOUS
 62
     3
100
AcDbLine
 10
164.27142
 20
109.989688
 30
0.0
 11
164.260889
 21
109.992687
 31
0.0
  0
LINE
  5
11F
330
105
100
AcDbEntity
  8
0
  6
CONTINUOUS
 62
     3
100
AcDbLine
 10
164.260889
 20
109.992687
 30
0.0
 11
164.250379
 21
109.9958
 31
0.0
  0
LINE
  5
120
330
105
100
AcDbEntity
  8
0
  6
CONTINUOUS
 62
     3
100
AcDbLine
 10
164.250379
 20
109.9958
 30
0.0
 11
164.239892
 21
109.999024
 31
0.0
  0
LINE
  5
121
330
105
100
AcDbEntity
  8
0
  6
CONTINUOUS
 62
     3
100
AcDbLine
 10
164.239892
 20
109.999024
 30
0.0
 11
164.229425
 21
110.002358
 31
0.0
  0
LINE
  5
122
330
105
100
AcDbEntity
  8
0
  6
CONTINUOUS
 62
     3
100
AcDbLine
 10
164.229425
 20
110.002358
 30
0.0
 11
164.218978
 21
110.005798
 31
0.0
  0
LINE
  5
123
330
105
100
AcDbEntity
  8
0
  6
CONTINUOUS
 62
     3
100
AcDbLine
 10
164.218978
 20
110.005798
 30
0.0
 11
164.208552
 21
110.009342
 31
0.0
  0
LINE
  5
124
330
105
100
AcDbEntity
  8
0
  6
CONTINUOUS
 62
     3
100
AcDbLine
 10
164.208552
 20
110.009342
 30
0.0
 11
164.198145
 21
110.012988
 31
0.0
  0
LINE
  5
125
330
105
100
AcDbEntity
  8
0
  6
CONTINUOUS
 62
     3
100
AcDbLine
 10
164.198145
 20
110.012988
 30
0.0
 11
164.187758
 21
110.016733
 31
0.0
  0
LINE
  5
126
330
105
100
AcDbEntity
  8
0
  6
CONTINUOUS
 62
     3
100
AcDbLine
 10
164.187758
 20
110.016733
 30
0.0
 11
164.177388
 21
110.020574
 31
0.0
  0
LINE
  5
127
330
105
100
AcDbEntity
  8
0
  6
CONTINUOUS
 62
     3
100
AcDbLine
 10
164.177388
 20
110.020574
 30
0.0
 11
164.167037
 21
110.024508
 31
0.0
  0
LINE
  5
128
330
105
100
AcDbEntity
  8
0
  6
CONTINUOUS
 62
     3
100
AcDbLine
 10
164.167037
 20
110.024508
 30
0.0
 11
164.156704
 21
110.028534
 31
0.0
  0
LINE
  5
129
330
105
100
AcDbEntity
  8
0
  6
CONTINUOUS
 62
     3
100
AcDbLine
 10
164.156704
 20
110.028534
 30
0.0
 11
164.146387
 21
110.032649
 31
0.0
  0
LINE
  5
12A
330
105
100
AcDbEntity
  8
0
  6
CONTINUOUS
 62
     3
100
AcDbLine
 10
164.146387
 20
110.032649
 30
0.0
 11
164.136088
 21
110.03685
 31
0.0
  0
LINE
  5
12B
330
105
100
AcDbEntity
  8
0
  6
CONTINUOUS
 62
     3
100
AcDbLine
 10
164.136088
 20
110.03685
 30
0.0
 11
164.125804
 21
110.041135
 31
0.0
  0
LINE
  5
12C
330
105
100
AcDbEntity
  8
0
  6
CONTINUOUS
 62
     3
100
AcDbLine
 10
164.125804
 20
110.041135
 30
0.0
 11
164.115536
 21
110.045501
 31
0.0
  0
LINE
  5
12D
330
105
100
AcDbEntity
  8
0
  6
CONTINUOUS
 62
     3
100
AcDbLine
 10
164.115536
 20
110.045501
 30
0.0
 11
164.105283
 21
110.049946
 31
0.0
  0
LINE
  5
12E
330
105
100
AcDbEntity
  8
0
  6
CONTINUOUS
 62
     3
100
AcDbLine
 10
164.105283
 20
110.049946
 30
0.0
 11
164.095045
 21
110.054466
 31
0.0
  0
LINE
  5
12F
330
105
100
AcDbEntity
  8
0
  6
CONTINUOUS
 62
     3
100
AcDbLine
 10
164.095045
 20
110.054466
 30
0.0
 11
164.08482
 21
110.059061
 31
0.0
  0
LINE
  5
130
330
105
100
AcDbEntity
  8
0
  6
CONTINUOUS
 62
     3
100
AcDbLine
 10
164.08482
 20
110.059061
 30
0.0
 11
164.064413
 21
110.068459
 31
0.0
  0
LINE
  5
131
330
105
100
AcDbEntity
  8
0
  6
CONTINUOUS
 62
     3
100
AcDbLine
 10
164.064413
 20
110.068459
 30
0.0
 11
164.044056
 21
110.078122
 31
0.0
  0
LINE
  5
132
330
105
100
AcDbEntity
  8
0
  6
CONTINUOUS
 62
     3
100
AcDbLine
 10
164.044056
 20
110.078122
 30
0.0
 11
164.023746
 21
110.088028
 31
0.0
  0
LINE
  5
133
330
105
100
AcDbEntity
  8
0
  6
CONTINUOUS
 62
     3
100
AcDbLine
 10
164.023746
 20
110.088028
 30
0.0
 11
164.003479
 21
110.098158
 31
0.0
  0
LINE
  5
134
330
105
100
AcDbEntity
  8
0
  6
CONTINUOUS
 62
     3
100
AcDbLine
 10
164.003479
 20
110.098158
 30
0.0
 11
163.983251
 21
110.10849
 31
0.0
  0
LINE
  5
135
330
105
100
AcDbEntity
  8
0
  6
CONTINUOUS
 62
     3
100
AcDbLine
 10
163.983251
 20
110.10849
 30
0.0
 11
163.963058
 21
110.119005
 31
0.0
  0
LINE
  5
136
330
105
100
AcDbEntity
  8
0
  6
CONTINUOUS
 62
     3
100
AcDbLine
 10
163.963058
 20
110.119005
 30
0.0
 11
163.942896
 21
110.129682
 31
0.0
  0
LINE
  5
137
330
105
100
AcDbEntity
  8
0
  6
CONTINUOUS
 62
     3
100
AcDbLine
 10
163.942896
 20
110.129682
 30
0.0
 11
163.922762
 21
110.140501
 31
0.0
  0
LINE
  5
138
330
105
100
AcDbEntity
  8
0
  6
CONTINUOUS
 62
     3
100
AcDbLine
 10
163.922762
 20
110.140501
 30
0.0
 11
163.902651
 21
110.151442
 31
0.0
  0
LINE
  5
139
330
105
100
AcDbEntity
  8
0
  6
CONTINUOUS
 62
     3
100
AcDbLine
 10
163.902651
 20
110.151442
 30
0.0
 11
163.88256
 21
110.162484
 31
0.0
  0
LINE
  5
13A
330
105
100
AcDbEntity
  8
0
  6
CONTINUOUS
 62
     3
100
AcDbLine
 10
163.88256
 20
110.162484
 30
0.0
 11
163.862484
 21
110.173608
 31
0.0
  0
LINE
  5
13B
330
105
100
AcDbEntity
  8
0
  6
CONTINUOUS
 62
     3
100
AcDbLine
 10
163.862484
 20
110.173608
 30
0.0
 11
163.84242
 21
110.184792
 31
0.0
  0
LINE
  5
13C
330
105
100
AcDbEntity
  8
0
  6
CONTINUOUS
 62
     3
100
AcDbLine
 10
163.84242
 20
110.184792
 30
0.0
 11
163.802312
 21
110.207263
 31
0.0
  0
ENDBLK
  5
107
330
105
100
AcDbEntity
  8
0
100
AcDbBlockEnd
  0
BLOCK
  5
140
330
13F
100
AcDbEntity
  8
0
100
AcDbBlockBegin
  2
BLKF015
 70
     0
 71
     0
 10
0.0
 20
0.0
 30
0.0
  3
BLKF015
  1

  0
LINE
  5
143
330
13F
100
AcDbEntity
  8
0
  6
CONTINUOUS
 62
     3
100
AcDbLine
 10
163.802312
 20
112.857263
 30
0.0
 11
163.821794
 21
112.870372
 31
0.0
  0
LINE
  5
144
330
13F
100
AcDbEntity
  8
0
  6
CONTINUOUS
 62
     3
100
AcDbLine
 10
163.821794
 20
112.870372
 30
0.0
 11
163.841336
 21
112.883383
 31
0.0
  0
LINE
  5
145
330
13F
100
AcDbEntity
  8
0
  6
CONTINUOUS
 62
     3
100
AcDbLine
 10
163.841336
 20
112.883383
 30
0.0
 11
163.860998
 21
112.896199
 31
0.0
  0
LINE
  5
146
330
13F
100
AcDbEntity
  8
0
  6
CONTINUOUS
 62
     3
100
AcDbLine
 10
163.860998
 20
112.896199
 30
0.0
 11
163.880841
 21
112.908724
 31
0.0
  0
LINE
  5
147
330
13F
100
AcDbEntity
  8
0
  6
CONTINUOUS
 62
     3
100
AcDbLine
 10
163.880841
 20
112.908724
 30
0.0
 11
163.901455
 21
112.921219
 31
0.0
  0
LINE
  5
148
330
13F
100
AcDbEntity
  8
0
  6
CONTINUOUS
 62
     3
100
AcDbLine
 10
163.901455
 20
112.921219
 30
0.0
 11
163.92226
 21
112.933405
 31
0.0
  0
LINE
  5
149
330
13F
100
AcDbEntity
  8
0
  6
CONTINUOUS
 62
     3
100
AcDbLine
 10
163.92226
 20
112.933405
 30
0.0
 11
163.943192
 21
112.945386
 31
0.0
  0
LINE
  5
14A
330
13F
100
AcDbEntity
  8
0
  6
CONTINUOUS
 62
     3
100
AcDbLine
 10
163.943192
 20
112.945386
 30
0.0
 11
163.964187
 21
112.957265
 31
0.0
  0
ENDBLK
  5
141
330
13F
100
AcDbEntity
  8
0
100
AcDbBlockEnd
  0
BLOCK
  5
14E
330
14D
100
AcDbEntity
  8
0
100
AcDbBlockBegin
  2
BLKF016
 70
     0
 71
     0
 10
0.0
 20
0.0
 30
0.0
  3
BLKF016
  1

  0
LINE
  5
151
330
14D
100
AcDbEntity
  8
0
  6
CONTINUOUS
 62
     3
100
AcDbLine
 10
157.578049
 20
109.957266
 30
0.0
 11
157.556945
 21
109.957553
 31
0.0
  0
LINE
  5
152
330
14D
100
AcDbEntity
  8
0
  6
CONTINUOUS
 62
     3
100
AcDbLine
 10
157.556945
 20
109.957553
 30
0.0
 11
157.54641
 21
109.957783
 31
0.0
  0
LINE
  5
153
330
14D
100
AcDbEntity
  8
0
  6
CONTINUOUS
 62
     3
100
AcDbLine
 10
157.54641
 20
109.957783
 30
0.0
 11
157.535893
 21
109.958115
 31
0.0
  0
LINE
  5
154
330
14D
100
AcDbEntity
  8
0
  6
CONTINUOUS
 62
     3
100
AcDbLine
 10
157.535893
 20
109.958115
 30
0.0
 11
157.524479
 21
109.958626
 31
0.0
  0
LINE
  5
155
330
14D
100
AcDbEntity
  8
0
  6
CONTINUOUS
 62
     3
100
AcDbLine
 10
157.524479
 20
109.958626
 30
0.0
 11
157.513094
 21
109.959296
 31
0.0
  0
LINE
  5
156
330
14D
100
AcDbEntity
  8
0
  6
CONTINUOUS
 62
     3
100
AcDbLine
 10
157.513094
 20
109.959296
 30
0.0
 11
157.501738
 21
109.960124
 31
0.0
  0
LINE
  5
157
330
14D
100
AcDbEntity
  8
0
  6
CONTINUOUS
 62
     3
100
AcDbLine
 10
157.501738
 20
109.960124
 30
0.0
 11
157.49041
 21
109.961107
 31
0.0
  0
LINE
  5
158
330
14D
100
AcDbEntity
  8
0
  6
CONTINUOUS
 62
     3
100
AcDbLine
 10
157.49041
 20
109.961107
 30
0.0
 11
157.479111
 21
109.962241
 31
0.0
  0
LINE
  5
159
330
14D
100
AcDbEntity
  8
0
  6
CONTINUOUS
 62
     3
100
AcDbLine
 10
157.479111
 20
109.962241
 30
0.0
 11
157.46784
 21
109.963526
 31
0.0
  0
LINE
  5
15A
330
14D
100
AcDbEntity
  8
0
  6
CONTINUOUS
 62
     3
100
AcDbLine
 10
157.46784
 20
109.963526
 30
0.0
 11
157.456596
 21
109.964957
 31
0.0
  0
LINE
  5
15B
330
14D
100
AcDbEntity
  8
0
  6
CONTINUOUS
 62
     3
100
AcDbLine
 10
157.456596
 20
109.964957
 30
0.0
 11
157.445379
 21
109.966533
 31
0.0
  0
LINE
  5
15C
330
14D
100
AcDbEntity
  8
0
  6
CONTINUOUS
 62
     3
100
AcDbLine
 10
157.445379
 20
109.966533
 30
0.0
 11
157.434188
 21
109.968251
 31
0.0
  0
LINE
  5
15D
330
14D
100
AcDbEntity
  8
0
  6
CONTINUOUS
 62
     3
100
AcDbLine
 10
157.434188
 20
109.968251
 30
0.0
 11
157.423023
 21
109.970108
 31
0.0
  0
LINE
  5
15E
330
14D
100
AcDbEntity
  8
0
  6
CONTINUOUS
 62
     3
100
AcDbLine
 10
157.423023
 20
109.970108
 30
0.0
 11
157.411883
 21
109.972103
 31
0.0
  0
LINE
  5
15F
330
14D
100
AcDbEntity
  8
0
  6
CONTINUOUS
 62
     3
100
AcDbLine
 10
157.411883
 20
109.972103
 30
0.0
 11
157.400769
 21
109.974232
 31
0.0
  0
LINE
  5
160
330
14D
100
AcDbEntity
  8
0
  6
CONTINUOUS
 62
     3
100
AcDbLine
 10
157.400769
 20
109.974232
 30
0.0
 11
157.389678
 21
109.976493
 31
0.0
  0
LINE
  5
161
330
14D
100
AcDbEntity
  8
0
  6
CONTINUOUS
 62
     3
100
AcDbLine
 10
157.389678
 20
109.976493
 30
0.0
 11
157.378612
 21
109.978883
 31
0.0
  0
LINE
  5
162
330
14D
100
AcDbEntity
  8
0
  6
CONTINUOUS
 62
     3
100
AcDbLine
 10
157.378612
 20
109.978883
 30
0.0
 11
157.367569
 21
109.9814
 31
0.0
  0
LINE
  5
163
330
14D
100
AcDbEntity
  8
0
  6
CONTINUOUS
 62
     3
100
AcDbLine
 10
157.367569
 20
109.9814
 30
0.0
 11
157.356549
 21
109.984041
 31
0.0
  0
LINE
  5
164
330
14D
100
AcDbEntity
  8
0
  6
CONTINUOUS
 62
     3
100
AcDbLine
 10
157.356549
 20
109.984041
 30
0.0
 11
157.345552
 21
109.986804
 31
0.0
  0
LINE
  5
165
330
14D
100
AcDbEntity
  8
0
  6
CONTINUOUS
 62
     3
100
AcDbLine
 10
157.345552
 20
109.986804
 30
0.0
 11
157.334577
 21
109.989686
 31
0.0
  0
LINE
  5
166
330
14D
100
AcDbEntity
  8
0
  6
CONTINUOUS
 62
     3
100
AcDbLine
 10
157.334577
 20
109.989686
 30
0.0
 11
157.323623
 21
109.992685
 31
0.0
  0
LINE
  5
167
330
14D
100
AcDbEntity
  8
0
  6
CONTINUOUS
 62
     3
100
AcDbLine
 10
157.323623
 20
109.992685
 30
0.0
 11
157.312691
 21
109.995798
 31
0.0
  0
LINE
  5
168
330
14D
100
AcDbEntity
  8
0
  6
CONTINUOUS
 62
     3
100
AcDbLine
 10
157.312691
 20
109.995798
 30
0.0
 11
157.301779
 21
109.999023
 31
0.0
  0
LINE
  5
169
330
14D
100
AcDbEntity
  8
0
  6
CONTINUOUS
 62
     3
100
AcDbLine
 10
157.301779
 20
109.999023
 30
0.0
 11
157.290888
 21
110.002356
 31
0.0
  0
LINE
  5
16A
330
14D
100
AcDbEntity
  8
0
  6
CONTINUOUS
 62
     3
100
AcDbLine
 10
157.290888
 20
110.002356
 30
0.0
 11
157.280016
 21
110.005796
 31
0.0
  0
LINE
  5
16B
330
14D
100
AcDbEntity
  8
0
  6
CONTINUOUS
 62
     3
100
AcDbLine
 10
157.280016
 20
110.005796
 30
0.0
 11
157.269164
 21
110.009341
 31
0.0
  0
LINE
  5
16C
330
14D
100
AcDbEntity
  8
0
  6
CONTINUOUS
 62
     3
100
AcDbLine
 10
157.269164
 20
110.009341
 30
0.0
 11
157.25833
 21
110.012986
 31
0.0
  0
LINE
  5
16D
330
14D
100
AcDbEntity
  8
0
  6
CONTINUOUS
 62
     3
100
AcDbLine
 10
157.25833
 20
110.012986
 30
0.0
 11
157.247514
 21
110.016731
 31
0.0
  0
LINE
  5
16E
330
14D
100
AcDbEntity
  8
0
  6
CONTINUOUS
 62
     3
100
AcDbLine
 10
157.247514
 20
110.016731
 30
0.0
 11
157.236717
 21
110.020572
 31
0.0
  0
LINE
  5
16F
330
14D
100
AcDbEntity
  8
0
  6
CONTINUOUS
 62
     3
100
AcDbLine
 10
157.236717
 20
110.020572
 30
0.0
 11
157.225937
 21
110.024507
 31
0.0
  0
LINE
  5
170
330
14D
100
AcDbEntity
  8
0
  6
CONTINUOUS
 62
     3
100
AcDbLine
 10
157.225937
 20
110.024507
 30
0.0
 11
157.215174
 21
110.028533
 31
0.0
  0
LINE
  5
171
330
14D
100
AcDbEntity
  8
0
  6
CONTINUOUS
 62
     3
100
AcDbLine
 10
157.215174
 20
110.028533
 30
0.0
 11
157.204427
 21
110.032647
 31
0.0
  0
LINE
  5
172
330
14D
100
AcDbEntity
  8
0
  6
CONTINUOUS
 62
     3
100
AcDbLine
 10
157.204427
 20
110.032647
 30
0.0
 11
157.193696
 21
110.036849
 31
0.0
  0
LINE
  5
173
330
14D
100
AcDbEntity
  8
0
  6
CONTINUOUS
 62
     3
100
AcDbLine
 10
157.193696
 20
110.036849
 30
0.0
 11
157.182981
 21
110.041133
 31
0.0
  0
LINE
  5
174
330
14D
100
AcDbEntity
  8
0
  6
CONTINUOUS
 62
     3
100
AcDbLine
 10
157.182981
 20
110.041133
 30
0.0
 11
157.172281
 21
110.045499
 31
0.0
  0
LINE
  5
175
330
14D
100
AcDbEntity
  8
0
  6
CONTINUOUS
 62
     3
100
AcDbLine
 10
157.172281
 20
110.045499
 30
0.0
 11
157.161595
 21
110.049944
 31
0.0
  0
LINE
  5
176
330
14D
100
AcDbEntity
  8
0
  6
CONTINUOUS
 62
     3
100
AcDbLine
 10
157.161595
 20
110.049944
 30
0.0
 11
157.150924
 21
110.054465
 31
0.0
  0
LINE
  5
177
330
14D
100
AcDbEntity
  8
0
  6
CONTINUOUS
 62
     3
100
AcDbLine
 10
157.150924
 20
110.054465
 30
0.0
 11
157.140266
 21
110.059059
 31
0.0
  0
LINE
  5
178
330
14D
100
AcDbEntity
  8
0
  6
CONTINUOUS
 62
     3
100
AcDbLine
 10
157.140266
 20
110.059059
 30
0.0
 11
157.118989
 21
110.068458
 31
0.0
  0
LINE
  5
179
330
14D
100
AcDbEntity
  8
0
  6
CONTINUOUS
 62
     3
100
AcDbLine
 10
157.118989
 20
110.068458
 30
0.0
 11
157.097761
 21
110.078121
 31
0.0
  0
LINE
  5
17A
330
14D
100
AcDbEntity
  8
0
  6
CONTINUOUS
 62
     3
100
AcDbLine
 10
157.097761
 20
110.078121
 30
0.0
 11
157.076578
 21
110.088027
 31
0.0
  0
LINE
  5
17B
330
14D
100
AcDbEntity
  8
0
  6
CONTINUOUS
 62
     3
100
AcDbLine
 10
157.076578
 20
110.088027
 30
0.0
 11
157.055437
 21
110.098156
 31
0.0
  0
LINE
  5
17C
330
14D
100
AcDbEntity
  8
0
  6
CONTINUOUS
 62
     3
100
AcDbLine
 10
157.055437
 20
110.098156
 30
0.0
 11
157.034333
 21
110.108489
 31
0.0
  0
LINE
  5
17D
330
14D
100
AcDbEntity
  8
0
  6
CONTINUOUS
 62
     3
100
AcDbLine
 10
157.034333
 20
110.108489
 30
0.0
 11
157.013263
 21
110.119004
 31
0.0
  0
LINE
  5
17E
330
14D
100
AcDbEntity
  8
0
  6
CONTINUOUS
 62
     3
100
AcDbLine
 10
157.013263
 20
110.119004
 30
0.0
 11
156.992223
 21
110.129681
 31
0.0
  0
LINE
  5
17F
330
14D
100
AcDbEntity
  8
0
  6
CONTINUOUS
 62
     3
100
AcDbLine
 10
156.992223
 20
110.129681
 30
0.0
 11
156.97121
 21
110.1405
 31
0.0
  0
LINE
  5
180
330
14D
100
AcDbEntity
  8
0
  6
CONTINUOUS
 62
     3
100
AcDbLine
 10
156.97121
 20
110.1405
 30
0.0
 11
156.950219
 21
110.151441
 31
0.0
  0
LINE
  5
181
330
14D
100
AcDbEntity
  8
0
  6
CONTINUOUS
 62
     3
100
AcDbLine
 10
156.950219
 20
110.151441
 30
0.0
 11
156.929246
 21
110.162484
 31
0.0
  0
LINE
  5
182
330
14D
100
AcDbEntity
  8
0
  6
CONTINUOUS
 62
     3
100
AcDbLine
 10
156.929246
 20
110.162484
 30
0.0
 11
156.908289
 21
110.173608
 31
0.0
  0
LINE
  5
183
330
14D
100
AcDbEntity
  8
0
  6
CONTINUOUS
 62
     3
100
AcDbLine
 10
156.908289
 20
110.173608
 30
0.0
 11
156.887343
 21
110.184792
 31
0.0
  0
LINE
  5
184
330
14D
100
AcDbEntity
  8
0
  6
CONTINUOUS
 62
     3
100
AcDbLine
 10
156.887343
 20
110.184792
 30
0.0
 11
156.84547
 21
110.207263
 31
0.0
  0
ENDBLK
  5
14F
330
14D
100
AcDbEntity
  8
0
100
AcDbBlockEnd
  0
BLOCK
  5
187
330
186
100
AcDbEntity
  8
0
100
AcDbBlockBegin
  2
BLKF017
 70
     0
 71
     0
 10
0.0
 20
0.0
 30
0.0
  3
BLKF017
  1

  0
LINE
  5
18A
330
186
100
AcDbEntity
  8
0
  6
CONTINUOUS
 62
     3
100
AcDbLine
 10
156.84547
 20
112.857263
 30
0.0
 11
156.865768
 21
112.870376
 31
0.0
  0
LINE
  5
18B
330
186
100
AcDbEntity
  8
0
  6
CONTINUOUS
 62
     3
100
AcDbLine
 10
156.865768
 20
112.870376
 30
0.0
 11
156.886125
 21
112.883391
 31
0.0
  0
LINE
  5
18C
330
186
100
AcDbEntity
  8
0
  6
CONTINUOUS
 62
     3
100
AcDbLine
 10
156.886125
 20
112.883391
 30
0.0
 11
156.9066
 21
112.896206
 31
0.0
  0
LINE
  5
18D
330
186
100
AcDbEntity
  8
0
  6
CONTINUOUS
 62
     3
100
AcDbLine
 10
156.9066
 20
112.896206
 30
0.0
 11
156.927251
 21
112.908724
 31
0.0
  0
LINE
  5
18E
330
186
100
AcDbEntity
  8
0
  6
CONTINUOUS
 62
     3
100
AcDbLine
 10
156.927251
 20
112.908724
 30
0.0
 11
156.948732
 21
112.921227
 31
0.0
  0
LINE
  5
18F
330
186
100
AcDbEntity
  8
0
  6
CONTINUOUS
 62
     3
100
AcDbLine
 10
156.948732
 20
112.921227
 30
0.0
 11
156.9704
 21
112.933415
 31
0.0
  0
LINE
  5
190
330
186
100
AcDbEntity
  8
0
  6
CONTINUOUS
 62
     3
100
AcDbLine
 10
156.9704
 20
112.933415
 30
0.0
 11
156.992192
 21
112.945392
 31
0.0
  0
LINE
  5
191
330
186
100
AcDbEntity
  8
0
  6
CONTINUOUS
 62
     3
100
AcDbLine
 10
156.992192
 20
112.945392
 30
0.0
 11
157.014047
 21
112.957265
 31
0.0
  0
ENDBLK
  5
188
330
186
100
AcDbEntity
  8
0
100
AcDbBlockEnd
  0
BLOCK
  5
1A1
330
1A0
100
AcDbEntity
  8
0
100
AcDbBlockBegin
  2
BLKF018
 70
     0
 71
     0
 10
0.0
 20
0.0
 30
0.0
  3
BLKF018
  1

  0
LINE
  5
1A4
330
1A0
100
AcDbEntity
  8
0
  6
CONTINUOUS
 62
     3
100
AcDbLine
 10
161.452514
 20
112.957265
 30
0.0
 11
161.411427
 21
112.957539
 31
0.0
  0
LINE
  5
1A5
330
1A0
100
AcDbEntity
  8
0
  6
CONTINUOUS
 62
     3
100
AcDbLine
 10
161.411427
 20
112.957539
 30
0.0
 11
161.390892
 21
112.957771
 31
0.0
  0
LINE
  5
1A6
330
1A0
100
AcDbEntity
  8
0
  6
CONTINUOUS
 62
     3
100
AcDbLine
 10
161.390892
 20
112.957771
 30
0.0
 11
161.370368
 21
112.958114
 31
0.0
  0
LINE
  5
1A7
330
1A0
100
AcDbEntity
  8
0
  6
CONTINUOUS
 62
     3
100
AcDbLine
 10
161.370368
 20
112.958114
 30
0.0
 11
161.349016
 21
112.958624
 31
0.0
  0
LINE
  5
1A8
330
1A0
100
AcDbEntity
  8
0
  6
CONTINUOUS
 62
     3
100
AcDbLine
 10
161.349016
 20
112.958624
 30
0.0
 11
161.32768
 21
112.959293
 31
0.0
  0
LINE
  5
1A9
330
1A0
100
AcDbEntity
  8
0
  6
CONTINUOUS
 62
     3
100
AcDbLine
 10
161.32768
 20
112.959293
 30
0.0
 11
161.306359
 21
112.96012
 31
0.0
  0
LINE
  5
1AA
330
1A0
100
AcDbEntity
  8
0
  6
CONTINUOUS
 62
     3
100
AcDbLine
 10
161.306359
 20
112.96012
 30
0.0
 11
161.285052
 21
112.961102
 31
0.0
  0
LINE
  5
1AB
330
1A0
100
AcDbEntity
  8
0
  6
CONTINUOUS
 62
     3
100
AcDbLine
 10
161.285052
 20
112.961102
 30
0.0
 11
161.263761
 21
112.962236
 31
0.0
  0
LINE
  5
1AC
330
1A0
100
AcDbEntity
  8
0
  6
CONTINUOUS
 62
     3
100
AcDbLine
 10
161.263761
 20
112.962236
 30
0.0
 11
161.242484
 21
112.963519
 31
0.0
  0
LINE
  5
1AD
330
1A0
100
AcDbEntity
  8
0
  6
CONTINUOUS
 62
     3
100
AcDbLine
 10
161.242484
 20
112.963519
 30
0.0
 11
161.221222
 21
112.96495
 31
0.0
  0
LINE
  5
1AE
330
1A0
100
AcDbEntity
  8
0
  6
CONTINUOUS
 62
     3
100
AcDbLine
 10
161.221222
 20
112.96495
 30
0.0
 11
161.199973
 21
112.966525
 31
0.0
  0
LINE
  5
1AF
330
1A0
100
AcDbEntity
  8
0
  6
CONTINUOUS
 62
     3
100
AcDbLine
 10
161.199973
 20
112.966525
 30
0.0
 11
161.178738
 21
112.968243
 31
0.0
  0
LINE
  5
1B0
330
1A0
100
AcDbEntity
  8
0
  6
CONTINUOUS
 62
     3
100
AcDbLine
 10
161.178738
 20
112.968243
 30
0.0
 11
161.157517
 21
112.9701
 31
0.0
  0
LINE
  5
1B1
330
1A0
100
AcDbEntity
  8
0
  6
CONTINUOUS
 62
     3
100
AcDbLine
 10
161.157517
 20
112.9701
 30
0.0
 11
161.136309
 21
112.972094
 31
0.0
  0
LINE
  5
1B2
330
1A0
100
AcDbEntity
  8
0
  6
CONTINUOUS
 62
     3
100
AcDbLine
 10
161.136309
 20
112.972094
 30
0.0
 11
161.115114
 21
112.974222
 31
0.0
  0
LINE
  5
1B3
330
1A0
100
AcDbEntity
  8
0
  6
CONTINUOUS
 62
     3
100
AcDbLine
 10
161.115114
 20
112.974222
 30
0.0
 11
161.093932
 21
112.976483
 31
0.0
  0
LINE
  5
1B4
330
1A0
100
AcDbEntity
  8
0
  6
CONTINUOUS
 62
     3
100
AcDbLine
 10
161.093932
 20
112.976483
 30
0.0
 11
161.072763
 21
112.978872
 31
0.0
  0
LINE
  5
1B5
330
1A0
100
AcDbEntity
  8
0
  6
CONTINUOUS
 62
     3
100
AcDbLine
 10
161.072763
 20
112.978872
 30
0.0
 11
161.051606
 21
112.981389
 31
0.0
  0
LINE
  5
1B6
330
1A0
100
AcDbEntity
  8
0
  6
CONTINUOUS
 62
     3
100
AcDbLine
 10
161.051606
 20
112.981389
 30
0.0
 11
161.03046
 21
112.98403
 31
0.0
  0
LINE
  5
1B7
330
1A0
100
AcDbEntity
  8
0
  6
CONTINUOUS
 62
     3
100
AcDbLine
 10
161.03046
 20
112.98403
 30
0.0
 11
161.009327
 21
112.986792
 31
0.0
  0
LINE
  5
1B8
330
1A0
100
AcDbEntity
  8
0
  6
CONTINUOUS
 62
     3
100
AcDbLine
 10
161.009327
 20
112.986792
 30
0.0
 11
160.988205
 21
112.989674
 31
0.0
  0
LINE
  5
1B9
330
1A0
100
AcDbEntity
  8
0
  6
CONTINUOUS
 62
     3
100
AcDbLine
 10
160.988205
 20
112.989674
 30
0.0
 11
160.967095
 21
112.992673
 31
0.0
  0
LINE
  5
1BA
330
1A0
100
AcDbEntity
  8
0
  6
CONTINUOUS
 62
     3
100
AcDbLine
 10
160.967095
 20
112.992673
 30
0.0
 11
160.945996
 21
112.995786
 31
0.0
  0
LINE
  5
1BB
330
1A0
100
AcDbEntity
  8
0
  6
CONTINUOUS
 62
     3
100
AcDbLine
 10
160.945996
 20
112.995786
 30
0.0
 11
160.924907
 21
112.99901
 31
0.0
  0
LINE
  5
1BC
330
1A0
100
AcDbEntity
  8
0
  6
CONTINUOUS
 62
     3
100
AcDbLine
 10
160.924907
 20
112.99901
 30
0.0
 11
160.903829
 21
113.002344
 31
0.0
  0
LINE
  5
1BD
330
1A0
100
AcDbEntity
  8
0
  6
CONTINUOUS
 62
     3
100
AcDbLine
 10
160.903829
 20
113.002344
 30
0.0
 11
160.882761
 21
113.005784
 31
0.0
  0
LINE
  5
1BE
330
1A0
100
AcDbEntity
  8
0
  6
CONTINUOUS
 62
     3
100
AcDbLine
 10
160.882761
 20
113.005784
 30
0.0
 11
160.861704
 21
113.009328
 31
0.0
  0
LINE
  5
1BF
330
1A0
100
AcDbEntity
  8
0
  6
CONTINUOUS
 62
     3
100
AcDbLine
 10
160.861704
 20
113.009328
 30
0.0
 11
160.840656
 21
113.012973
 31
0.0
  0
LINE
  5
1C0
330
1A0
100
AcDbEntity
  8
0
  6
CONTINUOUS
 62
     3
100
AcDbLine
 10
160.840656
 20
113.012973
 30
0.0
 11
160.819618
 21
113.016718
 31
0.0
  0
LINE
  5
1C1
330
1A0
100
AcDbEntity
  8
0
  6
CONTINUOUS
 62
     3
100
AcDbLine
 10
160.819618
 20
113.016718
 30
0.0
 11
160.798589
 21
113.020559
 31
0.0
  0
LINE
  5
1C2
330
1A0
100
AcDbEntity
  8
0
  6
CONTINUOUS
 62
     3
100
AcDbLine
 10
160.798589
 20
113.020559
 30
0.0
 11
160.77757
 21
113.024494
 31
0.0
  0
LINE
  5
1C3
330
1A0
100
AcDbEntity
  8
0
  6
CONTINUOUS
 62
     3
100
AcDbLine
 10
160.77757
 20
113.024494
 30
0.0
 11
160.756559
 21
113.02852
 31
0.0
  0
LINE
  5
1C4
330
1A0
100
AcDbEntity
  8
0
  6
CONTINUOUS
 62
     3
100
AcDbLine
 10
160.756559
 20
113.02852
 30
0.0
 11
160.735557
 21
113.032635
 31
0.0
  0
LINE
  5
1C5
330
1A0
100
AcDbEntity
  8
0
  6
CONTINUOUS
 62
     3
100
AcDbLine
 10
160.735557
 20
113.032635
 30
0.0
 11
160.714563
 21
113.036836
 31
0.0
  0
LINE
  5
1C6
330
1A0
100
AcDbEntity
  8
0
  6
CONTINUOUS
 62
     3
100
AcDbLine
 10
160.714563
 20
113.036836
 30
0.0
 11
160.693578
 21
113.041121
 31
0.0
  0
LINE
  5
1C7
330
1A0
100
AcDbEntity
  8
0
  6
CONTINUOUS
 62
     3
100
AcDbLine
 10
160.693578
 20
113.041121
 30
0.0
 11
160.6726
 21
113.045487
 31
0.0
  0
LINE
  5
1C8
330
1A0
100
AcDbEntity
  8
0
  6
CONTINUOUS
 62
     3
100
AcDbLine
 10
160.6726
 20
113.045487
 30
0.0
 11
160.65163
 21
113.049932
 31
0.0
  0
LINE
  5
1C9
330
1A0
100
AcDbEntity
  8
0
  6
CONTINUOUS
 62
     3
100
AcDbLine
 10
160.65163
 20
113.049932
 30
0.0
 11
160.609711
 21
113.059047
 31
0.0
  0
LINE
  5
1CA
330
1A0
100
AcDbEntity
  8
0
  6
CONTINUOUS
 62
     3
100
AcDbLine
 10
160.609711
 20
113.059047
 30
0.0
 11
160.56782
 21
113.068446
 31
0.0
  0
LINE
  5
1CB
330
1A0
100
AcDbEntity
  8
0
  6
CONTINUOUS
 62
     3
100
AcDbLine
 10
160.56782
 20
113.068446
 30
0.0
 11
160.525955
 21
113.078109
 31
0.0
  0
LINE
  5
1CC
330
1A0
100
AcDbEntity
  8
0
  6
CONTINUOUS
 62
     3
100
AcDbLine
 10
160.525955
 20
113.078109
 30
0.0
 11
160.484114
 21
113.088016
 31
0.0
  0
LINE
  5
1CD
330
1A0
100
AcDbEntity
  8
0
  6
CONTINUOUS
 62
     3
100
AcDbLine
 10
160.484114
 20
113.088016
 30
0.0
 11
160.442294
 21
113.098146
 31
0.0
  0
LINE
  5
1CE
330
1A0
100
AcDbEntity
  8
0
  6
CONTINUOUS
 62
     3
100
AcDbLine
 10
160.442294
 20
113.098146
 30
0.0
 11
160.400494
 21
113.108479
 31
0.0
  0
LINE
  5
1CF
330
1A0
100
AcDbEntity
  8
0
  6
CONTINUOUS
 62
     3
100
AcDbLine
 10
160.400494
 20
113.108479
 30
0.0
 11
160.358711
 21
113.118995
 31
0.0
  0
LINE
  5
1D0
330
1A0
100
AcDbEntity
  8
0
  6
CONTINUOUS
 62
     3
100
AcDbLine
 10
160.358711
 20
113.118995
 30
0.0
 11
160.316944
 21
113.129673
 31
0.0
  0
LINE
  5
1D1
330
1A0
100
AcDbEntity
  8
0
  6
CONTINUOUS
 62
     3
100
AcDbLine
 10
160.316944
 20
113.129673
 30
0.0
 11
160.275191
 21
113.140493
 31
0.0
  0
LINE
  5
1D2
330
1A0
100
AcDbEntity
  8
0
  6
CONTINUOUS
 62
     3
100
AcDbLine
 10
160.275191
 20
113.140493
 30
0.0
 11
160.23345
 21
113.151435
 31
0.0
  0
LINE
  5
1D3
330
1A0
100
AcDbEntity
  8
0
  6
CONTINUOUS
 62
     3
100
AcDbLine
 10
160.23345
 20
113.151435
 30
0.0
 11
160.191719
 21
113.162479
 31
0.0
  0
LINE
  5
1D4
330
1A0
100
AcDbEntity
  8
0
  6
CONTINUOUS
 62
     3
100
AcDbLine
 10
160.191719
 20
113.162479
 30
0.0
 11
160.149995
 21
113.173603
 31
0.0
  0
LINE
  5
1D5
330
1A0
100
AcDbEntity
  8
0
  6
CONTINUOUS
 62
     3
100
AcDbLine
 10
160.149995
 20
113.173603
 30
0.0
 11
160.108278
 21
113.184789
 31
0.0
  0
LINE
  5
1D6
330
1A0
100
AcDbEntity
  8
0
  6
CONTINUOUS
 62
     3
100
AcDbLine
 10
160.108278
 20
113.184789
 30
0.0
 11
160.024853
 21
113.207261
 31
0.0
  0
ENDBLK
  5
1A2
330
1A0
100
AcDbEntity
  8
0
100
AcDbBlockEnd
  0
BLOCK
  5
1D9
330
1D8
100
AcDbEntity
  8
0
100
AcDbBlockBegin
  2
BLKF019
 70
     0
 71
     0
 10
0.0
 20
0.0
 30
0.0
  3
BLKF019
  1

  0
LINE
  5
1DC
330
1D8
100
AcDbEntity
  8
0
  6
CONTINUOUS
 62
     3
100
AcDbLine
 10
160.024853
 20
116.807263
 30
0.0
 11
160.064605
 21
116.820429
 31
0.0
  0
LINE
  5
1DD
330
1D8
100
AcDbEntity
  8
0
  6
CONTINUOUS
 62
     3
100
AcDbLine
 10
160.064605
 20
116.820429
 30
0.0
 11
160.104394
 21
116.833475
 31
0.0
  0
LINE
  5
1DE
330
1D8
100
AcDbEntity
  8
0
  6
CONTINUOUS
 62
     3
100
AcDbLine
 10
160.104394
 20
116.833475
 30
0.0
 11
160.144256
 21
116.84628
 31
0.0
  0
LINE
  5
1DF
330
1D8
100
AcDbEntity
  8
0
  6
CONTINUOUS
 62
     3
100
AcDbLine
 10
160.144256
 20
116.84628
 30
0.0
 11
160.184228
 21
116.858724
 31
0.0
  0
LINE
  5
1E0
330
1D8
100
AcDbEntity
  8
0
  6
CONTINUOUS
 62
     3
100
AcDbLine
 10
160.184228
 20
116.858724
 30
0.0
 11
160.226373
 21
116.871324
 31
0.0
  0
LINE
  5
1E1
330
1D8
100
AcDbEntity
  8
0
  6
CONTINUOUS
 62
     3
100
AcDbLine
 10
160.226373
 20
116.871324
 30
0.0
 11
160.26864
 21
116.883525
 31
0.0
  0
LINE
  5
1E2
330
1D8
100
AcDbEntity
  8
0
  6
CONTINUOUS
 62
     3
100
AcDbLine
 10
160.26864
 20
116.883525
 30
0.0
 11
160.310987
 21
116.895461
 31
0.0
  0
LINE
  5
1E3
330
1D8
100
AcDbEntity
  8
0
  6
CONTINUOUS
 62
     3
100
AcDbLine
 10
160.310987
 20
116.895461
 30
0.0
 11
160.353375
 21
116.907264
 31
0.0
  0
ENDBLK
  5
1DA
330
1D8
100
AcDbEntity
  8
0
100
AcDbBlockEnd
  0
BLOCK
  5
1E8
330
1E7
100
AcDbEntity
  8
0
100
AcDbBlockBegin
  2
BLKF020
 70
     0
 71
     0
 10
0.0
 20
0.0
 30
0.0
  3
BLKF020
  1

  0
LINE
  5
1EB
330
1E7
100
AcDbEntity
  8
0
  6
CONTINUOUS
 62
     3
100
AcDbLine
 10
164.67916
 20
112.957265
 30
0.0
 11
164.62216
 21
112.969241
 31
0.0
  0
LINE
  5
1EC
330
1E7
100
AcDbEntity
  8
0
  6
CONTINUOUS
 62
     3
100
AcDbLine
 10
164.62216
 20
112.969241
 30
0.0
 11
164.593748
 21
112.975399
 31
0.0
  0
LINE
  5
1ED
330
1E7
100
AcDbEntity
  8
0
  6
CONTINUOUS
 62
     3
100
AcDbLine
 10
164.593748
 20
112.975399
 30
0.0
 11
164.565441
 21
112.98176
 31
0.0
  0
LINE
  5
1EE
330
1E7
100
AcDbEntity
  8
0
  6
CONTINUOUS
 62
     3
100
AcDbLine
 10
164.565441
 20
112.98176
 30
0.0
 11
164.537274
 21
112.988392
 31
0.0
  0
LINE
  5
1EF
330
1E7
100
AcDbEntity
  8
0
  6
CONTINUOUS
 62
     3
100
AcDbLine
 10
164.537274
 20
112.988392
 30
0.0
 11
164.509283
 21
112.995363
 31
0.0
  0
LINE
  5
1F0
330
1E7
100
AcDbEntity
  8
0
  6
CONTINUOUS
 62
     3
100
AcDbLine
 10
164.509283
 20
112.995363
 30
0.0
 11
164.481502
 21
113.002741
 31
0.0
  0
LINE
  5
1F1
330
1E7
100
AcDbEntity
  8
0
  6
CONTINUOUS
 62
     3
100
AcDbLine
 10
164.481502
 20
113.002741
 30
0.0
 11
164.453966
 21
113.010594
 31
0.0
  0
LINE
  5
1F2
330
1E7
100
AcDbEntity
  8
0
  6
CONTINUOUS
 62
     3
100
AcDbLine
 10
164.453966
 20
113.010594
 30
0.0
 11
164.42671
 21
113.018989
 31
0.0
  0
LINE
  5
1F3
330
1E7
100
AcDbEntity
  8
0
  6
CONTINUOUS
 62
     3
100
AcDbLine
 10
164.42671
 20
113.018989
 30
0.0
 11
164.39977
 21
113.027995
 31
0.0
  0
LINE
  5
1F4
330
1E7
100
AcDbEntity
  8
0
  6
CONTINUOUS
 62
     3
100
AcDbLine
 10
164.39977
 20
113.027995
 30
0.0
 11
164.373181
 21
113.037678
 31
0.0
  0
LINE
  5
1F5
330
1E7
100
AcDbEntity
  8
0
  6
CONTINUOUS
 62
     3
100
AcDbLine
 10
164.373181
 20
113.037678
 30
0.0
 11
164.346976
 21
113.048107
 31
0.0
  0
LINE
  5
1F6
330
1E7
100
AcDbEntity
  8
0
  6
CONTINUOUS
 62
     3
100
AcDbLine
 10
164.346976
 20
113.048107
 30
0.0
 11
164.321193
 21
113.05935
 31
0.0
  0
LINE
  5
1F7
330
1E7
100
AcDbEntity
  8
0
  6
CONTINUOUS
 62
     3
100
AcDbLine
 10
164.321193
 20
113.05935
 30
0.0
 11
164.295865
 21
113.071475
 31
0.0
  0
LINE
  5
1F8
330
1E7
100
AcDbEntity
  8
0
  6
CONTINUOUS
 62
     3
100
AcDbLine
 10
164.295865
 20
113.071475
 30
0.0
 11
164.283383
 21
113.077889
 31
0.0
  0
LINE
  5
1F9
330
1E7
100
AcDbEntity
  8
0
  6
CONTINUOUS
 62
     3
100
AcDbLine
 10
164.283383
 20
113.077889
 30
0.0
 11
164.271028
 21
113.084549
 31
0.0
  0
LINE
  5
1FA
330
1E7
100
AcDbEntity
  8
0
  6
CONTINUOUS
 62
     3
100
AcDbLine
 10
164.271028
 20
113.084549
 30
0.0
 11
164.258805
 21
113.091463
 31
0.0
  0
LINE
  5
1FB
330
1E7
100
AcDbEntity
  8
0
  6
CONTINUOUS
 62
     3
100
AcDbLine
 10
164.258805
 20
113.091463
 30
0.0
 11
164.246717
 21
113.098639
 31
0.0
  0
LINE
  5
1FC
330
1E7
100
AcDbEntity
  8
0
  6
CONTINUOUS
 62
     3
100
AcDbLine
 10
164.246717
 20
113.098639
 30
0.0
 11
164.227624
 21
113.110693
 31
0.0
  0
LINE
  5
1FD
330
1E7
100
AcDbEntity
  8
0
  6
CONTINUOUS
 62
     3
100
AcDbLine
 10
164.227624
 20
113.110693
 30
0.0
 11
164.208847
 21
113.123356
 31
0.0
  0
LINE
  5
1FE
330
1E7
100
AcDbEntity
  8
0
  6
CONTINUOUS
 62
     3
100
AcDbLine
 10
164.208847
 20
113.123356
 30
0.0
 11
164.190339
 21
113.136541
 31
0.0
  0
LINE
  5
1FF
330
1E7
100
AcDbEntity
  8
0
  6
CONTINUOUS
 62
     3
100
AcDbLine
 10
164.190339
 20
113.136541
 30
0.0
 11
164.172057
 21
113.150163
 31
0.0
  0
LINE
  5
200
330
1E7
100
AcDbEntity
  8
0
  6
CONTINUOUS
 62
     3
100
AcDbLine
 10
164.172057
 20
113.150163
 30
0.0
 11
164.153955
 21
113.164132
 31
0.0
  0
LINE
  5
201
330
1E7
100
AcDbEntity
  8
0
  6
CONTINUOUS
 62
     3
100
AcDbLine
 10
164.153955
 20
113.164132
 30
0.0
 11
164.135988
 21
113.178364
 31
0.0
  0
LINE
  5
202
330
1E7
100
AcDbEntity
  8
0
  6
CONTINUOUS
 62
     3
100
AcDbLine
 10
164.135988
 20
113.178364
 30
0.0
 11
164.100279
 21
113.207261
 31
0.0
  0
ENDBLK
  5
1E9
330
1E7
100
AcDbEntity
  8
0
100
AcDbBlockEnd
  0
BLOCK
  5
208
330
207
100
AcDbEntity
  8
0
100
AcDbBlockBegin
  2
BLKF021
 70
     0
 71
     0
 10
0.0
 20
0.0
 30
0.0
  3
BLKF021
  1

  0
LINE
  5
20B
330
207
100
AcDbEntity
  8
0
  6
CONTINUOUS
 62
     3
100
AcDbLine
 10
164.100279
 20
116.807263
 30
0.0
 11
164.124443
 21
116.826765
 31
0.0
  0
LINE
  5
20C
330
207
100
AcDbEntity
  8
0
  6
CONTINUOUS
 62
     3
100
AcDbLine
 10
164.124443
 20
116.826765
 30
0.0
 11
164.13657
 21
116.836452
 31
0.0
  0
LINE
  5
20D
330
207
100
AcDbEntity
  8
0
  6
CONTINUOUS
 62
     3
100
AcDbLine
 10
164.13657
 20
116.836452
 30
0.0
 11
164.148754
 21
116.846063
 31
0.0
  0
LINE
  5
20E
330
207
100
AcDbEntity
  8
0
  6
CONTINUOUS
 62
     3
100
AcDbLine
 10
164.148754
 20
116.846063
 30
0.0
 11
164.161012
 21
116.855573
 31
0.0
  0
LINE
  5
20F
330
207
100
AcDbEntity
  8
0
  6
CONTINUOUS
 62
     3
100
AcDbLine
 10
164.161012
 20
116.855573
 30
0.0
 11
164.173362
 21
116.864955
 31
0.0
  0
LINE
  5
210
330
207
100
AcDbEntity
  8
0
  6
CONTINUOUS
 62
     3
100
AcDbLine
 10
164.173362
 20
116.864955
 30
0.0
 11
164.185823
 21
116.874185
 31
0.0
  0
LINE
  5
211
330
207
100
AcDbEntity
  8
0
  6
CONTINUOUS
 62
     3
100
AcDbLine
 10
164.185823
 20
116.874185
 30
0.0
 11
164.198415
 21
116.883236
 31
0.0
  0
LINE
  5
212
330
207
100
AcDbEntity
  8
0
  6
CONTINUOUS
 62
     3
100
AcDbLine
 10
164.198415
 20
116.883236
 30
0.0
 11
164.207121
 21
116.889327
 31
0.0
  0
LINE
  5
213
330
207
100
AcDbEntity
  8
0
  6
CONTINUOUS
 62
     3
100
AcDbLine
 10
164.207121
 20
116.889327
 30
0.0
 11
164.21588
 21
116.895346
 31
0.0
  0
LINE
  5
214
330
207
100
AcDbEntity
  8
0
  6
CONTINUOUS
 62
     3
100
AcDbLine
 10
164.21588
 20
116.895346
 30
0.0
 11
164.233485
 21
116.907264
 31
0.0
  0
ENDBLK
  5
209
330
207
100
AcDbEntity
  8
0
100
AcDbBlockEnd
  0
BLOCK
  5
219
330
218
100
AcDbEntity
  8
0
100
AcDbBlockBegin
  2
BLKF022
 70
     0
 71
     0
 10
0.0
 20
0.0
 30
0.0
  3
BLKF022
  1

  0
LINE
  5
21C
330
218
100
AcDbEntity
  8
0
  6
CONTINUOUS
 62
     3
100
AcDbLine
 10
157.791862
 20
112.957265
 30
0.0
 11
157.767418
 21
112.957548
 31
0.0
  0
LINE
  5
21D
330
218
100
AcDbEntity
  8
0
  6
CONTINUOUS
 62
     3
100
AcDbLine
 10
157.767418
 20
112.957548
 30
0.0
 11
157.75521
 21
112.957778
 31
0.0
  0
LINE
  5
21E
330
218
100
AcDbEntity
  8
0
  6
CONTINUOUS
 62
     3
100
AcDbLine
 10
157.75521
 20
112.957778
 30
0.0
 11
157.743019
 21
112.958114
 31
0.0
  0
LINE
  5
21F
330
218
100
AcDbEntity
  8
0
  6
CONTINUOUS
 62
     3
100
AcDbLine
 10
157.743019
 20
112.958114
 30
0.0
 11
157.729976
 21
112.958624
 31
0.0
  0
LINE
  5
220
330
218
100
AcDbEntity
  8
0
  6
CONTINUOUS
 62
     3
100
AcDbLine
 10
157.729976
 20
112.958624
 30
0.0
 11
157.716958
 21
112.959294
 31
0.0
  0
LINE
  5
221
330
218
100
AcDbEntity
  8
0
  6
CONTINUOUS
 62
     3
100
AcDbLine
 10
157.716958
 20
112.959294
 30
0.0
 11
157.703965
 21
112.960122
 31
0.0
  0
LINE
  5
222
330
218
100
AcDbEntity
  8
0
  6
CONTINUOUS
 62
     3
100
AcDbLine
 10
157.703965
 20
112.960122
 30
0.0
 11
157.690997
 21
112.961104
 31
0.0
  0
LINE
  5
223
330
218
100
AcDbEntity
  8
0
  6
CONTINUOUS
 62
     3
100
AcDbLine
 10
157.690997
 20
112.961104
 30
0.0
 11
157.678054
 21
112.962238
 31
0.0
  0
LINE
  5
224
330
218
100
AcDbEntity
  8
0
  6
CONTINUOUS
 62
     3
100
AcDbLine
 10
157.678054
 20
112.962238
 30
0.0
 11
157.665135
 21
112.963522
 31
0.0
  0
LINE
  5
225
330
218
100
AcDbEntity
  8
0
  6
CONTINUOUS
 62
     3
100
AcDbLine
 10
157.665135
 20
112.963522
 30
0.0
 11
157.652239
 21
112.964953
 31
0.0
  0
LINE
  5
226
330
218
100
AcDbEntity
  8
0
  6
CONTINUOUS
 62
     3
100
AcDbLine
 10
157.652239
 20
112.964953
 30
0.0
 11
157.639367
 21
112.966529
 31
0.0
  0
LINE
  5
227
330
218
100
AcDbEntity
  8
0
  6
CONTINUOUS
 62
     3
100
AcDbLine
 10
157.639367
 20
112.966529
 30
0.0
 11
157.626518
 21
112.968247
 31
0.0
  0
LINE
  5
228
330
218
100
AcDbEntity
  8
0
  6
CONTINUOUS
 62
     3
100
AcDbLine
 10
157.626518
 20
112.968247
 30
0.0
 11
157.613691
 21
112.970104
 31
0.0
  0
LINE
  5
229
330
218
100
AcDbEntity
  8
0
  6
CONTINUOUS
 62
     3
100
AcDbLine
 10
157.613691
 20
112.970104
 30
0.0
 11
157.600886
 21
112.972098
 31
0.0
  0
LINE
  5
22A
330
218
100
AcDbEntity
  8
0
  6
CONTINUOUS
 62
     3
100
AcDbLine
 10
157.600886
 20
112.972098
 30
0.0
 11
157.588103
 21
112.974227
 31
0.0
  0
LINE
  5
22B
330
218
100
AcDbEntity
  8
0
  6
CONTINUOUS
 62
     3
100
AcDbLine
 10
157.588103
 20
112.974227
 30
0.0
 11
157.575341
 21
112.976487
 31
0.0
  0
LINE
  5
22C
330
218
100
AcDbEntity
  8
0
  6
CONTINUOUS
 62
     3
100
AcDbLine
 10
157.575341
 20
112.976487
 30
0.0
 11
157.5626
 21
112.978877
 31
0.0
  0
LINE
  5
22D
330
218
100
AcDbEntity
  8
0
  6
CONTINUOUS
 62
     3
100
AcDbLine
 10
157.5626
 20
112.978877
 30
0.0
 11
157.549879
 21
112.981394
 31
0.0
  0
LINE
  5
22E
330
218
100
AcDbEntity
  8
0
  6
CONTINUOUS
 62
     3
100
AcDbLine
 10
157.549879
 20
112.981394
 30
0.0
 11
157.537179
 21
112.984035
 31
0.0
  0
LINE
  5
22F
330
218
100
AcDbEntity
  8
0
  6
CONTINUOUS
 62
     3
100
AcDbLine
 10
157.537179
 20
112.984035
 30
0.0
 11
157.524497
 21
112.986798
 31
0.0
  0
LINE
  5
230
330
218
100
AcDbEntity
  8
0
  6
CONTINUOUS
 62
     3
100
AcDbLine
 10
157.524497
 20
112.986798
 30
0.0
 11
157.511836
 21
112.98968
 31
0.0
  0
LINE
  5
231
330
218
100
AcDbEntity
  8
0
  6
CONTINUOUS
 62
     3
100
AcDbLine
 10
157.511836
 20
112.98968
 30
0.0
 11
157.499193
 21
112.992679
 31
0.0
  0
LINE
  5
232
330
218
100
AcDbEntity
  8
0
  6
CONTINUOUS
 62
     3
100
AcDbLine
 10
157.499193
 20
112.992679
 30
0.0
 11
157.486568
 21
112.995792
 31
0.0
  0
LINE
  5
233
330
218
100
AcDbEntity
  8
0
  6
CONTINUOUS
 62
     3
100
AcDbLine
 10
157.486568
 20
112.995792
 30
0.0
 11
157.473961
 21
112.999016
 31
0.0
  0
LINE
  5
234
330
218
100
AcDbEntity
  8
0
  6
CONTINUOUS
 62
     3
100
AcDbLine
 10
157.473961
 20
112.999016
 30
0.0
 11
157.461372
 21
113.00235
 31
0.0
  0
LINE
  5
235
330
218
100
AcDbEntity
  8
0
  6
CONTINUOUS
 62
     3
100
AcDbLine
 10
157.461372
 20
113.00235
 30
0.0
 11
157.4488
 21
113.00579
 31
0.0
  0
LINE
  5
236
330
218
100
AcDbEntity
  8
0
  6
CONTINUOUS
 62
     3
100
AcDbLine
 10
157.4488
 20
113.00579
 30
0.0
 11
157.436245
 21
113.009334
 31
0.0
  0
LINE
  5
237
330
218
100
AcDbEntity
  8
0
  6
CONTINUOUS
 62
     3
100
AcDbLine
 10
157.436245
 20
113.009334
 30
0.0
 11
157.423706
 21
113.01298
 31
0.0
  0
LINE
  5
238
330
218
100
AcDbEntity
  8
0
  6
CONTINUOUS
 62
     3
100
AcDbLine
 10
157.423706
 20
113.01298
 30
0.0
 11
157.411183
 21
113.016724
 31
0.0
  0
LINE
  5
239
330
218
100
AcDbEntity
  8
0
  6
CONTINUOUS
 62
     3
100
AcDbLine
 10
157.411183
 20
113.016724
 30
0.0
 11
157.398676
 21
113.020565
 31
0.0
  0
LINE
  5
23A
330
218
100
AcDbEntity
  8
0
  6
CONTINUOUS
 62
     3
100
AcDbLine
 10
157.398676
 20
113.020565
 30
0.0
 11
157.386183
 21
113.0245
 31
0.0
  0
LINE
  5
23B
330
218
100
AcDbEntity
  8
0
  6
CONTINUOUS
 62
     3
100
AcDbLine
 10
157.386183
 20
113.0245
 30
0.0
 11
157.373706
 21
113.028526
 31
0.0
  0
LINE
  5
23C
330
218
100
AcDbEntity
  8
0
  6
CONTINUOUS
 62
     3
100
AcDbLine
 10
157.373706
 20
113.028526
 30
0.0
 11
157.361243
 21
113.032641
 31
0.0
  0
LINE
  5
23D
330
218
100
AcDbEntity
  8
0
  6
CONTINUOUS
 62
     3
100
AcDbLine
 10
157.361243
 20
113.032641
 30
0.0
 11
157.348793
 21
113.036842
 31
0.0
  0
LINE
  5
23E
330
218
100
AcDbEntity
  8
0
  6
CONTINUOUS
 62
     3
100
AcDbLine
 10
157.348793
 20
113.036842
 30
0.0
 11
157.336357
 21
113.041127
 31
0.0
  0
LINE
  5
23F
330
218
100
AcDbEntity
  8
0
  6
CONTINUOUS
 62
     3
100
AcDbLine
 10
157.336357
 20
113.041127
 30
0.0
 11
157.323934
 21
113.045493
 31
0.0
  0
LINE
  5
240
330
218
100
AcDbEntity
  8
0
  6
CONTINUOUS
 62
     3
100
AcDbLine
 10
157.323934
 20
113.045493
 30
0.0
 11
157.311524
 21
113.049938
 31
0.0
  0
LINE
  5
241
330
218
100
AcDbEntity
  8
0
  6
CONTINUOUS
 62
     3
100
AcDbLine
 10
157.311524
 20
113.049938
 30
0.0
 11
157.28674
 21
113.059053
 31
0.0
  0
LINE
  5
242
330
218
100
AcDbEntity
  8
0
  6
CONTINUOUS
 62
     3
100
AcDbLine
 10
157.28674
 20
113.059053
 30
0.0
 11
157.262002
 21
113.068452
 31
0.0
  0
LINE
  5
243
330
218
100
AcDbEntity
  8
0
  6
CONTINUOUS
 62
     3
100
AcDbLine
 10
157.262002
 20
113.068452
 30
0.0
 11
157.237306
 21
113.078115
 31
0.0
  0
LINE
  5
244
330
218
100
AcDbEntity
  8
0
  6
CONTINUOUS
 62
     3
100
AcDbLine
 10
157.237306
 20
113.078115
 30
0.0
 11
157.212649
 21
113.088021
 31
0.0
  0
LINE
  5
245
330
218
100
AcDbEntity
  8
0
  6
CONTINUOUS
 62
     3
100
AcDbLine
 10
157.212649
 20
113.088021
 30
0.0
 11
157.188029
 21
113.098151
 31
0.0
  0
LINE
  5
246
330
218
100
AcDbEntity
  8
0
  6
CONTINUOUS
 62
     3
100
AcDbLine
 10
157.188029
 20
113.098151
 30
0.0
 11
157.163441
 21
113.108484
 31
0.0
  0
LINE
  5
247
330
218
100
AcDbEntity
  8
0
  6
CONTINUOUS
 62
     3
100
AcDbLine
 10
157.163441
 20
113.108484
 30
0.0
 11
157.138882
 21
113.118999
 31
0.0
  0
LINE
  5
248
330
218
100
AcDbEntity
  8
0
  6
CONTINUOUS
 62
     3
100
AcDbLine
 10
157.138882
 20
113.118999
 30
0.0
 11
157.11435
 21
113.129677
 31
0.0
  0
LINE
  5
249
330
218
100
AcDbEntity
  8
0
  6
CONTINUOUS
 62
     3
100
AcDbLine
 10
157.11435
 20
113.129677
 30
0.0
 11
157.08984
 21
113.140497
 31
0.0
  0
LINE
  5
24A
330
218
100
AcDbEntity
  8
0
  6
CONTINUOUS
 62
     3
100
AcDbLine
 10
157.08984
 20
113.140497
 30
0.0
 11
157.06535
 21
113.151438
 31
0.0
  0
LINE
  5
24B
330
218
100
AcDbEntity
  8
0
  6
CONTINUOUS
 62
     3
100
AcDbLine
 10
157.06535
 20
113.151438
 30
0.0
 11
157.040877
 21
113.162481
 31
0.0
  0
LINE
  5
24C
330
218
100
AcDbEntity
  8
0
  6
CONTINUOUS
 62
     3
100
AcDbLine
 10
157.040877
 20
113.162481
 30
0.0
 11
157.016416
 21
113.173605
 31
0.0
  0
LINE
  5
24D
330
218
100
AcDbEntity
  8
0
  6
CONTINUOUS
 62
     3
100
AcDbLine
 10
157.016416
 20
113.173605
 30
0.0
 11
156.991965
 21
113.18479
 31
0.0
  0
LINE
  5
24E
330
218
100
AcDbEntity
  8
0
  6
CONTINUOUS
 62
     3
100
AcDbLine
 10
156.991965
 20
113.18479
 30
0.0
 11
156.94308
 21
113.207261
 31
0.0
  0
ENDBLK
  5
21A
330
218
100
AcDbEntity
  8
0
100
AcDbBlockEnd
  0
BLOCK
  5
251
330
250
100
AcDbEntity
  8
0
100
AcDbBlockBegin
  2
BLKF023
 70
     0
 71
     0
 10
0.0
 20
0.0
 30
0.0
  3
BLKF023
  1

  0
LINE
  5
254
330
250
100
AcDbEntity
  8
0
  6
CONTINUOUS
 62
     3
100
AcDbLine
 10
156.94308
 20
116.807263
 30
0.0
 11
156.966633
 21
116.820392
 31
0.0
  0
LINE
  5
255
330
250
100
AcDbEntity
  8
0
  6
CONTINUOUS
 62
     3
100
AcDbLine
 10
156.966633
 20
116.820392
 30
0.0
 11
156.99024
 21
116.833416
 31
0.0
  0
LINE
  5
256
330
250
100
AcDbEntity
  8
0
  6
CONTINUOUS
 62
     3
100
AcDbLine
 10
156.99024
 20
116.833416
 30
0.0
 11
157.013955
 21
116.846229
 31
0.0
  0
LINE
  5
257
330
250
100
AcDbEntity
  8
0
  6
CONTINUOUS
 62
     3
100
AcDbLine
 10
157.013955
 20
116.846229
 30
0.0
 11
157.037833
 21
116.858724
 31
0.0
  0
LINE
  5
258
330
250
100
AcDbEntity
  8
0
  6
CONTINUOUS
 62
     3
100
AcDbLine
 10
157.037833
 20
116.858724
 30
0.0
 11
157.062771
 21
116.871256
 31
0.0
  0
LINE
  5
259
330
250
100
AcDbEntity
  8
0
  6
CONTINUOUS
 62
     3
100
AcDbLine
 10
157.062771
 20
116.871256
 30
0.0
 11
157.087883
 21
116.883448
 31
0.0
  0
LINE
  5
25A
330
250
100
AcDbEntity
  8
0
  6
CONTINUOUS
 62
     3
100
AcDbLine
 10
157.087883
 20
116.883448
 30
0.0
 11
157.113111
 21
116.895413
 31
0.0
  0
LINE
  5
25B
330
250
100
AcDbEntity
  8
0
  6
CONTINUOUS
 62
     3
100
AcDbLine
 10
157.113111
 20
116.895413
 30
0.0
 11
157.138397
 21
116.907264
 31
0.0
  0
ENDBLK
  5
252
330
250
100
AcDbEntity
  8
0
100
AcDbBlockEnd
  0
BLOCK
  5
25D
330
25C
100
AcDbEntity
  8
0
100
AcDbBlockBegin
  2
BLKF024
 70
     0
 71
     0
 10
0.0
 20
0.0
 30
0.0
  3
BLKF024
  1

  0
LINE
  5
260
330
25C
100
AcDbEntity
  8
0
  6
CONTINUOUS
 62
     3
100
AcDbLine
 10
165.258044
 20
113.207261
 30
0.0
 11
165.227058
 21
113.185533
 31
0.0
  0
LINE
  5
261
330
25C
100
AcDbEntity
  8
0
  6
CONTINUOUS
 62
     3
100
AcDbLine
 10
165.227058
 20
113.185533
 30
0.0
 11
165.196035
 21
113.163951
 31
0.0
  0
LINE
  5
262
330
25C
100
AcDbEntity
  8
0
  6
CONTINUOUS
 62
     3
100
AcDbLine
 10
165.196035
 20
113.163951
 30
0.0
 11
165.180499
 21
113.153262
 31
0.0
  0
LINE
  5
263
330
25C
100
AcDbEntity
  8
0
  6
CONTINUOUS
 62
     3
100
AcDbLine
 10
165.180499
 20
113.153262
 30
0.0
 11
165.164939
 21
113.142665
 31
0.0
  0
LINE
  5
264
330
25C
100
AcDbEntity
  8
0
  6
CONTINUOUS
 62
     3
100
AcDbLine
 10
165.164939
 20
113.142665
 30
0.0
 11
165.149352
 21
113.132178
 31
0.0
  0
LINE
  5
265
330
25C
100
AcDbEntity
  8
0
  6
CONTINUOUS
 62
     3
100
AcDbLine
 10
165.149352
 20
113.132178
 30
0.0
 11
165.133733
 21
113.121821
 31
0.0
  0
LINE
  5
266
330
25C
100
AcDbEntity
  8
0
  6
CONTINUOUS
 62
     3
100
AcDbLine
 10
165.133733
 20
113.121821
 30
0.0
 11
165.118077
 21
113.11161
 31
0.0
  0
LINE
  5
267
330
25C
100
AcDbEntity
  8
0
  6
CONTINUOUS
 62
     3
100
AcDbLine
 10
165.118077
 20
113.11161
 30
0.0
 11
165.10238
 21
113.101566
 31
0.0
  0
LINE
  5
268
330
25C
100
AcDbEntity
  8
0
  6
CONTINUOUS
 62
     3
100
AcDbLine
 10
165.10238
 20
113.101566
 30
0.0
 11
165.086637
 21
113.091706
 31
0.0
  0
LINE
  5
269
330
25C
100
AcDbEntity
  8
0
  6
CONTINUOUS
 62
     3
100
AcDbLine
 10
165.086637
 20
113.091706
 30
0.0
 11
165.070843
 21
113.082049
 31
0.0
  0
LINE
  5
26A
330
25C
100
AcDbEntity
  8
0
  6
CONTINUOUS
 62
     3
100
AcDbLine
 10
165.070843
 20
113.082049
 30
0.0
 11
165.054994
 21
113.072613
 31
0.0
  0
LINE
  5
26B
330
25C
100
AcDbEntity
  8
0
  6
CONTINUOUS
 62
     3
100
AcDbLine
 10
165.054994
 20
113.072613
 30
0.0
 11
165.039086
 21
113.063417
 31
0.0
  0
LINE
  5
26C
330
25C
100
AcDbEntity
  8
0
  6
CONTINUOUS
 62
     3
100
AcDbLine
 10
165.039086
 20
113.063417
 30
0.0
 11
165.023113
 21
113.054478
 31
0.0
  0
LINE
  5
26D
330
25C
100
AcDbEntity
  8
0
  6
CONTINUOUS
 62
     3
100
AcDbLine
 10
165.023113
 20
113.054478
 30
0.0
 11
165.007072
 21
113.045816
 31
0.0
  0
LINE
  5
26E
330
25C
100
AcDbEntity
  8
0
  6
CONTINUOUS
 62
     3
100
AcDbLine
 10
165.007072
 20
113.045816
 30
0.0
 11
164.990957
 21
113.037449
 31
0.0
  0
LINE
  5
26F
330
25C
100
AcDbEntity
  8
0
  6
CONTINUOUS
 62
     3
100
AcDbLine
 10
164.990957
 20
113.037449
 30
0.0
 11
164.974764
 21
113.029396
 31
0.0
  0
LINE
  5
270
330
25C
100
AcDbEntity
  8
0
  6
CONTINUOUS
 62
     3
100
AcDbLine
 10
164.974764
 20
113.029396
 30
0.0
 11
164.958488
 21
113.021674
 31
0.0
  0
LINE
  5
271
330
25C
100
AcDbEntity
  8
0
  6
CONTINUOUS
 62
     3
100
AcDbLine
 10
164.958488
 20
113.021674
 30
0.0
 11
164.942125
 21
113.014302
 31
0.0
  0
LINE
  5
272
330
25C
100
AcDbEntity
  8
0
  6
CONTINUOUS
 62
     3
100
AcDbLine
 10
164.942125
 20
113.014302
 30
0.0
 11
164.925671
 21
113.007299
 31
0.0
  0
LINE
  5
273
330
25C
100
AcDbEntity
  8
0
  6
CONTINUOUS
 62
     3
100
AcDbLine
 10
164.925671
 20
113.007299
 30
0.0
 11
164.909119
 21
113.000683
 31
0.0
  0
LINE
  5
274
330
25C
100
AcDbEntity
  8
0
  6
CONTINUOUS
 62
     3
100
AcDbLine
 10
164.909119
 20
113.000683
 30
0.0
 11
164.892467
 21
112.994472
 31
0.0
  0
LINE
  5
275
330
25C
100
AcDbEntity
  8
0
  6
CONTINUOUS
 62
     3
100
AcDbLine
 10
164.892467
 20
112.994472
 30
0.0
 11
164.87571
 21
112.988686
 31
0.0
  0
LINE
  5
276
330
25C
100
AcDbEntity
  8
0
  6
CONTINUOUS
 62
     3
100
AcDbLine
 10
164.87571
 20
112.988686
 30
0.0
 11
164.858842
 21
112.983341
 31
0.0
  0
LINE
  5
277
330
25C
100
AcDbEntity
  8
0
  6
CONTINUOUS
 62
     3
100
AcDbLine
 10
164.858842
 20
112.983341
 30
0.0
 11
164.841859
 21
112.978458
 31
0.0
  0
LINE
  5
278
330
25C
100
AcDbEntity
  8
0
  6
CONTINUOUS
 62
     3
100
AcDbLine
 10
164.841859
 20
112.978458
 30
0.0
 11
164.824757
 21
112.974053
 31
0.0
  0
LINE
  5
279
330
25C
100
AcDbEntity
  8
0
  6
CONTINUOUS
 62
     3
100
AcDbLine
 10
164.824757
 20
112.974053
 30
0.0
 11
164.807531
 21
112.970147
 31
0.0
  0
LINE
  5
27A
330
25C
100
AcDbEntity
  8
0
  6
CONTINUOUS
 62
     3
100
AcDbLine
 10
164.807531
 20
112.970147
 30
0.0
 11
164.798871
 21
112.968386
 31
0.0
  0
LINE
  5
27B
330
25C
100
AcDbEntity
  8
0
  6
CONTINUOUS
 62
     3
100
AcDbLine
 10
164.798871
 20
112.968386
 30
0.0
 11
164.790177
 21
112.966756
 31
0.0
  0
LINE
  5
27C
330
25C
100
AcDbEntity
  8
0
  6
CONTINUOUS
 62
     3
100
AcDbLine
 10
164.790177
 20
112.966756
 30
0.0
 11
164.78145
 21
112.96526
 31
0.0
  0
LINE
  5
27D
330
25C
100
AcDbEntity
  8
0
  6
CONTINUOUS
 62
     3
100
AcDbLine
 10
164.78145
 20
112.96526
 30
0.0
 11
164.772689
 21
112.9639
 31
0.0
  0
LINE
  5
27E
330
25C
100
AcDbEntity
  8
0
  6
CONTINUOUS
 62
     3
100
AcDbLine
 10
164.772689
 20
112.9639
 30
0.0
 11
164.763894
 21
112.962678
 31
0.0
  0
LINE
  5
27F
330
25C
100
AcDbEntity
  8
0
  6
CONTINUOUS
 62
     3
100
AcDbLine
 10
164.763894
 20
112.962678
 30
0.0
 11
164.755064
 21
112.961597
 31
0.0
  0
LINE
  5
280
330
25C
100
AcDbEntity
  8
0
  6
CONTINUOUS
 62
     3
100
AcDbLine
 10
164.755064
 20
112.961597
 30
0.0
 11
164.746198
 21
112.960658
 31
0.0
  0
LINE
  5
281
330
25C
100
AcDbEntity
  8
0
  6
CONTINUOUS
 62
     3
100
AcDbLine
 10
164.746198
 20
112.960658
 30
0.0
 11
164.737297
 21
112.959865
 31
0.0
  0
LINE
  5
282
330
25C
100
AcDbEntity
  8
0
  6
CONTINUOUS
 62
     3
100
AcDbLine
 10
164.737297
 20
112.959865
 30
0.0
 11
164.722846
 21
112.958878
 31
0.0
  0
LINE
  5
283
330
25C
100
AcDbEntity
  8
0
  6
CONTINUOUS
 62
     3
100
AcDbLine
 10
164.722846
 20
112.958878
 30
0.0
 11
164.708324
 21
112.95818
 31
0.0
  0
LINE
  5
284
330
25C
100
AcDbEntity
  8
0
  6
CONTINUOUS
 62
     3
100
AcDbLine
 10
164.708324
 20
112.95818
 30
0.0
 11
164.693754
 21
112.957674
 31
0.0
  0
LINE
  5
285
330
25C
100
AcDbEntity
  8
0
  6
CONTINUOUS
 62
     3
100
AcDbLine
 10
164.693754
 20
112.957674
 30
0.0
 11
164.67916
 21
112.957265
 31
0.0
  0
ENDBLK
  5
25E
330
25C
100
AcDbEntity
  8
0
100
AcDbBlockEnd
  0
BLOCK
  5
2AB
330
2AA
100
AcDbEntity
  8
0
100
AcDbBlockBegin
  2
BLKF025
 70
     0
 71
     0
 10
0.0
 20
0.0
 30
0.0
  3
BLKF025
  1

  0
LINE
  5
2AE
330
2AA
100
AcDbEntity
  8
0
  6
CONTINUOUS
 62
     3
100
AcDbLine
 10
56.083498
 20
132.629763
 30
0.0
 11
53.251182
 21
132.629763
 31
0.0
  0
LINE
  5
2AF
330
2AA
100
AcDbEntity
  8
0
  6
CONTINUOUS
 62
     3
100
AcDbLine
 10
53.251182
 20
132.629763
 30
0.0
 11
53.213043
 21
132.62831
 31
0.0
  0
LINE
  5
2B0
330
2AA
100
AcDbEntity
  8
0
  6
CONTINUOUS
 62
     3
100
AcDbLine
 10
53.213043
 20
132.62831
 30
0.0
 11
53.175127
 21
132.623944
 31
0.0
  0
LINE
  5
2B1
330
2AA
100
AcDbEntity
  8
0
  6
CONTINUOUS
 62
     3
100
AcDbLine
 10
53.175127
 20
132.623944
 30
0.0
 11
53.13765
 21
132.616702
 31
0.0
  0
LINE
  5
2B2
330
2AA
100
AcDbEntity
  8
0
  6
CONTINUOUS
 62
     3
100
AcDbLine
 10
53.13765
 20
132.616702
 30
0.0
 11
53.10083
 21
132.606621
 31
0.0
  0
LINE
  5
2B3
330
2AA
100
AcDbEntity
  8
0
  6
CONTINUOUS
 62
     3
100
AcDbLine
 10
53.10083
 20
132.606621
 30
0.0
 11
53.064895
 21
132.593761
 31
0.0
  0
LINE
  5
2B4
330
2AA
100
AcDbEntity
  8
0
  6
CONTINUOUS
 62
     3
100
AcDbLine
 10
53.064895
 20
132.593761
 30
0.0
 11
53.030042
 21
132.578205
 31
0.0
  0
LINE
  5
2B5
330
2AA
100
AcDbEntity
  8
0
  6
CONTINUOUS
 62
     3
100
AcDbLine
 10
53.030042
 20
132.578205
 30
0.0
 11
52.996477
 21
132.560025
 31
0.0
  0
LINE
  5
2B6
330
2AA
100
AcDbEntity
  8
0
  6
CONTINUOUS
 62
     3
100
AcDbLine
 10
52.996477
 20
132.560025
 30
0.0
 11
52.964395
 21
132.539342
 31
0.0
  0
ENDBLK
  5
2AC
330
2AA
100
AcDbEntity
  8
0
100
AcDbBlockEnd
  0
BLOCK
  5
2BE
330
2BD
100
AcDbEntity
  8
0
100
AcDbBlockBegin
  2
BLKF026
 70
     0
 71
     0
 10
0.0
 20
0.0
 30
0.0
  3
BLKF026
  1

  0
LINE
  5
2C1
330
2BD
100
AcDbEntity
  8
0
  6
CONTINUOUS
 62
     3
100
AcDbLine
 10
58.333499
 20
121.129762
 30
0.0
 11
59.258496
 21
121.129762
 31
0.0
  0
LINE
  5
2C2
330
2BD
100
AcDbEntity
  8
0
  6
CONTINUOUS
 62
     3
100
AcDbLine
 10
59.258496
 20
121.129762
 30
0.0
 11
59.307275
 21
121.134567
 31
0.0
  0
LINE
  5
2C3
330
2BD
100
AcDbEntity
  8
0
  6
CONTINUOUS
 62
     3
100
AcDbLine
 10
59.307275
 20
121.134567
 30
0.0
 11
59.354169
 21
121.148798
 31
0.0
  0
LINE
  5
2C4
330
2BD
100
AcDbEntity
  8
0
  6
CONTINUOUS
 62
     3
100
AcDbLine
 10
59.354169
 20
121.148798
 30
0.0
 11
59.39739
 21
121.171895
 31
0.0
  0
LINE
  5
2C5
330
2BD
100
AcDbEntity
  8
0
  6
CONTINUOUS
 62
     3
100
AcDbLine
 10
59.39739
 20
121.171895
 30
0.0
 11
59.435276
 21
121.202986
 31
0.0
  0
LINE
  5
2C6
330
2BD
100
AcDbEntity
  8
0
  6
CONTINUOUS
 62
     3
100
AcDbLine
 10
59.435276
 20
121.202986
 30
0.0
 11
59.466367
 21
121.240872
 31
0.0
  0
LINE
  5
2C7
330
2BD
100
AcDbEntity
  8
0
  6
CONTINUOUS
 62
     3
100
AcDbLine
 10
59.466367
 20
121.240872
 30
0.0
 11
59.489472
 21
121.284093
 31
0.0
  0
LINE
  5
2C8
330
2BD
100
AcDbEntity
  8
0
  6
CONTINUOUS
 62
     3
100
AcDbLine
 10
59.489472
 20
121.284093
 30
0.0
 11
59.503695
 21
121.330994
 31
0.0
  0
LINE
  5
2C9
330
2BD
100
AcDbEntity
  8
0
  6
CONTINUOUS
 62
     3
100
AcDbLine
 10
59.503695
 20
121.330994
 30
0.0
 11
59.5085
 21
121.379766
 31
0.0
  0
ENDBLK
  5
2BF
330
2BD
100
AcDbEntity
  8
0
100
AcDbBlockEnd
  0
BLOCK
  5
392
330
391
100
AcDbEntity
  8
0
100
AcDbBlockBegin
  2
BLKF027
 70
     0
 71
     0
 10
0.0
 20
0.0
 30
0.0
  3
BLKF027
  1

  0
LINE
  5
395
330
391
100
AcDbEntity
  8
CSLAYER2
  6
CONTINUOUS
 62
     3
100
AcDbLine
 10
164.933321
 20
82.50024
 30
0.0
 11
164.935621
 21
82.519861
 31
0.0
  0
LINE
  5
396
330
391
100
AcDbEntity
  8
CSLAYER2
  6
CONTINUOUS
 62
     3
100
AcDbLine
 10
164.935621
 20
82.519861
 30
0.0
 11
164.942503
 21
82.539333
 31
0.0
  0
LINE
  5
397
330
391
100
AcDbEntity
  8
CSLAYER2
  6
CONTINUOUS
 62
     3
100
AcDbLine
 10
164.942503
 20
82.539333
 30
0.0
 11
164.953915
 21
82.558508
 31
0.0
  0
LINE
  5
398
330
391
100
AcDbEntity
  8
CSLAYER2
  6
CONTINUOUS
 62
     3
100
AcDbLine
 10
164.953915
 20
82.558508
 30
0.0
 11
164.96977
 21
82.577239
 31
0.0
  0
LINE
  5
399
330
391
100
AcDbEntity
  8
CSLAYER2
  6
CONTINUOUS
 62
     3
100
AcDbLine
 10
164.96977
 20
82.577239
 30
0.0
 11
164.989948
 21
82.595384
 31
0.0
  0
LINE
  5
39A
330
391
100
AcDbEntity
  8
CSLAYER2
  6
CONTINUOUS
 62
     3
100
AcDbLine
 10
164.989948
 20
82.595384
 30
0.0
 11
165.014294
 21
82.612805
 31
0.0
  0
LINE
  5
39B
330
391
100
AcDbEntity
  8
CSLAYER2
  6
CONTINUOUS
 62
     3
100
AcDbLine
 10
165.014294
 20
82.612805
 30
0.0
 11
165.042625
 21
82.629369
 31
0.0
  0
LINE
  5
39C
330
391
100
AcDbEntity
  8
CSLAYER2
  6
CONTINUOUS
 62
     3
100
AcDbLine
 10
165.042625
 20
82.629369
 30
0.0
 11
165.074722
 21
82.644951
 31
0.0
  0
LINE
  5
39D
330
391
100
AcDbEntity
  8
CSLAYER2
  6
CONTINUOUS
 62
     3
100
AcDbLine
 10
165.074722
 20
82.644951
 30
0.0
 11
165.110344
 21
82.659431
 31
0.0
  0
LINE
  5
39E
330
391
100
AcDbEntity
  8
CSLAYER2
  6
CONTINUOUS
 62
     3
100
AcDbLine
 10
165.110344
 20
82.659431
 30
0.0
 11
165.149218
 21
82.6727
 31
0.0
  0
LINE
  5
39F
330
391
100
AcDbEntity
  8
CSLAYER2
  6
CONTINUOUS
 62
     3
100
AcDbLine
 10
165.149218
 20
82.6727
 30
0.0
 11
165.19105
 21
82.684656
 31
0.0
  0
LINE
  5
3A0
330
391
100
AcDbEntity
  8
CSLAYER2
  6
CONTINUOUS
 62
     3
100
AcDbLine
 10
165.19105
 20
82.684656
 30
0.0
 11
165.235519
 21
82.695208
 31
0.0
  0
LINE
  5
3A1
330
391
100
AcDbEntity
  8
CSLAYER2
  6
CONTINUOUS
 62
     3
100
AcDbLine
 10
165.235519
 20
82.695208
 30
0.0
 11
165.282288
 21
82.704277
 31
0.0
  0
LINE
  5
3A2
330
391
100
AcDbEntity
  8
CSLAYER2
  6
CONTINUOUS
 62
     3
100
AcDbLine
 10
165.282288
 20
82.704277
 30
0.0
 11
165.331002
 21
82.711793
 31
0.0
  0
LINE
  5
3A3
330
391
100
AcDbEntity
  8
CSLAYER2
  6
CONTINUOUS
 62
     3
100
AcDbLine
 10
165.331002
 20
82.711793
 30
0.0
 11
165.381288
 21
82.717699
 31
0.0
  0
LINE
  5
3A4
330
391
100
AcDbEntity
  8
CSLAYER2
  6
CONTINUOUS
 62
     3
100
AcDbLine
 10
165.381288
 20
82.717699
 30
0.0
 11
165.432765
 21
82.721949
 31
0.0
  0
LINE
  5
3A5
330
391
100
AcDbEntity
  8
CSLAYER2
  6
CONTINUOUS
 62
     3
100
AcDbLine
 10
165.432765
 20
82.721949
 30
0.0
 11
165.485041
 21
82.724513
 31
0.0
  0
ENDBLK
  5
393
330
391
100
AcDbEntity
  8
0
100
AcDbBlockEnd
  0
BLOCK
  5
3AB
330
3AA
100
AcDbEntity
  8
0
100
AcDbBlockBegin
  2
BLKF028
 70
     0
 71
     0
 10
0.0
 20
0.0
 30
0.0
  3
BLKF028
  1

  0
LINE
  5
3AE
330
3AA
100
AcDbEntity
  8
CSLAYER2
  6
CONTINUOUS
 62
     3
100
AcDbLine
 10
165.11331
 20
68.519681
 30
0.0
 11
165.117924
 21
68.539302
 31
0.0
  0
LINE
  5
3AF
330
3AA
100
AcDbEntity
  8
CSLAYER2
  6
CONTINUOUS
 62
     3
100
AcDbLine
 10
165.117924
 20
68.539302
 30
0.0
 11
165.131729
 21
68.558774
 31
0.0
  0
LINE
  5
3B0
330
3AA
100
AcDbEntity
  8
CSLAYER2
  6
CONTINUOUS
 62
     3
100
AcDbLine
 10
165.131729
 20
68.558774
 30
0.0
 11
165.154621
 21
68.577949
 31
0.0
  0
LINE
  5
3B1
330
3AA
100
AcDbEntity
  8
CSLAYER2
  6
CONTINUOUS
 62
     3
100
AcDbLine
 10
165.154621
 20
68.577949
 30
0.0
 11
165.186425
 21
68.596679
 31
0.0
  0
LINE
  5
3B2
330
3AA
100
AcDbEntity
  8
CSLAYER2
  6
CONTINUOUS
 62
     3
100
AcDbLine
 10
165.186425
 20
68.596679
 30
0.0
 11
165.226899
 21
68.614825
 31
0.0
  0
LINE
  5
3B3
330
3AA
100
AcDbEntity
  8
CSLAYER2
  6
CONTINUOUS
 62
     3
100
AcDbLine
 10
165.226899
 20
68.614825
 30
0.0
 11
165.275736
 21
68.632245
 31
0.0
  0
LINE
  5
3B4
330
3AA
100
AcDbEntity
  8
CSLAYER2
  6
CONTINUOUS
 62
     3
100
AcDbLine
 10
165.275736
 20
68.632245
 30
0.0
 11
165.332563
 21
68.648809
 31
0.0
  0
LINE
  5
3B5
330
3AA
100
AcDbEntity
  8
CSLAYER2
  6
CONTINUOUS
 62
     3
100
AcDbLine
 10
165.332563
 20
68.648809
 30
0.0
 11
165.396949
 21
68.664391
 31
0.0
  0
LINE
  5
3B6
330
3AA
100
AcDbEntity
  8
CSLAYER2
  6
CONTINUOUS
 62
     3
100
AcDbLine
 10
165.396949
 20
68.664391
 30
0.0
 11
165.468402
 21
68.678871
 31
0.0
  0
LINE
  5
3B7
330
3AA
100
AcDbEntity
  8
CSLAYER2
  6
CONTINUOUS
 62
     3
100
AcDbLine
 10
165.468402
 20
68.678871
 30
0.0
 11
165.546381
 21
68.69214
 31
0.0
  0
LINE
  5
3B8
330
3AA
100
AcDbEntity
  8
CSLAYER2
  6
CONTINUOUS
 62
     3
100
AcDbLine
 10
165.546381
 20
68.69214
 30
0.0
 11
165.63029
 21
68.704096
 31
0.0
  0
LINE
  5
3B9
330
3AA
100
AcDbEntity
  8
CSLAYER2
  6
CONTINUOUS
 62
     3
100
AcDbLine
 10
165.63029
 20
68.704096
 30
0.0
 11
165.719491
 21
68.714649
 31
0.0
  0
LINE
  5
3BA
330
3AA
100
AcDbEntity
  8
CSLAYER2
  6
CONTINUOUS
 62
     3
100
AcDbLine
 10
165.719491
 20
68.714649
 30
0.0
 11
165.813306
 21
68.723717
 31
0.0
  0
LINE
  5
3BB
330
3AA
100
AcDbEntity
  8
CSLAYER2
  6
CONTINUOUS
 62
     3
100
AcDbLine
 10
165.813306
 20
68.723717
 30
0.0
 11
165.911019
 21
68.731233
 31
0.0
  0
LINE
  5
3BC
330
3AA
100
AcDbEntity
  8
CSLAYER2
  6
CONTINUOUS
 62
     3
100
AcDbLine
 10
165.911019
 20
68.731233
 30
0.0
 11
166.01189
 21
68.737139
 31
0.0
  0
LINE
  5
3BD
330
3AA
100
AcDbEntity
  8
CSLAYER2
  6
CONTINUOUS
 62
     3
100
AcDbLine
 10
166.01189
 20
68.737139
 30
0.0
 11
166.115147
 21
68.741389
 31
0.0
  0
LINE
  5
3BE
330
3AA
100
AcDbEntity
  8
CSLAYER2
  6
CONTINUOUS
 62
     3
100
AcDbLine
 10
166.115147
 20
68.741389
 30
0.0
 11
166.220007
 21
68.743953
 31
0.0
  0
LINE
  5
3BF
330
3AA
100
AcDbEntity
  8
CSLAYER2
  6
CONTINUOUS
 62
     3
100
AcDbLine
 10
166.220007
 20
68.743953
 30
0.0
 11
166.325671
 21
68.74481
 31
0.0
  0
ENDBLK
  5
3AC
330
3AA
100
AcDbEntity
  8
0
100
AcDbBlockEnd
  0
BLOCK
  5
3C1
330
3C0
100
AcDbEntity
  8
0
100
AcDbBlockBegin
  2
BLKF029
 70
     0
 71
     0
 10
0.0
 20
0.0
 30
0.0
  3
BLKF029
  1

  0
LINE
  5
3C4
330
3C0
100
AcDbEntity
  8
CSLAYER2
  6
CONTINUOUS
 62
     3
100
AcDbLine
 10
166.325671
 20
66.448486
 30
0.0
 11
166.220007
 21
66.449343
 31
0.0
  0
LINE
  5
3C5
330
3C0
100
AcDbEntity
  8
CSLAYER2
  6
CONTINUOUS
 62
     3
100
AcDbLine
 10
166.220007
 20
66.449343
 30
0.0
 11
166.115147
 21
66.451906
 31
0.0
  0
LINE
  5
3C6
330
3C0
100
AcDbEntity
  8
CSLAYER2
  6
CONTINUOUS
 62
     3
100
AcDbLine
 10
166.115147
 20
66.451906
 30
0.0
 11
166.01189
 21
66.456157
 31
0.0
  0
LINE
  5
3C7
330
3C0
100
AcDbEntity
  8
CSLAYER2
  6
CONTINUOUS
 62
     3
100
AcDbLine
 10
166.01189
 20
66.456157
 30
0.0
 11
165.911019
 21
66.462063
 31
0.0
  0
LINE
  5
3C8
330
3C0
100
AcDbEntity
  8
CSLAYER2
  6
CONTINUOUS
 62
     3
100
AcDbLine
 10
165.911019
 20
66.462063
 30
0.0
 11
165.813306
 21
66.469579
 31
0.0
  0
LINE
  5
3C9
330
3C0
100
AcDbEntity
  8
CSLAYER2
  6
CONTINUOUS
 62
     3
100
AcDbLine
 10
165.813306
 20
66.469579
 30
0.0
 11
165.719491
 21
66.478648
 31
0.0
  0
LINE
  5
3CA
330
3C0
100
AcDbEntity
  8
CSLAYER2
  6
CONTINUOUS
 62
     3
100
AcDbLine
 10
165.719491
 20
66.478648
 30
0.0
 11
165.63029
 21
66.489201
 31
0.0
  0
LINE
  5
3CB
330
3C0
100
AcDbEntity
  8
CSLAYER2
  6
CONTINUOUS
 62
     3
100
AcDbLine
 10
165.63029
 20
66.489201
 30
0.0
 11
165.546381
 21
66.501157
 31
0.0
  0
LINE
  5
3CC
330
3C0
100
AcDbEntity
  8
CSLAYER2
  6
CONTINUOUS
 62
     3
100
AcDbLine
 10
165.546381
 20
66.501157
 30
0.0
 11
165.468402
 21
66.514425
 31
0.0
  0
LINE
  5
3CD
330
3C0
100
AcDbEntity
  8
CSLAYER2
  6
CONTINUOUS
 62
     3
100
AcDbLine
 10
165.468402
 20
66.514425
 30
0.0
 11
165.396949
 21
66.528905
 31
0.0
  0
LINE
  5
3CE
330
3C0
100
AcDbEntity
  8
CSLAYER2
  6
CONTINUOUS
 62
     3
100
AcDbLine
 10
165.396949
 20
66.528905
 30
0.0
 11
165.332563
 21
66.544487
 31
0.0
  0
LINE
  5
3CF
330
3C0
100
AcDbEntity
  8
CSLAYER2
  6
CONTINUOUS
 62
     3
100
AcDbLine
 10
165.332563
 20
66.544487
 30
0.0
 11
165.275736
 21
66.561051
 31
0.0
  0
LINE
  5
3D0
330
3C0
100
AcDbEntity
  8
CSLAYER2
  6
CONTINUOUS
 62
     3
100
AcDbLine
 10
165.275736
 20
66.561051
 30
0.0
 11
165.226899
 21
66.578472
 31
0.0
  0
LINE
  5
3D1
330
3C0
100
AcDbEntity
  8
CSLAYER2
  6
CONTINUOUS
 62
     3
100
AcDbLine
 10
165.226899
 20
66.578472
 30
0.0
 11
165.186425
 21
66.596617
 31
0.0
  0
LINE
  5
3D2
330
3C0
100
AcDbEntity
  8
CSLAYER2
  6
CONTINUOUS
 62
     3
100
AcDbLine
 10
165.186425
 20
66.596617
 30
0.0
 11
165.154621
 21
66.615348
 31
0.0
  0
LINE
  5
3D3
330
3C0
100
AcDbEntity
  8
CSLAYER2
  6
CONTINUOUS
 62
     3
100
AcDbLine
 10
165.154621
 20
66.615348
 30
0.0
 11
165.131729
 21
66.634522
 31
0.0
  0
LINE
  5
3D4
330
3C0
100
AcDbEntity
  8
CSLAYER2
  6
CONTINUOUS
 62
     3
100
AcDbLine
 10
165.131729
 20
66.634522
 30
0.0
 11
165.117924
 21
66.653994
 31
0.0
  0
LINE
  5
3D5
330
3C0
100
AcDbEntity
  8
CSLAYER2
  6
CONTINUOUS
 62
     3
100
AcDbLine
 10
165.117924
 20
66.653994
 30
0.0
 11
165.11331
 21
66.673616
 31
0.0
  0
ENDBLK
  5
3C2
330
3C0
100
AcDbEntity
  8
0
100
AcDbBlockEnd
  0
BLOCK
  5
3FF
330
3FE
100
AcDbEntity
  8
0
100
AcDbBlockBegin
  2
BLKF030
 70
     0
 71
     0
 10
0.0
 20
0.0
 30
0.0
  3
BLKF030
  1

  0
LINE
  5
402
330
3FE
100
AcDbEntity
  8
CSLAYER2
  6
CONTINUOUS
 62
     3
100
AcDbLine
 10
167.113626
 20
82.725369
 30
0.0
 11
167.166302
 21
82.724513
 31
0.0
  0
LINE
  5
403
330
3FE
100
AcDbEntity
  8
CSLAYER2
  6
CONTINUOUS
 62
     3
100
AcDbLine
 10
167.166302
 20
82.724513
 30
0.0
 11
167.218578
 21
82.721949
 31
0.0
  0
LINE
  5
404
330
3FE
100
AcDbEntity
  8
CSLAYER2
  6
CONTINUOUS
 62
     3
100
AcDbLine
 10
167.218578
 20
82.721949
 30
0.0
 11
167.270055
 21
82.717699
 31
0.0
  0
LINE
  5
405
330
3FE
100
AcDbEntity
  8
CSLAYER2
  6
CONTINUOUS
 62
     3
100
AcDbLine
 10
167.270055
 20
82.717699
 30
0.0
 11
167.320342
 21
82.711793
 31
0.0
  0
LINE
  5
406
330
3FE
100
AcDbEntity
  8
CSLAYER2
  6
CONTINUOUS
 62
     3
100
AcDbLine
 10
167.320342
 20
82.711793
 30
0.0
 11
167.369054
 21
82.704277
 31
0.0
  0
LINE
  5
407
330
3FE
100
AcDbEntity
  8
CSLAYER2
  6
CONTINUOUS
 62
     3
100
AcDbLine
 10
167.369054
 20
82.704277
 30
0.0
 11
167.415824
 21
82.695208
 31
0.0
  0
LINE
  5
408
330
3FE
100
AcDbEntity
  8
CSLAYER2
  6
CONTINUOUS
 62
     3
100
AcDbLine
 10
167.415824
 20
82.695208
 30
0.0
 11
167.460294
 21
82.684656
 31
0.0
  0
LINE
  5
409
330
3FE
100
AcDbEntity
  8
CSLAYER2
  6
CONTINUOUS
 62
     3
100
AcDbLine
 10
167.460294
 20
82.684656
 30
0.0
 11
167.502124
 21
82.6727
 31
0.0
  0
LINE
  5
40A
330
3FE
100
AcDbEntity
  8
CSLAYER2
  6
CONTINUOUS
 62
     3
100
AcDbLine
 10
167.502124
 20
82.6727
 30
0.0
 11
167.540998
 21
82.659431
 31
0.0
  0
LINE
  5
40B
330
3FE
100
AcDbEntity
  8
CSLAYER2
  6
CONTINUOUS
 62
     3
100
AcDbLine
 10
167.540998
 20
82.659431
 30
0.0
 11
167.57662
 21
82.644951
 31
0.0
  0
LINE
  5
40C
330
3FE
100
AcDbEntity
  8
CSLAYER2
  6
CONTINUOUS
 62
     3
100
AcDbLine
 10
167.57662
 20
82.644951
 30
0.0
 11
167.608718
 21
82.629369
 31
0.0
  0
LINE
  5
40D
330
3FE
100
AcDbEntity
  8
CSLAYER2
  6
CONTINUOUS
 62
     3
100
AcDbLine
 10
167.608718
 20
82.629369
 30
0.0
 11
167.637049
 21
82.612805
 31
0.0
  0
LINE
  5
40E
330
3FE
100
AcDbEntity
  8
CSLAYER2
  6
CONTINUOUS
 62
     3
100
AcDbLine
 10
167.637049
 20
82.612805
 30
0.0
 11
167.661395
 21
82.595384
 31
0.0
  0
LINE
  5
40F
330
3FE
100
AcDbEntity
  8
CSLAYER2
  6
CONTINUOUS
 62
     3
100
AcDbLine
 10
167.661395
 20
82.595384
 30
0.0
 11
167.681573
 21
82.577239
 31
0.0
  0
LINE
  5
410
330
3FE
100
AcDbEntity
  8
CSLAYER2
  6
CONTINUOUS
 62
     3
100
AcDbLine
 10
167.681573
 20
82.577239
 30
0.0
 11
167.697428
 21
82.558508
 31
0.0
  0
LINE
  5
411
330
3FE
100
AcDbEntity
  8
CSLAYER2
  6
CONTINUOUS
 62
     3
100
AcDbLine
 10
167.697428
 20
82.558508
 30
0.0
 11
167.70884
 21
82.539333
 31
0.0
  0
LINE
  5
412
330
3FE
100
AcDbEntity
  8
CSLAYER2
  6
CONTINUOUS
 62
     3
100
AcDbLine
 10
167.70884
 20
82.539333
 30
0.0
 11
167.715722
 21
82.519861
 31
0.0
  0
ENDBLK
  5
400
330
3FE
100
AcDbEntity
  8
0
100
AcDbBlockEnd
  0
BLOCK
  5
418
330
417
100
AcDbEntity
  8
0
100
AcDbBlockBegin
  2
BLKF031
 70
     0
 71
     0
 10
0.0
 20
0.0
 30
0.0
  3
BLKF031
  1

  0
LINE
  5
41B
330
417
100
AcDbEntity
  8
CSLAYER2
  6
CONTINUOUS
 62
     3
100
AcDbLine
 10
166.325671
 20
68.74481
 30
0.0
 11
166.431336
 21
68.743953
 31
0.0
  0
LINE
  5
41C
330
417
100
AcDbEntity
  8
CSLAYER2
  6
CONTINUOUS
 62
     3
100
AcDbLine
 10
166.431336
 20
68.743953
 30
0.0
 11
166.536196
 21
68.741389
 31
0.0
  0
LINE
  5
41D
330
417
100
AcDbEntity
  8
CSLAYER2
  6
CONTINUOUS
 62
     3
100
AcDbLine
 10
166.536196
 20
68.741389
 30
0.0
 11
166.639454
 21
68.737139
 31
0.0
  0
LINE
  5
41E
330
417
100
AcDbEntity
  8
CSLAYER2
  6
CONTINUOUS
 62
     3
100
AcDbLine
 10
166.639454
 20
68.737139
 30
0.0
 11
166.740323
 21
68.731233
 31
0.0
  0
LINE
  5
41F
330
417
100
AcDbEntity
  8
CSLAYER2
  6
CONTINUOUS
 62
     3
100
AcDbLine
 10
166.740323
 20
68.731233
 30
0.0
 11
166.838038
 21
68.723717
 31
0.0
  0
LINE
  5
420
330
417
100
AcDbEntity
  8
CSLAYER2
  6
CONTINUOUS
 62
     3
100
AcDbLine
 10
166.838038
 20
68.723717
 30
0.0
 11
166.931852
 21
68.714649
 31
0.0
  0
LINE
  5
421
330
417
100
AcDbEntity
  8
CSLAYER2
  6
CONTINUOUS
 62
     3
100
AcDbLine
 10
166.931852
 20
68.714649
 30
0.0
 11
167.021053
 21
68.704096
 31
0.0
  0
LINE
  5
422
330
417
100
AcDbEntity
  8
CSLAYER2
  6
CONTINUOUS
 62
     3
100
AcDbLine
 10
167.021053
 20
68.704096
 30
0.0
 11
167.104962
 21
68.69214
 31
0.0
  0
LINE
  5
423
330
417
100
AcDbEntity
  8
CSLAYER2
  6
CONTINUOUS
 62
     3
100
AcDbLine
 10
167.104962
 20
68.69214
 30
0.0
 11
167.18294
 21
68.678871
 31
0.0
  0
LINE
  5
424
330
417
100
AcDbEntity
  8
CSLAYER2
  6
CONTINUOUS
 62
     3
100
AcDbLine
 10
167.18294
 20
68.678871
 30
0.0
 11
167.254394
 21
68.664391
 31
0.0
  0
LINE
  5
425
330
417
100
AcDbEntity
  8
CSLAYER2
  6
CONTINUOUS
 62
     3
100
AcDbLine
 10
167.254394
 20
68.664391
 30
0.0
 11
167.318779
 21
68.648809
 31
0.0
  0
LINE
  5
426
330
417
100
AcDbEntity
  8
CSLAYER2
  6
CONTINUOUS
 62
     3
100
AcDbLine
 10
167.318779
 20
68.648809
 30
0.0
 11
167.375607
 21
68.632245
 31
0.0
  0
LINE
  5
427
330
417
100
AcDbEntity
  8
CSLAYER2
  6
CONTINUOUS
 62
     3
100
AcDbLine
 10
167.375607
 20
68.632245
 30
0.0
 11
167.424444
 21
68.614825
 31
0.0
  0
LINE
  5
428
330
417
100
AcDbEntity
  8
CSLAYER2
  6
CONTINUOUS
 62
     3
100
AcDbLine
 10
167.424444
 20
68.614825
 30
0.0
 11
167.464918
 21
68.596679
 31
0.0
  0
LINE
  5
429
330
417
100
AcDbEntity
  8
CSLAYER2
  6
CONTINUOUS
 62
     3
100
AcDbLine
 10
167.464918
 20
68.596679
 30
0.0
 11
167.496722
 21
68.577949
 31
0.0
  0
LINE
  5
42A
330
417
100
AcDbEntity
  8
CSLAYER2
  6
CONTINUOUS
 62
     3
100
AcDbLine
 10
167.496722
 20
68.577949
 30
0.0
 11
167.519614
 21
68.558774
 31
0.0
  0
LINE
  5
42B
330
417
100
AcDbEntity
  8
CSLAYER2
  6
CONTINUOUS
 62
     3
100
AcDbLine
 10
167.519614
 20
68.558774
 30
0.0
 11
167.533419
 21
68.539302
 31
0.0
  0
LINE
  5
42C
330
417
100
AcDbEntity
  8
CSLAYER2
  6
CONTINUOUS
 62
     3
100
AcDbLine
 10
167.533419
 20
68.539302
 30
0.0
 11
167.538033
 21
68.519681
 31
0.0
  0
ENDBLK
  5
419
330
417
100
AcDbEntity
  8
0
100
AcDbBlockEnd
  0
BLOCK
  5
42E
330
42D
100
AcDbEntity
  8
0
100
AcDbBlockBegin
  2
BLKF032
 70
     0
 71
     0
 10
0.0
 20
0.0
 30
0.0
  3
BLKF032
  1

  0
LINE
  5
431
330
42D
100
AcDbEntity
  8
CSLAYER2
  6
CONTINUOUS
 62
     3
100
AcDbLine
 10
167.538033
 20
66.673616
 30
0.0
 11
167.533419
 21
66.653994
 31
0.0
  0
LINE
  5
432
330
42D
100
AcDbEntity
  8
CSLAYER2
  6
CONTINUOUS
 62
     3
100
AcDbLine
 10
167.533419
 20
66.653994
 30
0.0
 11
167.519614
 21
66.634522
 31
0.0
  0
LINE
  5
433
330
42D
100
AcDbEntity
  8
CSLAYER2
  6
CONTINUOUS
 62
     3
100
AcDbLine
 10
167.519614
 20
66.634522
 30
0.0
 11
167.496722
 21
66.615348
 31
0.0
  0
LINE
  5
434
330
42D
100
AcDbEntity
  8
CSLAYER2
  6
CONTINUOUS
 62
     3
100
AcDbLine
 10
167.496722
 20
66.615348
 30
0.0
 11
167.464918
 21
66.596617
 31
0.0
  0
LINE
  5
435
330
42D
100
AcDbEntity
  8
CSLAYER2
  6
CONTINUOUS
 62
     3
100
AcDbLine
 10
167.464918
 20
66.596617
 30
0.0
 11
167.424444
 21
66.578472
 31
0.0
  0
LINE
  5
436
330
42D
100
AcDbEntity
  8
CSLAYER2
  6
CONTINUOUS
 62
     3
100
AcDbLine
 10
167.424444
 20
66.578472
 30
0.0
 11
167.375607
 21
66.561051
 31
0.0
  0
LINE
  5
437
330
42D
100
AcDbEntity
  8
CSLAYER2
  6
CONTINUOUS
 62
     3
100
AcDbLine
 10
167.375607
 20
66.561051
 30
0.0
 11
167.318779
 21
66.544487
 31
0.0
  0
LINE
  5
438
330
42D
100
AcDbEntity
  8
CSLAYER2
  6
CONTINUOUS
 62
     3
100
AcDbLine
 10
167.318779
 20
66.544487
 30
0.0
 11
167.254394
 21
66.528905
 31
0.0
  0
LINE
  5
439
330
42D
100
AcDbEntity
  8
CSLAYER2
  6
CONTINUOUS
 62
     3
100
AcDbLine
 10
167.254394
 20
66.528905
 30
0.0
 11
167.18294
 21
66.514425
 31
0.0
  0
LINE
  5
43A
330
42D
100
AcDbEntity
  8
CSLAYER2
  6
CONTINUOUS
 62
     3
100
AcDbLine
 10
167.18294
 20
66.514425
 30
0.0
 11
167.104962
 21
66.501157
 31
0.0
  0
LINE
  5
43B
330
42D
100
AcDbEntity
  8
CSLAYER2
  6
CONTINUOUS
 62
     3
100
AcDbLine
 10
167.104962
 20
66.501157
 30
0.0
 11
167.021053
 21
66.489201
 31
0.0
  0
LINE
  5
43C
330
42D
100
AcDbEntity
  8
CSLAYER2
  6
CONTINUOUS
 62
     3
100
AcDbLine
 10
167.021053
 20
66.489201
 30
0.0
 11
166.931852
 21
66.478648
 31
0.0
  0
LINE
  5
43D
330
42D
100
AcDbEntity
  8
CSLAYER2
  6
CONTINUOUS
 62
     3
100
AcDbLine
 10
166.931852
 20
66.478648
 30
0.0
 11
166.838038
 21
66.469579
 31
0.0
  0
LINE
  5
43E
330
42D
100
AcDbEntity
  8
CSLAYER2
  6
CONTINUOUS
 62
     3
100
AcDbLine
 10
166.838038
 20
66.469579
 30
0.0
 11
166.740323
 21
66.462063
 31
0.0
  0
LINE
  5
43F
330
42D
100
AcDbEntity
  8
CSLAYER2
  6
CONTINUOUS
 62
     3
100
AcDbLine
 10
166.740323
 20
66.462063
 30
0.0
 11
166.639454
 21
66.456157
 31
0.0
  0
LINE
  5
440
330
42D
100
AcDbEntity
  8
CSLAYER2
  6
CONTINUOUS
 62
     3
100
AcDbLine
 10
166.639454
 20
66.456157
 30
0.0
 11
166.536196
 21
66.451906
 31
0.0
  0
LINE
  5
441
330
42D
100
AcDbEntity
  8
CSLAYER2
  6
CONTINUOUS
 62
     3
100
AcDbLine
 10
166.536196
 20
66.451906
 30
0.0
 11
166.431336
 21
66.449343
 31
0.0
  0
LINE
  5
442
330
42D
100
AcDbEntity
  8
CSLAYER2
  6
CONTINUOUS
 62
     3
100
AcDbLine
 10
166.431336
 20
66.449343
 30
0.0
 11
166.325671
 21
66.448486
 31
0.0
  0
ENDBLK
  5
42F
330
42D
100
AcDbEntity
  8
0
100
AcDbBlockEnd
  0
BLOCK
  5
48B
330
48A
100
AcDbEntity
  8
0
100
AcDbBlockBegin
  2
BLKF033
 70
     0
 71
     0
 10
0.0
 20
0.0
 30
0.0
  3
BLKF033
  1

  0
LINE
  5
48E
330
48A
100
AcDbEntity
  8
0
  6
CONTINUOUS
 62
     3
100
AcDbLine
 10
66.468512
 20
136.844613
 30
0.0
 11
66.431295
 21
136.844779
 31
0.0
  0
LINE
  5
48F
330
48A
100
AcDbEntity
  8
0
  6
CONTINUOUS
 62
     3
100
AcDbLine
 10
66.431295
 20
136.844779
 30
0.0
 11
66.412687
 21
136.844876
 31
0.0
  0
LINE
  5
490
330
48A
100
AcDbEntity
  8
0
  6
CONTINUOUS
 62
     3
100
AcDbLine
 10
66.412687
 20
136.844876
 30
0.0
 11
66.394078
 21
136.84499
 31
0.0
  0
LINE
  5
491
330
48A
100
AcDbEntity
  8
0
  6
CONTINUOUS
 62
     3
100
AcDbLine
 10
66.394078
 20
136.84499
 30
0.0
 11
66.375471
 21
136.845127
 31
0.0
  0
LINE
  5
492
330
48A
100
AcDbEntity
  8
0
  6
CONTINUOUS
 62
     3
100
AcDbLine
 10
66.375471
 20
136.845127
 30
0.0
 11
66.356863
 21
136.845291
 31
0.0
  0
LINE
  5
493
330
48A
100
AcDbEntity
  8
0
  6
CONTINUOUS
 62
     3
100
AcDbLine
 10
66.356863
 20
136.845291
 30
0.0
 11
66.338256
 21
136.845488
 31
0.0
  0
LINE
  5
494
330
48A
100
AcDbEntity
  8
0
  6
CONTINUOUS
 62
     3
100
AcDbLine
 10
66.338256
 20
136.845488
 30
0.0
 11
66.319649
 21
136.845725
 31
0.0
  0
LINE
  5
495
330
48A
100
AcDbEntity
  8
0
  6
CONTINUOUS
 62
     3
100
AcDbLine
 10
66.319649
 20
136.845725
 30
0.0
 11
66.303137
 21
136.845971
 31
0.0
  0
LINE
  5
496
330
48A
100
AcDbEntity
  8
0
  6
CONTINUOUS
 62
     3
100
AcDbLine
 10
66.303137
 20
136.845971
 30
0.0
 11
66.286625
 21
136.846252
 31
0.0
  0
LINE
  5
497
330
48A
100
AcDbEntity
  8
0
  6
CONTINUOUS
 62
     3
100
AcDbLine
 10
66.286625
 20
136.846252
 30
0.0
 11
66.270113
 21
136.846564
 31
0.0
  0
LINE
  5
498
330
48A
100
AcDbEntity
  8
0
  6
CONTINUOUS
 62
     3
100
AcDbLine
 10
66.270113
 20
136.846564
 30
0.0
 11
66.253603
 21
136.846909
 31
0.0
  0
LINE
  5
499
330
48A
100
AcDbEntity
  8
0
  6
CONTINUOUS
 62
     3
100
AcDbLine
 10
66.253603
 20
136.846909
 30
0.0
 11
66.237092
 21
136.847283
 31
0.0
  0
LINE
  5
49A
330
48A
100
AcDbEntity
  8
0
  6
CONTINUOUS
 62
     3
100
AcDbLine
 10
66.237092
 20
136.847283
 30
0.0
 11
66.220583
 21
136.847686
 31
0.0
  0
LINE
  5
49B
330
48A
100
AcDbEntity
  8
0
  6
CONTINUOUS
 62
     3
100
AcDbLine
 10
66.220583
 20
136.847686
 30
0.0
 11
66.204074
 21
136.848116
 31
0.0
  0
LINE
  5
49C
330
48A
100
AcDbEntity
  8
0
  6
CONTINUOUS
 62
     3
100
AcDbLine
 10
66.204074
 20
136.848116
 30
0.0
 11
66.187565
 21
136.848573
 31
0.0
  0
LINE
  5
49D
330
48A
100
AcDbEntity
  8
0
  6
CONTINUOUS
 62
     3
100
AcDbLine
 10
66.187565
 20
136.848573
 30
0.0
 11
66.175
 21
136.848937
 31
0.0
  0
LINE
  5
49E
330
48A
100
AcDbEntity
  8
0
  6
CONTINUOUS
 62
     3
100
AcDbLine
 10
66.175
 20
136.848937
 30
0.0
 11
66.162435
 21
136.849317
 31
0.0
  0
LINE
  5
49F
330
48A
100
AcDbEntity
  8
0
  6
CONTINUOUS
 62
     3
100
AcDbLine
 10
66.162435
 20
136.849317
 30
0.0
 11
66.149871
 21
136.849711
 31
0.0
  0
LINE
  5
4A0
330
48A
100
AcDbEntity
  8
0
  6
CONTINUOUS
 62
     3
100
AcDbLine
 10
66.149871
 20
136.849711
 30
0.0
 11
66.137307
 21
136.85012
 31
0.0
  0
LINE
  5
4A1
330
48A
100
AcDbEntity
  8
0
  6
CONTINUOUS
 62
     3
100
AcDbLine
 10
66.137307
 20
136.85012
 30
0.0
 11
66.124744
 21
136.850544
 31
0.0
  0
LINE
  5
4A2
330
48A
100
AcDbEntity
  8
0
  6
CONTINUOUS
 62
     3
100
AcDbLine
 10
66.124744
 20
136.850544
 30
0.0
 11
66.112181
 21
136.850984
 31
0.0
  0
LINE
  5
4A3
330
48A
100
AcDbEntity
  8
0
  6
CONTINUOUS
 62
     3
100
AcDbLine
 10
66.112181
 20
136.850984
 30
0.0
 11
66.099619
 21
136.85144
 31
0.0
  0
LINE
  5
4A4
330
48A
100
AcDbEntity
  8
0
  6
CONTINUOUS
 62
     3
100
AcDbLine
 10
66.099619
 20
136.85144
 30
0.0
 11
66.087057
 21
136.851912
 31
0.0
  0
LINE
  5
4A5
330
48A
100
AcDbEntity
  8
0
  6
CONTINUOUS
 62
     3
100
AcDbLine
 10
66.087057
 20
136.851912
 30
0.0
 11
66.072672
 21
136.852472
 31
0.0
  0
LINE
  5
4A6
330
48A
100
AcDbEntity
  8
0
  6
CONTINUOUS
 62
     3
100
AcDbLine
 10
66.072672
 20
136.852472
 30
0.0
 11
66.058289
 21
136.853053
 31
0.0
  0
LINE
  5
4A7
330
48A
100
AcDbEntity
  8
0
  6
CONTINUOUS
 62
     3
100
AcDbLine
 10
66.058289
 20
136.853053
 30
0.0
 11
66.043906
 21
136.853655
 31
0.0
  0
LINE
  5
4A8
330
48A
100
AcDbEntity
  8
0
  6
CONTINUOUS
 62
     3
100
AcDbLine
 10
66.043906
 20
136.853655
 30
0.0
 11
66.029524
 21
136.854278
 31
0.0
  0
LINE
  5
4A9
330
48A
100
AcDbEntity
  8
0
  6
CONTINUOUS
 62
     3
100
AcDbLine
 10
66.029524
 20
136.854278
 30
0.0
 11
66.024264
 21
136.854511
 31
0.0
  0
ENDBLK
  5
48C
330
48A
100
AcDbEntity
  8
0
100
AcDbBlockEnd
  0
BLOCK
  5
4AB
330
4AA
100
AcDbEntity
  8
0
100
AcDbBlockBegin
  2
BLKF034
 70
     0
 71
     0
 10
0.0
 20
0.0
 30
0.0
  3
BLKF034
  1

  0
LINE
  5
4AE
330
4AA
100
AcDbEntity
  8
0
  6
CONTINUOUS
 62
     3
100
AcDbLine
 10
66.917827
 20
136.854738
 30
0.0
 11
66.918497
 21
136.854768
 31
0.0
  0
LINE
  5
4AF
330
4AA
100
AcDbEntity
  8
0
  6
CONTINUOUS
 62
     3
100
AcDbLine
 10
66.918497
 20
136.854768
 30
0.0
 11
66.914145
 21
136.854578
 31
0.0
  0
LINE
  5
4B0
330
4AA
100
AcDbEntity
  8
0
  6
CONTINUOUS
 62
     3
100
AcDbLine
 10
66.914145
 20
136.854578
 30
0.0
 11
66.903725
 21
136.85412
 31
0.0
  0
LINE
  5
4B1
330
4AA
100
AcDbEntity
  8
0
  6
CONTINUOUS
 62
     3
100
AcDbLine
 10
66.903725
 20
136.85412
 30
0.0
 11
66.891809
 21
136.853599
 31
0.0
  0
LINE
  5
4B2
330
4AA
100
AcDbEntity
  8
0
  6
CONTINUOUS
 62
     3
100
AcDbLine
 10
66.891809
 20
136.853599
 30
0.0
 11
66.884047
 21
136.853263
 31
0.0
  0
LINE
  5
4B3
330
4AA
100
AcDbEntity
  8
0
  6
CONTINUOUS
 62
     3
100
AcDbLine
 10
66.884047
 20
136.853263
 30
0.0
 11
66.876959
 21
136.85296
 31
0.0
  0
LINE
  5
4B4
330
4AA
100
AcDbEntity
  8
0
  6
CONTINUOUS
 62
     3
100
AcDbLine
 10
66.876959
 20
136.85296
 30
0.0
 11
66.870489
 21
136.852686
 31
0.0
  0
LINE
  5
4B5
330
4AA
100
AcDbEntity
  8
0
  6
CONTINUOUS
 62
     3
100
AcDbLine
 10
66.870489
 20
136.852686
 30
0.0
 11
66.864582
 21
136.85244
 31
0.0
  0
LINE
  5
4B6
330
4AA
100
AcDbEntity
  8
0
  6
CONTINUOUS
 62
     3
100
AcDbLine
 10
66.864582
 20
136.85244
 30
0.0
 11
66.859183
 21
136.852219
 31
0.0
  0
LINE
  5
4B7
330
4AA
100
AcDbEntity
  8
0
  6
CONTINUOUS
 62
     3
100
AcDbLine
 10
66.859183
 20
136.852219
 30
0.0
 11
66.854237
 21
136.85202
 31
0.0
  0
LINE
  5
4B8
330
4AA
100
AcDbEntity
  8
0
  6
CONTINUOUS
 62
     3
100
AcDbLine
 10
66.854237
 20
136.85202
 30
0.0
 11
66.849687
 21
136.851841
 31
0.0
  0
LINE
  5
4B9
330
4AA
100
AcDbEntity
  8
0
  6
CONTINUOUS
 62
     3
100
AcDbLine
 10
66.849687
 20
136.851841
 30
0.0
 11
66.84548
 21
136.85168
 31
0.0
  0
LINE
  5
4BA
330
4AA
100
AcDbEntity
  8
0
  6
CONTINUOUS
 62
     3
100
AcDbLine
 10
66.84548
 20
136.85168
 30
0.0
 11
66.84156
 21
136.851534
 31
0.0
  0
LINE
  5
4BB
330
4AA
100
AcDbEntity
  8
0
  6
CONTINUOUS
 62
     3
100
AcDbLine
 10
66.84156
 20
136.851534
 30
0.0
 11
66.83787
 21
136.8514
 31
0.0
  0
LINE
  5
4BC
330
4AA
100
AcDbEntity
  8
0
  6
CONTINUOUS
 62
     3
100
AcDbLine
 10
66.83787
 20
136.8514
 30
0.0
 11
66.830965
 21
136.85116
 31
0.0
  0
LINE
  5
4BD
330
4AA
100
AcDbEntity
  8
0
  6
CONTINUOUS
 62
     3
100
AcDbLine
 10
66.830965
 20
136.85116
 30
0.0
 11
66.824321
 21
136.850941
 31
0.0
  0
LINE
  5
4BE
330
4AA
100
AcDbEntity
  8
0
  6
CONTINUOUS
 62
     3
100
AcDbLine
 10
66.824321
 20
136.850941
 30
0.0
 11
66.817497
 21
136.850722
 31
0.0
  0
LINE
  5
4BF
330
4AA
100
AcDbEntity
  8
0
  6
CONTINUOUS
 62
     3
100
AcDbLine
 10
66.817497
 20
136.850722
 30
0.0
 11
66.806006
 21
136.850358
 31
0.0
  0
LINE
  5
4C0
330
4AA
100
AcDbEntity
  8
0
  6
CONTINUOUS
 62
     3
100
AcDbLine
 10
66.806006
 20
136.850358
 30
0.0
 11
66.793284
 21
136.849959
 31
0.0
  0
LINE
  5
4C1
330
4AA
100
AcDbEntity
  8
0
  6
CONTINUOUS
 62
     3
100
AcDbLine
 10
66.793284
 20
136.849959
 30
0.0
 11
66.779559
 21
136.849534
 31
0.0
  0
LINE
  5
4C2
330
4AA
100
AcDbEntity
  8
0
  6
CONTINUOUS
 62
     3
100
AcDbLine
 10
66.779559
 20
136.849534
 30
0.0
 11
66.772391
 21
136.849316
 31
0.0
  0
LINE
  5
4C3
330
4AA
100
AcDbEntity
  8
0
  6
CONTINUOUS
 62
     3
100
AcDbLine
 10
66.772391
 20
136.849316
 30
0.0
 11
66.765057
 21
136.849095
 31
0.0
  0
LINE
  5
4C4
330
4AA
100
AcDbEntity
  8
0
  6
CONTINUOUS
 62
     3
100
AcDbLine
 10
66.765057
 20
136.849095
 30
0.0
 11
66.757585
 21
136.848874
 31
0.0
  0
LINE
  5
4C5
330
4AA
100
AcDbEntity
  8
0
  6
CONTINUOUS
 62
     3
100
AcDbLine
 10
66.757585
 20
136.848874
 30
0.0
 11
66.750003
 21
136.848652
 31
0.0
  0
LINE
  5
4C6
330
4AA
100
AcDbEntity
  8
0
  6
CONTINUOUS
 62
     3
100
AcDbLine
 10
66.750003
 20
136.848652
 30
0.0
 11
66.742341
 21
136.848431
 31
0.0
  0
LINE
  5
4C7
330
4AA
100
AcDbEntity
  8
0
  6
CONTINUOUS
 62
     3
100
AcDbLine
 10
66.742341
 20
136.848431
 30
0.0
 11
66.734625
 21
136.848213
 31
0.0
  0
LINE
  5
4C8
330
4AA
100
AcDbEntity
  8
0
  6
CONTINUOUS
 62
     3
100
AcDbLine
 10
66.734625
 20
136.848213
 30
0.0
 11
66.726885
 21
136.847998
 31
0.0
  0
LINE
  5
4C9
330
4AA
100
AcDbEntity
  8
0
  6
CONTINUOUS
 62
     3
100
AcDbLine
 10
66.726885
 20
136.847998
 30
0.0
 11
66.719149
 21
136.847789
 31
0.0
  0
LINE
  5
4CA
330
4AA
100
AcDbEntity
  8
0
  6
CONTINUOUS
 62
     3
100
AcDbLine
 10
66.719149
 20
136.847789
 30
0.0
 11
66.711445
 21
136.847586
 31
0.0
  0
LINE
  5
4CB
330
4AA
100
AcDbEntity
  8
0
  6
CONTINUOUS
 62
     3
100
AcDbLine
 10
66.711445
 20
136.847586
 30
0.0
 11
66.703801
 21
136.84739
 31
0.0
  0
LINE
  5
4CC
330
4AA
100
AcDbEntity
  8
0
  6
CONTINUOUS
 62
     3
100
AcDbLine
 10
66.703801
 20
136.84739
 30
0.0
 11
66.694487
 21
136.84716
 31
0.0
  0
LINE
  5
4CD
330
4AA
100
AcDbEntity
  8
0
  6
CONTINUOUS
 62
     3
100
AcDbLine
 10
66.694487
 20
136.84716
 30
0.0
 11
66.685298
 21
136.846944
 31
0.0
  0
LINE
  5
4CE
330
4AA
100
AcDbEntity
  8
0
  6
CONTINUOUS
 62
     3
100
AcDbLine
 10
66.685298
 20
136.846944
 30
0.0
 11
66.676221
 21
136.846739
 31
0.0
  0
LINE
  5
4CF
330
4AA
100
AcDbEntity
  8
0
  6
CONTINUOUS
 62
     3
100
AcDbLine
 10
66.676221
 20
136.846739
 30
0.0
 11
66.667246
 21
136.846547
 31
0.0
  0
LINE
  5
4D0
330
4AA
100
AcDbEntity
  8
0
  6
CONTINUOUS
 62
     3
100
AcDbLine
 10
66.667246
 20
136.846547
 30
0.0
 11
66.658362
 21
136.846367
 31
0.0
  0
LINE
  5
4D1
330
4AA
100
AcDbEntity
  8
0
  6
CONTINUOUS
 62
     3
100
AcDbLine
 10
66.658362
 20
136.846367
 30
0.0
 11
66.649559
 21
136.846199
 31
0.0
  0
LINE
  5
4D2
330
4AA
100
AcDbEntity
  8
0
  6
CONTINUOUS
 62
     3
100
AcDbLine
 10
66.649559
 20
136.846199
 30
0.0
 11
66.640825
 21
136.846041
 31
0.0
  0
LINE
  5
4D3
330
4AA
100
AcDbEntity
  8
0
  6
CONTINUOUS
 62
     3
100
AcDbLine
 10
66.640825
 20
136.846041
 30
0.0
 11
66.632148
 21
136.845894
 31
0.0
  0
LINE
  5
4D4
330
4AA
100
AcDbEntity
  8
0
  6
CONTINUOUS
 62
     3
100
AcDbLine
 10
66.632148
 20
136.845894
 30
0.0
 11
66.62352
 21
136.845758
 31
0.0
  0
LINE
  5
4D5
330
4AA
100
AcDbEntity
  8
0
  6
CONTINUOUS
 62
     3
100
AcDbLine
 10
66.62352
 20
136.845758
 30
0.0
 11
66.614927
 21
136.845632
 31
0.0
  0
LINE
  5
4D6
330
4AA
100
AcDbEntity
  8
0
  6
CONTINUOUS
 62
     3
100
AcDbLine
 10
66.614927
 20
136.845632
 30
0.0
 11
66.60636
 21
136.845515
 31
0.0
  0
LINE
  5
4D7
330
4AA
100
AcDbEntity
  8
0
  6
CONTINUOUS
 62
     3
100
AcDbLine
 10
66.60636
 20
136.845515
 30
0.0
 11
66.597807
 21
136.845408
 31
0.0
  0
LINE
  5
4D8
330
4AA
100
AcDbEntity
  8
0
  6
CONTINUOUS
 62
     3
100
AcDbLine
 10
66.597807
 20
136.845408
 30
0.0
 11
66.589258
 21
136.84531
 31
0.0
  0
LINE
  5
4D9
330
4AA
100
AcDbEntity
  8
0
  6
CONTINUOUS
 62
     3
100
AcDbLine
 10
66.589258
 20
136.84531
 30
0.0
 11
66.580701
 21
136.845221
 31
0.0
  0
LINE
  5
4DA
330
4AA
100
AcDbEntity
  8
0
  6
CONTINUOUS
 62
     3
100
AcDbLine
 10
66.580701
 20
136.845221
 30
0.0
 11
66.572126
 21
136.84514
 31
0.0
  0
LINE
  5
4DB
330
4AA
100
AcDbEntity
  8
0
  6
CONTINUOUS
 62
     3
100
AcDbLine
 10
66.572126
 20
136.84514
 30
0.0
 11
66.563522
 21
136.845066
 31
0.0
  0
LINE
  5
4DC
330
4AA
100
AcDbEntity
  8
0
  6
CONTINUOUS
 62
     3
100
AcDbLine
 10
66.563522
 20
136.845066
 30
0.0
 11
66.557673
 21
136.845021
 31
0.0
  0
LINE
  5
4DD
330
4AA
100
AcDbEntity
  8
0
  6
CONTINUOUS
 62
     3
100
AcDbLine
 10
66.557673
 20
136.845021
 30
0.0
 11
66.551807
 21
136.844979
 31
0.0
  0
LINE
  5
4DE
330
4AA
100
AcDbEntity
  8
0
  6
CONTINUOUS
 62
     3
100
AcDbLine
 10
66.551807
 20
136.844979
 30
0.0
 11
66.545925
 21
136.84494
 31
0.0
  0
LINE
  5
4DF
330
4AA
100
AcDbEntity
  8
0
  6
CONTINUOUS
 62
     3
100
AcDbLine
 10
66.545925
 20
136.84494
 30
0.0
 11
66.540028
 21
136.844904
 31
0.0
  0
LINE
  5
4E0
330
4AA
100
AcDbEntity
  8
0
  6
CONTINUOUS
 62
     3
100
AcDbLine
 10
66.540028
 20
136.844904
 30
0.0
 11
66.534117
 21
136.844871
 31
0.0
  0
LINE
  5
4E1
330
4AA
100
AcDbEntity
  8
0
  6
CONTINUOUS
 62
     3
100
AcDbLine
 10
66.534117
 20
136.844871
 30
0.0
 11
66.528194
 21
136.84484
 31
0.0
  0
LINE
  5
4E2
330
4AA
100
AcDbEntity
  8
0
  6
CONTINUOUS
 62
     3
100
AcDbLine
 10
66.528194
 20
136.84484
 30
0.0
 11
66.516313
 21
136.844784
 31
0.0
  0
LINE
  5
4E3
330
4AA
100
AcDbEntity
  8
0
  6
CONTINUOUS
 62
     3
100
AcDbLine
 10
66.516313
 20
136.844784
 30
0.0
 11
66.504395
 21
136.844735
 31
0.0
  0
LINE
  5
4E4
330
4AA
100
AcDbEntity
  8
0
  6
CONTINUOUS
 62
     3
100
AcDbLine
 10
66.504395
 20
136.844735
 30
0.0
 11
66.492449
 21
136.844691
 31
0.0
  0
LINE
  5
4E5
330
4AA
100
AcDbEntity
  8
0
  6
CONTINUOUS
 62
     3
100
AcDbLine
 10
66.492449
 20
136.844691
 30
0.0
 11
66.480485
 21
136.844651
 31
0.0
  0
LINE
  5
4E6
330
4AA
100
AcDbEntity
  8
0
  6
CONTINUOUS
 62
     3
100
AcDbLine
 10
66.480485
 20
136.844651
 30
0.0
 11
66.468512
 21
136.844613
 31
0.0
  0
ENDBLK
  5
4AC
330
4AA
100
AcDbEntity
  8
0
100
AcDbBlockEnd
  0
BLOCK
  5
4E8
330
4E7
100
AcDbEntity
  8
0
100
AcDbBlockBegin
  2
BLKF035
 70
     0
 71
     0
 10
0.0
 20
0.0
 30
0.0
  3
BLKF035
  1

  0
LINE
  5
4EB
330
4E7
100
AcDbEntity
  8
0
  6
CONTINUOUS
 62
     3
100
AcDbLine
 10
66.024263
 20
116.905026
 30
0.0
 11
66.021507
 21
116.904903
 31
0.0
  0
LINE
  5
4EC
330
4E7
100
AcDbEntity
  8
0
  6
CONTINUOUS
 62
     3
100
AcDbLine
 10
66.021507
 20
116.904903
 30
0.0
 11
66.019663
 21
116.904816
 31
0.0
  0
LINE
  5
4ED
330
4E7
100
AcDbEntity
  8
0
  6
CONTINUOUS
 62
     3
100
AcDbLine
 10
66.019663
 20
116.904816
 30
0.0
 11
66.02928
 21
116.90523
 31
0.0
  0
LINE
  5
4EE
330
4E7
100
AcDbEntity
  8
0
  6
CONTINUOUS
 62
     3
100
AcDbLine
 10
66.02928
 20
116.90523
 30
0.0
 11
66.045586
 21
116.905933
 31
0.0
  0
LINE
  5
4EF
330
4E7
100
AcDbEntity
  8
0
  6
CONTINUOUS
 62
     3
100
AcDbLine
 10
66.045586
 20
116.905933
 30
0.0
 11
66.063811
 21
116.90671
 31
0.0
  0
LINE
  5
4F0
330
4E7
100
AcDbEntity
  8
0
  6
CONTINUOUS
 62
     3
100
AcDbLine
 10
66.063811
 20
116.90671
 30
0.0
 11
66.080619
 21
116.907411
 31
0.0
  0
LINE
  5
4F1
330
4E7
100
AcDbEntity
  8
0
  6
CONTINUOUS
 62
     3
100
AcDbLine
 10
66.080619
 20
116.907411
 30
0.0
 11
66.094821
 21
116.907982
 31
0.0
  0
LINE
  5
4F2
330
4E7
100
AcDbEntity
  8
0
  6
CONTINUOUS
 62
     3
100
AcDbLine
 10
66.094821
 20
116.907982
 30
0.0
 11
66.106889
 21
116.908446
 31
0.0
  0
LINE
  5
4F3
330
4E7
100
AcDbEntity
  8
0
  6
CONTINUOUS
 62
     3
100
AcDbLine
 10
66.106889
 20
116.908446
 30
0.0
 11
66.117293
 21
116.908824
 31
0.0
  0
LINE
  5
4F4
330
4E7
100
AcDbEntity
  8
0
  6
CONTINUOUS
 62
     3
100
AcDbLine
 10
66.117293
 20
116.908824
 30
0.0
 11
66.126504
 21
116.909136
 31
0.0
  0
LINE
  5
4F5
330
4E7
100
AcDbEntity
  8
0
  6
CONTINUOUS
 62
     3
100
AcDbLine
 10
66.126504
 20
116.909136
 30
0.0
 11
66.134992
 21
116.909403
 31
0.0
  0
LINE
  5
4F6
330
4E7
100
AcDbEntity
  8
0
  6
CONTINUOUS
 62
     3
100
AcDbLine
 10
66.134992
 20
116.909403
 30
0.0
 11
66.143228
 21
116.909647
 31
0.0
  0
LINE
  5
4F7
330
4E7
100
AcDbEntity
  8
0
  6
CONTINUOUS
 62
     3
100
AcDbLine
 10
66.143228
 20
116.909647
 30
0.0
 11
66.151683
 21
116.909889
 31
0.0
  0
LINE
  5
4F8
330
4E7
100
AcDbEntity
  8
0
  6
CONTINUOUS
 62
     3
100
AcDbLine
 10
66.151683
 20
116.909889
 30
0.0
 11
66.164598
 21
116.910254
 31
0.0
  0
LINE
  5
4F9
330
4E7
100
AcDbEntity
  8
0
  6
CONTINUOUS
 62
     3
100
AcDbLine
 10
66.164598
 20
116.910254
 30
0.0
 11
66.178664
 21
116.910647
 31
0.0
  0
LINE
  5
4FA
330
4E7
100
AcDbEntity
  8
0
  6
CONTINUOUS
 62
     3
100
AcDbLine
 10
66.178664
 20
116.910647
 30
0.0
 11
66.193669
 21
116.911058
 31
0.0
  0
LINE
  5
4FB
330
4E7
100
AcDbEntity
  8
0
  6
CONTINUOUS
 62
     3
100
AcDbLine
 10
66.193669
 20
116.911058
 30
0.0
 11
66.2094
 21
116.911478
 31
0.0
  0
LINE
  5
4FC
330
4E7
100
AcDbEntity
  8
0
  6
CONTINUOUS
 62
     3
100
AcDbLine
 10
66.2094
 20
116.911478
 30
0.0
 11
66.225644
 21
116.911897
 31
0.0
  0
LINE
  5
4FD
330
4E7
100
AcDbEntity
  8
0
  6
CONTINUOUS
 62
     3
100
AcDbLine
 10
66.225644
 20
116.911897
 30
0.0
 11
66.24219
 21
116.912305
 31
0.0
  0
LINE
  5
4FE
330
4E7
100
AcDbEntity
  8
0
  6
CONTINUOUS
 62
     3
100
AcDbLine
 10
66.24219
 20
116.912305
 30
0.0
 11
66.258824
 21
116.912693
 31
0.0
  0
LINE
  5
4FF
330
4E7
100
AcDbEntity
  8
0
  6
CONTINUOUS
 62
     3
100
AcDbLine
 10
66.258824
 20
116.912693
 30
0.0
 11
66.267107
 21
116.912877
 31
0.0
  0
LINE
  5
500
330
4E7
100
AcDbEntity
  8
0
  6
CONTINUOUS
 62
     3
100
AcDbLine
 10
66.267107
 20
116.912877
 30
0.0
 11
66.275333
 21
116.913052
 31
0.0
  0
LINE
  5
501
330
4E7
100
AcDbEntity
  8
0
  6
CONTINUOUS
 62
     3
100
AcDbLine
 10
66.275333
 20
116.913052
 30
0.0
 11
66.284906
 21
116.913245
 31
0.0
  0
LINE
  5
502
330
4E7
100
AcDbEntity
  8
0
  6
CONTINUOUS
 62
     3
100
AcDbLine
 10
66.284906
 20
116.913245
 30
0.0
 11
66.294372
 21
116.913426
 31
0.0
  0
LINE
  5
503
330
4E7
100
AcDbEntity
  8
0
  6
CONTINUOUS
 62
     3
100
AcDbLine
 10
66.294372
 20
116.913426
 30
0.0
 11
66.303739
 21
116.913594
 31
0.0
  0
LINE
  5
504
330
4E7
100
AcDbEntity
  8
0
  6
CONTINUOUS
 62
     3
100
AcDbLine
 10
66.303739
 20
116.913594
 30
0.0
 11
66.313018
 21
116.913749
 31
0.0
  0
LINE
  5
505
330
4E7
100
AcDbEntity
  8
0
  6
CONTINUOUS
 62
     3
100
AcDbLine
 10
66.313018
 20
116.913749
 30
0.0
 11
66.322217
 21
116.913893
 31
0.0
  0
LINE
  5
506
330
4E7
100
AcDbEntity
  8
0
  6
CONTINUOUS
 62
     3
100
AcDbLine
 10
66.322217
 20
116.913893
 30
0.0
 11
66.331345
 21
116.914026
 31
0.0
  0
LINE
  5
507
330
4E7
100
AcDbEntity
  8
0
  6
CONTINUOUS
 62
     3
100
AcDbLine
 10
66.331345
 20
116.914026
 30
0.0
 11
66.340413
 21
116.914147
 31
0.0
  0
LINE
  5
508
330
4E7
100
AcDbEntity
  8
0
  6
CONTINUOUS
 62
     3
100
AcDbLine
 10
66.340413
 20
116.914147
 30
0.0
 11
66.349428
 21
116.914258
 31
0.0
  0
LINE
  5
509
330
4E7
100
AcDbEntity
  8
0
  6
CONTINUOUS
 62
     3
100
AcDbLine
 10
66.349428
 20
116.914258
 30
0.0
 11
66.3584
 21
116.914358
 31
0.0
  0
LINE
  5
50A
330
4E7
100
AcDbEntity
  8
0
  6
CONTINUOUS
 62
     3
100
AcDbLine
 10
66.3584
 20
116.914358
 30
0.0
 11
66.367339
 21
116.914449
 31
0.0
  0
LINE
  5
50B
330
4E7
100
AcDbEntity
  8
0
  6
CONTINUOUS
 62
     3
100
AcDbLine
 10
66.367339
 20
116.914449
 30
0.0
 11
66.376254
 21
116.91453
 31
0.0
  0
LINE
  5
50C
330
4E7
100
AcDbEntity
  8
0
  6
CONTINUOUS
 62
     3
100
AcDbLine
 10
66.376254
 20
116.91453
 30
0.0
 11
66.385153
 21
116.914602
 31
0.0
  0
LINE
  5
50D
330
4E7
100
AcDbEntity
  8
0
  6
CONTINUOUS
 62
     3
100
AcDbLine
 10
66.385153
 20
116.914602
 30
0.0
 11
66.394047
 21
116.914666
 31
0.0
  0
LINE
  5
50E
330
4E7
100
AcDbEntity
  8
0
  6
CONTINUOUS
 62
     3
100
AcDbLine
 10
66.394047
 20
116.914666
 30
0.0
 11
66.402943
 21
116.914722
 31
0.0
  0
LINE
  5
50F
330
4E7
100
AcDbEntity
  8
0
  6
CONTINUOUS
 62
     3
100
AcDbLine
 10
66.402943
 20
116.914722
 30
0.0
 11
66.411853
 21
116.914769
 31
0.0
  0
LINE
  5
510
330
4E7
100
AcDbEntity
  8
0
  6
CONTINUOUS
 62
     3
100
AcDbLine
 10
66.411853
 20
116.914769
 30
0.0
 11
66.420783
 21
116.91481
 31
0.0
  0
LINE
  5
511
330
4E7
100
AcDbEntity
  8
0
  6
CONTINUOUS
 62
     3
100
AcDbLine
 10
66.420783
 20
116.91481
 30
0.0
 11
66.430068
 21
116.914845
 31
0.0
  0
LINE
  5
512
330
4E7
100
AcDbEntity
  8
0
  6
CONTINUOUS
 62
     3
100
AcDbLine
 10
66.430068
 20
116.914845
 30
0.0
 11
66.439383
 21
116.914872
 31
0.0
  0
LINE
  5
513
330
4E7
100
AcDbEntity
  8
0
  6
CONTINUOUS
 62
     3
100
AcDbLine
 10
66.439383
 20
116.914872
 30
0.0
 11
66.448726
 21
116.914891
 31
0.0
  0
LINE
  5
514
330
4E7
100
AcDbEntity
  8
0
  6
CONTINUOUS
 62
     3
100
AcDbLine
 10
66.448726
 20
116.914891
 30
0.0
 11
66.458094
 21
116.914902
 31
0.0
  0
LINE
  5
515
330
4E7
100
AcDbEntity
  8
0
  6
CONTINUOUS
 62
     3
100
AcDbLine
 10
66.458094
 20
116.914902
 30
0.0
 11
66.467485
 21
116.914906
 31
0.0
  0
LINE
  5
516
330
4E7
100
AcDbEntity
  8
0
  6
CONTINUOUS
 62
     3
100
AcDbLine
 10
66.467485
 20
116.914906
 30
0.0
 11
66.476895
 21
116.914902
 31
0.0
  0
LINE
  5
517
330
4E7
100
AcDbEntity
  8
0
  6
CONTINUOUS
 62
     3
100
AcDbLine
 10
66.476895
 20
116.914902
 30
0.0
 11
66.486323
 21
116.914889
 31
0.0
  0
LINE
  5
518
330
4E7
100
AcDbEntity
  8
0
  6
CONTINUOUS
 62
     3
100
AcDbLine
 10
66.486323
 20
116.914889
 30
0.0
 11
66.495765
 21
116.914869
 31
0.0
  0
LINE
  5
519
330
4E7
100
AcDbEntity
  8
0
  6
CONTINUOUS
 62
     3
100
AcDbLine
 10
66.495765
 20
116.914869
 30
0.0
 11
66.50522
 21
116.914839
 31
0.0
  0
LINE
  5
51A
330
4E7
100
AcDbEntity
  8
0
  6
CONTINUOUS
 62
     3
100
AcDbLine
 10
66.50522
 20
116.914839
 30
0.0
 11
66.514683
 21
116.914802
 31
0.0
  0
LINE
  5
51B
330
4E7
100
AcDbEntity
  8
0
  6
CONTINUOUS
 62
     3
100
AcDbLine
 10
66.514683
 20
116.914802
 30
0.0
 11
66.524153
 21
116.914756
 31
0.0
  0
LINE
  5
51C
330
4E7
100
AcDbEntity
  8
0
  6
CONTINUOUS
 62
     3
100
AcDbLine
 10
66.524153
 20
116.914756
 30
0.0
 11
66.533627
 21
116.914701
 31
0.0
  0
LINE
  5
51D
330
4E7
100
AcDbEntity
  8
0
  6
CONTINUOUS
 62
     3
100
AcDbLine
 10
66.533627
 20
116.914701
 30
0.0
 11
66.543102
 21
116.914637
 31
0.0
  0
LINE
  5
51E
330
4E7
100
AcDbEntity
  8
0
  6
CONTINUOUS
 62
     3
100
AcDbLine
 10
66.543102
 20
116.914637
 30
0.0
 11
66.552576
 21
116.914564
 31
0.0
  0
LINE
  5
51F
330
4E7
100
AcDbEntity
  8
0
  6
CONTINUOUS
 62
     3
100
AcDbLine
 10
66.552576
 20
116.914564
 30
0.0
 11
66.562046
 21
116.914483
 31
0.0
  0
LINE
  5
520
330
4E7
100
AcDbEntity
  8
0
  6
CONTINUOUS
 62
     3
100
AcDbLine
 10
66.562046
 20
116.914483
 30
0.0
 11
66.571509
 21
116.914392
 31
0.0
  0
LINE
  5
521
330
4E7
100
AcDbEntity
  8
0
  6
CONTINUOUS
 62
     3
100
AcDbLine
 10
66.571509
 20
116.914392
 30
0.0
 11
66.580232
 21
116.9143
 31
0.0
  0
LINE
  5
522
330
4E7
100
AcDbEntity
  8
0
  6
CONTINUOUS
 62
     3
100
AcDbLine
 10
66.580232
 20
116.9143
 30
0.0
 11
66.588947
 21
116.9142
 31
0.0
  0
LINE
  5
523
330
4E7
100
AcDbEntity
  8
0
  6
CONTINUOUS
 62
     3
100
AcDbLine
 10
66.588947
 20
116.9142
 30
0.0
 11
66.597656
 21
116.914092
 31
0.0
  0
LINE
  5
524
330
4E7
100
AcDbEntity
  8
0
  6
CONTINUOUS
 62
     3
100
AcDbLine
 10
66.597656
 20
116.914092
 30
0.0
 11
66.606359
 21
116.913976
 31
0.0
  0
LINE
  5
525
330
4E7
100
AcDbEntity
  8
0
  6
CONTINUOUS
 62
     3
100
AcDbLine
 10
66.606359
 20
116.913976
 30
0.0
 11
66.615057
 21
116.913853
 31
0.0
  0
LINE
  5
526
330
4E7
100
AcDbEntity
  8
0
  6
CONTINUOUS
 62
     3
100
AcDbLine
 10
66.615057
 20
116.913853
 30
0.0
 11
66.623749
 21
116.913721
 31
0.0
  0
LINE
  5
527
330
4E7
100
AcDbEntity
  8
0
  6
CONTINUOUS
 62
     3
100
AcDbLine
 10
66.623749
 20
116.913721
 30
0.0
 11
66.632438
 21
116.913582
 31
0.0
  0
LINE
  5
528
330
4E7
100
AcDbEntity
  8
0
  6
CONTINUOUS
 62
     3
100
AcDbLine
 10
66.632438
 20
116.913582
 30
0.0
 11
66.641123
 21
116.913436
 31
0.0
  0
LINE
  5
529
330
4E7
100
AcDbEntity
  8
0
  6
CONTINUOUS
 62
     3
100
AcDbLine
 10
66.641123
 20
116.913436
 30
0.0
 11
66.649805
 21
116.913281
 31
0.0
  0
LINE
  5
52A
330
4E7
100
AcDbEntity
  8
0
  6
CONTINUOUS
 62
     3
100
AcDbLine
 10
66.649805
 20
116.913281
 30
0.0
 11
66.658485
 21
116.913119
 31
0.0
  0
LINE
  5
52B
330
4E7
100
AcDbEntity
  8
0
  6
CONTINUOUS
 62
     3
100
AcDbLine
 10
66.658485
 20
116.913119
 30
0.0
 11
66.667163
 21
116.912949
 31
0.0
  0
LINE
  5
52C
330
4E7
100
AcDbEntity
  8
0
  6
CONTINUOUS
 62
     3
100
AcDbLine
 10
66.667163
 20
116.912949
 30
0.0
 11
66.67584
 21
116.912771
 31
0.0
  0
LINE
  5
52D
330
4E7
100
AcDbEntity
  8
0
  6
CONTINUOUS
 62
     3
100
AcDbLine
 10
66.67584
 20
116.912771
 30
0.0
 11
66.684517
 21
116.912586
 31
0.0
  0
LINE
  5
52E
330
4E7
100
AcDbEntity
  8
0
  6
CONTINUOUS
 62
     3
100
AcDbLine
 10
66.684517
 20
116.912586
 30
0.0
 11
66.693194
 21
116.912393
 31
0.0
  0
LINE
  5
52F
330
4E7
100
AcDbEntity
  8
0
  6
CONTINUOUS
 62
     3
100
AcDbLine
 10
66.693194
 20
116.912393
 30
0.0
 11
66.701872
 21
116.912193
 31
0.0
  0
LINE
  5
530
330
4E7
100
AcDbEntity
  8
0
  6
CONTINUOUS
 62
     3
100
AcDbLine
 10
66.701872
 20
116.912193
 30
0.0
 11
66.710551
 21
116.911985
 31
0.0
  0
LINE
  5
531
330
4E7
100
AcDbEntity
  8
0
  6
CONTINUOUS
 62
     3
100
AcDbLine
 10
66.710551
 20
116.911985
 30
0.0
 11
66.724527
 21
116.911635
 31
0.0
  0
LINE
  5
532
330
4E7
100
AcDbEntity
  8
0
  6
CONTINUOUS
 62
     3
100
AcDbLine
 10
66.724527
 20
116.911635
 30
0.0
 11
66.738508
 21
116.911265
 31
0.0
  0
LINE
  5
533
330
4E7
100
AcDbEntity
  8
0
  6
CONTINUOUS
 62
     3
100
AcDbLine
 10
66.738508
 20
116.911265
 30
0.0
 11
66.752492
 21
116.910876
 31
0.0
  0
LINE
  5
534
330
4E7
100
AcDbEntity
  8
0
  6
CONTINUOUS
 62
     3
100
AcDbLine
 10
66.752492
 20
116.910876
 30
0.0
 11
66.766479
 21
116.910467
 31
0.0
  0
LINE
  5
535
330
4E7
100
AcDbEntity
  8
0
  6
CONTINUOUS
 62
     3
100
AcDbLine
 10
66.766479
 20
116.910467
 30
0.0
 11
66.780467
 21
116.910039
 31
0.0
  0
LINE
  5
536
330
4E7
100
AcDbEntity
  8
0
  6
CONTINUOUS
 62
     3
100
AcDbLine
 10
66.780467
 20
116.910039
 30
0.0
 11
66.794455
 21
116.909592
 31
0.0
  0
LINE
  5
537
330
4E7
100
AcDbEntity
  8
0
  6
CONTINUOUS
 62
     3
100
AcDbLine
 10
66.794455
 20
116.909592
 30
0.0
 11
66.808443
 21
116.909126
 31
0.0
  0
LINE
  5
538
330
4E7
100
AcDbEntity
  8
0
  6
CONTINUOUS
 62
     3
100
AcDbLine
 10
66.808443
 20
116.909126
 30
0.0
 11
66.822429
 21
116.908641
 31
0.0
  0
LINE
  5
539
330
4E7
100
AcDbEntity
  8
0
  6
CONTINUOUS
 62
     3
100
AcDbLine
 10
66.822429
 20
116.908641
 30
0.0
 11
66.83144
 21
116.908318
 31
0.0
  0
LINE
  5
53A
330
4E7
100
AcDbEntity
  8
0
  6
CONTINUOUS
 62
     3
100
AcDbLine
 10
66.83144
 20
116.908318
 30
0.0
 11
66.840449
 21
116.907987
 31
0.0
  0
LINE
  5
53B
330
4E7
100
AcDbEntity
  8
0
  6
CONTINUOUS
 62
     3
100
AcDbLine
 10
66.840449
 20
116.907987
 30
0.0
 11
66.849457
 21
116.907648
 31
0.0
  0
LINE
  5
53C
330
4E7
100
AcDbEntity
  8
0
  6
CONTINUOUS
 62
     3
100
AcDbLine
 10
66.849457
 20
116.907648
 30
0.0
 11
66.858465
 21
116.907301
 31
0.0
  0
LINE
  5
53D
330
4E7
100
AcDbEntity
  8
0
  6
CONTINUOUS
 62
     3
100
AcDbLine
 10
66.858465
 20
116.907301
 30
0.0
 11
66.867472
 21
116.906945
 31
0.0
  0
LINE
  5
53E
330
4E7
100
AcDbEntity
  8
0
  6
CONTINUOUS
 62
     3
100
AcDbLine
 10
66.867472
 20
116.906945
 30
0.0
 11
66.876479
 21
116.90658
 31
0.0
  0
LINE
  5
53F
330
4E7
100
AcDbEntity
  8
0
  6
CONTINUOUS
 62
     3
100
AcDbLine
 10
66.876479
 20
116.90658
 30
0.0
 11
66.885485
 21
116.906206
 31
0.0
  0
LINE
  5
540
330
4E7
100
AcDbEntity
  8
0
  6
CONTINUOUS
 62
     3
100
AcDbLine
 10
66.885485
 20
116.906206
 30
0.0
 11
66.894491
 21
116.905824
 31
0.0
  0
LINE
  5
541
330
4E7
100
AcDbEntity
  8
0
  6
CONTINUOUS
 62
     3
100
AcDbLine
 10
66.894491
 20
116.905824
 30
0.0
 11
66.906159
 21
116.905315
 31
0.0
  0
LINE
  5
542
330
4E7
100
AcDbEntity
  8
0
  6
CONTINUOUS
 62
     3
100
AcDbLine
 10
66.906159
 20
116.905315
 30
0.0
 11
66.917827
 21
116.904799
 31
0.0
  0
ENDBLK
  5
4E9
330
4E7
100
AcDbEntity
  8
0
100
AcDbBlockEnd
  0
BLOCK
  5
555
330
554
100
AcDbEntity
  8
0
100
AcDbBlockBegin
  2
BLKF036
 70
     0
 71
     0
 10
0.0
 20
0.0
 30
0.0
  3
BLKF036
  1

  0
LINE
  5
558
330
554
100
AcDbEntity
  8
0
  6
CONTINUOUS
 62
     3
100
AcDbLine
 10
56.083499
 20
132.629763
 30
0.0
 11
53.251183
 21
132.629763
 31
0.0
  0
LINE
  5
559
330
554
100
AcDbEntity
  8
0
  6
CONTINUOUS
 62
     3
100
AcDbLine
 10
53.251183
 20
132.629763
 30
0.0
 11
53.213043
 21
132.62831
 31
0.0
  0
LINE
  5
55A
330
554
100
AcDbEntity
  8
0
  6
CONTINUOUS
 62
     3
100
AcDbLine
 10
53.213043
 20
132.62831
 30
0.0
 11
53.175127
 21
132.623944
 31
0.0
  0
LINE
  5
55B
330
554
100
AcDbEntity
  8
0
  6
CONTINUOUS
 62
     3
100
AcDbLine
 10
53.175127
 20
132.623944
 30
0.0
 11
53.137651
 21
132.616702
 31
0.0
  0
LINE
  5
55C
330
554
100
AcDbEntity
  8
0
  6
CONTINUOUS
 62
     3
100
AcDbLine
 10
53.137651
 20
132.616702
 30
0.0
 11
53.10083
 21
132.606621
 31
0.0
  0
LINE
  5
55D
330
554
100
AcDbEntity
  8
0
  6
CONTINUOUS
 62
     3
100
AcDbLine
 10
53.10083
 20
132.606621
 30
0.0
 11
53.064896
 21
132.593762
 31
0.0
  0
LINE
  5
55E
330
554
100
AcDbEntity
  8
0
  6
CONTINUOUS
 62
     3
100
AcDbLine
 10
53.064896
 20
132.593762
 30
0.0
 11
53.030042
 21
132.578205
 31
0.0
  0
LINE
  5
55F
330
554
100
AcDbEntity
  8
0
  6
CONTINUOUS
 62
     3
100
AcDbLine
 10
53.030042
 20
132.578205
 30
0.0
 11
52.996477
 21
132.560025
 31
0.0
  0
LINE
  5
560
330
554
100
AcDbEntity
  8
0
  6
CONTINUOUS
 62
     3
100
AcDbLine
 10
52.996477
 20
132.560025
 30
0.0
 11
52.964395
 21
132.539343
 31
0.0
  0
ENDBLK
  5
556
330
554
100
AcDbEntity
  8
0
100
AcDbBlockEnd
  0
BLOCK
  5
568
330
567
100
AcDbEntity
  8
0
100
AcDbBlockBegin
  2
BLKF037
 70
     0
 71
     0
 10
0.0
 20
0.0
 30
0.0
  3
BLKF037
  1

  0
LINE
  5
56B
330
567
100
AcDbEntity
  8
0
  6
CONTINUOUS
 62
     3
100
AcDbLine
 10
58.333499
 20
121.129762
 30
0.0
 11
59.258496
 21
121.129762
 31
0.0
  0
LINE
  5
56C
330
567
100
AcDbEntity
  8
0
  6
CONTINUOUS
 62
     3
100
AcDbLine
 10
59.258496
 20
121.129762
 30
0.0
 11
59.307275
 21
121.134568
 31
0.0
  0
LINE
  5
56D
330
567
100
AcDbEntity
  8
0
  6
CONTINUOUS
 62
     3
100
AcDbLine
 10
59.307275
 20
121.134568
 30
0.0
 11
59.354169
 21
121.148798
 31
0.0
  0
LINE
  5
56E
330
567
100
AcDbEntity
  8
0
  6
CONTINUOUS
 62
     3
100
AcDbLine
 10
59.354169
 20
121.148798
 30
0.0
 11
59.39739
 21
121.171895
 31
0.0
  0
LINE
  5
56F
330
567
100
AcDbEntity
  8
0
  6
CONTINUOUS
 62
     3
100
AcDbLine
 10
59.39739
 20
121.171895
 30
0.0
 11
59.435276
 21
121.202986
 31
0.0
  0
LINE
  5
570
330
567
100
AcDbEntity
  8
0
  6
CONTINUOUS
 62
     3
100
AcDbLine
 10
59.435276
 20
121.202986
 30
0.0
 11
59.466368
 21
121.240872
 31
0.0
  0
LINE
  5
571
330
567
100
AcDbEntity
  8
0
  6
CONTINUOUS
 62
     3
100
AcDbLine
 10
59.466368
 20
121.240872
 30
0.0
 11
59.489472
 21
121.284093
 31
0.0
  0
LINE
  5
572
330
567
100
AcDbEntity
  8
0
  6
CONTINUOUS
 62
     3
100
AcDbLine
 10
59.489472
 20
121.284093
 30
0.0
 11
59.503695
 21
121.330995
 31
0.0
  0
LINE
  5
573
330
567
100
AcDbEntity
  8
0
  6
CONTINUOUS
 62
     3
100
AcDbLine
 10
59.503695
 20
121.330995
 30
0.0
 11
59.508501
 21
121.379766
 31
0.0
  0
ENDBLK
  5
569
330
567
100
AcDbEntity
  8
0
100
AcDbBlockEnd
  0
BLOCK
  5
5AF
330
5AE
100
AcDbEntity
  8
0
100
AcDbBlockBegin
  2
BLKF038
 70
     0
 71
     0
 10
0.0
 20
0.0
 30
0.0
  3
BLKF038
  1

  0
TEXT
  5
5B2
330
5AE
100
AcDbEntity
  8
0
 62
     7
100
AcDbText
 10
36.70195
 20
123.832207
 30
0.0
 40
3.247003
  1
φ23
 50
90.0
 41
0.716723
  7
ED_VECTOR
 72
     5
 11
36.70195
 21
129.927258
 31
0.0
100
AcDbText
  0
LINE
  5
5B3
330
5AE
100
AcDbEntity
  8
0
  6
CONTINUOUS
 62
     7
100
AcDbLine
 10
53.667341
 20
121.129762
 30
0.0
 11
36.701955
 21
121.129762
 31
0.0
  0
LINE
  5
5B4
330
5AE
100
AcDbEntity
  8
0
  6
CONTINUOUS
 62
     7
100
AcDbLine
 10
53.667341
 20
132.629763
 30
0.0
 11
36.701955
 21
132.629763
 31
0.0
  0
LINE
  5
5B5
330
5AE
100
AcDbEntity
  8
0
  6
CONTINUOUS
 62
     7
100
AcDbLine
 10
37.701955
 20
121.129762
 30
0.0
 11
37.701955
 21
132.629763
 31
0.0
  0
LINE
  5
5B6
330
5AE
100
AcDbEntity
  8
0
  6
CONTINUOUS
 62
     7
100
AcDbLine
 10
37.701955
 20
121.129762
 30
0.0
 11
37.701955
 21
124.129762
 31
0.0
  0
LINE
  5
5B7
330
5AE
100
AcDbEntity
  8
0
  6
CONTINUOUS
 62
     7
100
AcDbLine
 10
37.701955
 20
121.129762
 30
0.0
 11
38.478412
 21
124.02754
 31
0.0
  0
LINE
  5
5B8
330
5AE
100
AcDbEntity
  8
0
  6
CONTINUOUS
 62
     7
100
AcDbLine
 10
37.701955
 20
121.129762
 30
0.0
 11
36.925498
 21
124.02754
 31
0.0
  0
LINE
  5
5B9
330
5AE
100
AcDbEntity
  8
0
  6
CONTINUOUS
 62
     7
100
AcDbLine
 10
37.701955
 20
132.629763
 30
0.0
 11
37.701955
 21
129.629763
 31
0.0
  0
LINE
  5
5BA
330
5AE
100
AcDbEntity
  8
0
  6
CONTINUOUS
 62
     7
100
AcDbLine
 10
37.701955
 20
132.629763
 30
0.0
 11
38.478412
 21
129.731985
 31
0.0
  0
LINE
  5
5BB
330
5AE
100
AcDbEntity
  8
0
  6
CONTINUOUS
 62
     7
100
AcDbLine
 10
37.701955
 20
132.629763
 30
0.0
 11
36.925498
 21
129.731985
 31
0.0
  0
ENDBLK
  5
5B0
330
5AE
100
AcDbEntity
  8
0
100
AcDbBlockEnd
  0
BLOCK
  5
5BD
330
5BC
100
AcDbEntity
  8
0
100
AcDbBlockBegin
  2
BLKF039
 70
     0
 71
     0
 10
0.0
 20
0.0
 30
0.0
  3
BLKF039
  1

  0
TEXT
  5
5C0
330
5BC
100
AcDbEntity
  8
0
 62
     7
100
AcDbText
 10
30.270779
 20
121.284073
 30
0.0
 40
3.489689
  1
φ40
 50
90.0
 41
0.667902
  7
ED_VECTOR
 72
     5
 11
30.270779
 21
127.38847
 31
0.0
100
AcDbText
  0
TEXT
  5
5C1
330
5BC
100
AcDbEntity
  8
0
 62
     7
100
AcDbText
 10
28.525932
 20
127.388466
 30
0.0
 40
1.744845
  1
 0
 50
90.0
 41
0.644467
  7
ED_VECTOR
 72
     5
 11
28.525932
 21
129.423265
 31
0.0
100
AcDbText
  0
TEXT
  5
5C2
330
5BC
100
AcDbEntity
  8
0
 62
     7
100
AcDbText
 10
30.270779
 20
127.388466
 30
0.0
 40
1.744845
  1
-0.01
 50
90.0
 41
0.703728
  7
ED_VECTOR
 72
     5
 11
30.270779
 21
132.475463
 31
0.0
100
AcDbText
  0
LINE
  5
5C3
330
5BC
100
AcDbEntity
  8
0
  6
CONTINUOUS
 62
     7
100
AcDbLine
 10
69.068513
 20
116.879769
 30
0.0
 11
30.27078
 21
116.879769
 31
0.0
  0
LINE
  5
5C4
330
5BC
100
AcDbEntity
  8
0
  6
CONTINUOUS
 62
     7
100
AcDbLine
 10
69.068513
 20
136.879768
 30
0.0
 11
30.27078
 21
136.879768
 31
0.0
  0
LINE
  5
5C5
330
5BC
100
AcDbEntity
  8
0
  6
CONTINUOUS
 62
     7
100
AcDbLine
 10
31.27078
 20
116.879769
 30
0.0
 11
31.27078
 21
136.879768
 31
0.0
  0
LINE
  5
5C6
330
5BC
100
AcDbEntity
  8
0
  6
CONTINUOUS
 62
     7
100
AcDbLine
 10
31.27078
 20
116.879769
 30
0.0
 11
31.27078
 21
119.879769
 31
0.0
  0
LINE
  5
5C7
330
5BC
100
AcDbEntity
  8
0
  6
CONTINUOUS
 62
     7
100
AcDbLine
 10
31.27078
 20
116.879769
 30
0.0
 11
32.047237
 21
119.777547
 31
0.0
  0
LINE
  5
5C8
330
5BC
100
AcDbEntity
  8
0
  6
CONTINUOUS
 62
     7
100
AcDbLine
 10
31.27078
 20
116.879769
 30
0.0
 11
30.494323
 21
119.777547
 31
0.0
  0
LINE
  5
5C9
330
5BC
100
AcDbEntity
  8
0
  6
CONTINUOUS
 62
     7
100
AcDbLine
 10
31.27078
 20
136.879768
 30
0.0
 11
31.27078
 21
133.879768
 31
0.0
  0
LINE
  5
5CA
330
5BC
100
AcDbEntity
  8
0
  6
CONTINUOUS
 62
     7
100
AcDbLine
 10
31.27078
 20
136.879768
 30
0.0
 11
32.047237
 21
133.98199
 31
0.0
  0
LINE
  5
5CB
330
5BC
100
AcDbEntity
  8
0
  6
CONTINUOUS
 62
     7
100
AcDbLine
 10
31.27078
 20
136.879768
 30
0.0
 11
30.494323
 21
133.98199
 31
0.0
  0
ENDBLK
  5
5BE
330
5BC
100
AcDbEntity
  8
0
100
AcDbBlockEnd
  0
BLOCK
  5
5CD
330
5CC
100
AcDbEntity
  8
0
100
AcDbBlockBegin
  2
BLKF040
 70
     0
 71
     0
 10
0.0
 20
0.0
 30
0.0
  3
BLKF040
  1

  0
TEXT
  5
5D0
330
5CC
100
AcDbEntity
  8
0
 62
     7
100
AcDbText
 10
51.25869
 20
144.153641
 30
0.0
 40
3.97507
  1
17.4
 41
0.605953
  7
ED_VECTOR
 72
     5
 11
59.058311
 21
144.153641
 31
0.0
100
AcDbText
  0
LINE
  5
5D1
330
5CC
100
AcDbEntity
  8
0
  6
CONTINUOUS
 62
     7
100
AcDbLine
 10
50.808502
 20
131.769495
 30
0.0
 11
50.808502
 21
144.153656
 31
0.0
  0
LINE
  5
5D2
330
5CC
100
AcDbEntity
  8
0
  6
CONTINUOUS
 62
     7
100
AcDbLine
 10
59.508501
 20
132.579767
 30
0.0
 11
59.508501
 21
144.153656
 31
0.0
  0
LINE
  5
5D3
330
5CC
100
AcDbEntity
  8
0
  6
CONTINUOUS
 62
     7
100
AcDbLine
 10
50.808502
 20
143.153656
 30
0.0
 11
59.508501
 21
143.153656
 31
0.0
  0
LINE
  5
5D4
330
5CC
100
AcDbEntity
  8
0
  6
CONTINUOUS
 62
     7
100
AcDbLine
 10
50.808502
 20
143.153656
 30
0.0
 11
53.808502
 21
143.153656
 31
0.0
  0
LINE
  5
5D5
330
5CC
100
AcDbEntity
  8
0
  6
CONTINUOUS
 62
     7
100
AcDbLine
 10
50.808502
 20
143.153656
 30
0.0
 11
53.70628
 21
142.377199
 31
0.0
  0
LINE
  5
5D6
330
5CC
100
AcDbEntity
  8
0
  6
CONTINUOUS
 62
     7
100
AcDbLine
 10
50.808502
 20
143.153656
 30
0.0
 11
53.70628
 21
143.930113
 31
0.0
  0
LINE
  5
5D7
330
5CC
100
AcDbEntity
  8
0
  6
CONTINUOUS
 62
     7
100
AcDbLine
 10
59.508501
 20
143.153656
 30
0.0
 11
56.508501
 21
143.153656
 31
0.0
  0
LINE
  5
5D8
330
5CC
100
AcDbEntity
  8
0
  6
CONTINUOUS
 62
     7
100
AcDbLine
 10
59.508501
 20
143.153656
 30
0.0
 11
56.610723
 21
142.377199
 31
0.0
  0
LINE
  5
5D9
330
5CC
100
AcDbEntity
  8
0
  6
CONTINUOUS
 62
     7
100
AcDbLine
 10
59.508501
 20
143.153656
 30
0.0
 11
56.610723
 21
143.930113
 31
0.0
  0
ENDBLK
  5
5CE
330
5CC
100
AcDbEntity
  8
0
100
AcDbBlockEnd
  0
BLOCK
  5
5DB
330
5DA
100
AcDbEntity
  8
0
100
AcDbBlockBegin
  2
BLKF041
 70
     0
 71
     0
 10
0.0
 20
0.0
 30
0.0
  3
BLKF041
  1

  0
TEXT
  5
5DE
330
5DA
100
AcDbEntity
  8
0
 62
     7
100
AcDbText
 10
52.736317
 20
151.555557
 30
0.0
 40
3.85373
  1
(29.8)
 41
0.640832
  7
ED_VECTOR
 72
     5
 11
63.790681
 21
151.555557
 31
0.0
100
AcDbText
  0
LINE
  5
5DF
330
5DA
100
AcDbEntity
  8
0
  6
CONTINUOUS
 62
     7
100
AcDbLine
 10
50.808502
 20
131.769495
 30
0.0
 11
50.808502
 21
151.555575
 31
0.0
  0
LINE
  5
5E0
330
5DA
100
AcDbEntity
  8
0
  6
CONTINUOUS
 62
     7
100
AcDbLine
 10
65.718507
 20
137.754769
 30
0.0
 11
65.718507
 21
151.555575
 31
0.0
  0
LINE
  5
5E1
330
5DA
100
AcDbEntity
  8
0
  6
CONTINUOUS
 62
     7
100
AcDbLine
 10
50.808502
 20
150.555575
 30
0.0
 11
65.718507
 21
150.555575
 31
0.0
  0
LINE
  5
5E2
330
5DA
100
AcDbEntity
  8
0
  6
CONTINUOUS
 62
     7
100
AcDbLine
 10
50.808502
 20
150.555575
 30
0.0
 11
53.808502
 21
150.555575
 31
0.0
  0
LINE
  5
5E3
330
5DA
100
AcDbEntity
  8
0
  6
CONTINUOUS
 62
     7
100
AcDbLine
 10
50.808502
 20
150.555575
 30
0.0
 11
53.70628
 21
149.779118
 31
0.0
  0
LINE
  5
5E4
330
5DA
100
AcDbEntity
  8
0
  6
CONTINUOUS
 62
     7
100
AcDbLine
 10
50.808502
 20
150.555575
 30
0.0
 11
53.70628
 21
151.332032
 31
0.0
  0
LINE
  5
5E5
330
5DA
100
AcDbEntity
  8
0
  6
CONTINUOUS
 62
     7
100
AcDbLine
 10
65.718507
 20
150.555575
 30
0.0
 11
62.718507
 21
150.555575
 31
0.0
  0
LINE
  5
5E6
330
5DA
100
AcDbEntity
  8
0
  6
CONTINUOUS
 62
     7
100
AcDbLine
 10
65.718507
 20
150.555575
 30
0.0
 11
62.820729
 21
149.779118
 31
0.0
  0
LINE
  5
5E7
330
5DA
100
AcDbEntity
  8
0
  6
CONTINUOUS
 62
     7
100
AcDbLine
 10
65.718507
 20
150.555575
 30
0.0
 11
62.820729
 21
151.332032
 31
0.0
  0
ENDBLK
  5
5DC
330
5DA
100
AcDbEntity
  8
0
100
AcDbBlockEnd
  0
BLOCK
  5
5E9
330
5E8
100
AcDbEntity
  8
0
100
AcDbBlockBegin
  2
BLKF042
 70
     0
 71
     0
 10
0.0
 20
0.0
 30
0.0
  3
BLKF042
  1

  0
LINE
  5
5EC
330
5E8
100
AcDbEntity
  8
0
  6
CONTINUOUS
 62
     7
100
AcDbLine
 10
65.718507
 20
137.754769
 30
0.0
 11
65.718507
 21
151.555575
 31
0.0
  0
LINE
  5
5ED
330
5E8
100
AcDbEntity
  8
0
  6
CONTINUOUS
 62
     7
100
AcDbLine
 10
167.768506
 20
137.607263
 30
0.0
 11
167.768506
 21
151.555575
 31
0.0
  0
LINE
  5
5EE
330
5E8
100
AcDbEntity
  8
0
  6
CONTINUOUS
 62
     7
100
AcDbLine
 10
65.718507
 20
150.555575
 30
0.0
 11
167.768506
 21
150.555575
 31
0.0
  0
LINE
  5
5EF
330
5E8
100
AcDbEntity
  8
0
  6
CONTINUOUS
 62
     7
100
AcDbLine
 10
65.718507
 20
150.555575
 30
0.0
 11
68.718507
 21
150.555575
 31
0.0
  0
LINE
  5
5F0
330
5E8
100
AcDbEntity
  8
0
  6
CONTINUOUS
 62
     7
100
AcDbLine
 10
65.718507
 20
150.555575
 30
0.0
 11
68.616285
 21
149.779118
 31
0.0
  0
LINE
  5
5F1
330
5E8
100
AcDbEntity
  8
0
  6
CONTINUOUS
 62
     7
100
AcDbLine
 10
65.718507
 20
150.555575
 30
0.0
 11
68.616285
 21
151.332032
 31
0.0
  0
LINE
  5
5F2
330
5E8
100
AcDbEntity
  8
0
  6
CONTINUOUS
 62
     7
100
AcDbLine
 10
167.768506
 20
150.555575
 30
0.0
 11
164.768506
 21
150.555575
 31
0.0
  0
LINE
  5
5F3
330
5E8
100
AcDbEntity
  8
0
  6
CONTINUOUS
 62
     7
100
AcDbLine
 10
167.768506
 20
150.555575
 30
0.0
 11
164.870728
 21
149.779118
 31
0.0
  0
LINE
  5
5F4
330
5E8
100
AcDbEntity
  8
0
  6
CONTINUOUS
 62
     7
100
AcDbLine
 10
167.768506
 20
150.555575
 30
0.0
 11
164.870728
 21
151.332032
 31
0.0
  0
TEXT
  5
5F5
330
5E8
100
AcDbEntity
  8
0
 62
     7
100
AcDbText
 10
110.683815
 20
151.555573
 30
0.0
 40
4.051003
  1
204.1
 41
0.775626
  7
ED_VECTOR
 72
     5
 11
122.803201
 21
151.555573
 31
0.0
100
AcDbText
  0
ENDBLK
  5
5EA
330
5E8
100
AcDbEntity
  8
0
100
AcDbBlockEnd
  0
BLOCK
  5
5F7
330
5F6
100
AcDbEntity
  8
0
100
AcDbBlockBegin
  2
BLKF043
 70
     0
 71
     0
 10
0.0
 20
0.0
 30
0.0
  3
BLKF043
  1

  0
LINE
  5
5FA
330
5F6
100
AcDbEntity
  8
0
  6
CONTINUOUS
 62
     7
100
AcDbLine
 10
50.808502
 20
131.769495
 30
0.0
 11
50.808502
 21
159.640146
 31
0.0
  0
LINE
  5
5FB
330
5F6
100
AcDbEntity
  8
0
  6
CONTINUOUS
 62
     7
100
AcDbLine
 10
167.768506
 20
137.607263
 30
0.0
 11
167.768506
 21
159.640146
 31
0.0
  0
LINE
  5
5FC
330
5F6
100
AcDbEntity
  8
0
  6
CONTINUOUS
 62
     7
100
AcDbLine
 10
50.808502
 20
158.640146
 30
0.0
 11
167.768506
 21
158.640146
 31
0.0
  0
LINE
  5
5FD
330
5F6
100
AcDbEntity
  8
0
  6
CONTINUOUS
 62
     7
100
AcDbLine
 10
50.808502
 20
158.640146
 30
0.0
 11
53.808502
 21
158.640146
 31
0.0
  0
LINE
  5
5FE
330
5F6
100
AcDbEntity
  8
0
  6
CONTINUOUS
 62
     7
100
AcDbLine
 10
50.808502
 20
158.640146
 30
0.0
 11
53.70628
 21
157.863689
 31
0.0
  0
LINE
  5
5FF
330
5F6
100
AcDbEntity
  8
0
  6
CONTINUOUS
 62
     7
100
AcDbLine
 10
50.808502
 20
158.640146
 30
0.0
 11
53.70628
 21
159.416603
 31
0.0
  0
LINE
  5
600
330
5F6
100
AcDbEntity
  8
0
  6
CONTINUOUS
 62
     7
100
AcDbLine
 10
167.768506
 20
158.640146
 30
0.0
 11
164.768506
 21
158.640146
 31
0.0
  0
LINE
  5
601
330
5F6
100
AcDbEntity
  8
0
  6
CONTINUOUS
 62
     7
100
AcDbLine
 10
167.768506
 20
158.640146
 30
0.0
 11
164.870728
 21
157.863689
 31
0.0
  0
LINE
  5
602
330
5F6
100
AcDbEntity
  8
0
  6
CONTINUOUS
 62
     7
100
AcDbLine
 10
167.768506
 20
158.640146
 30
0.0
 11
164.870728
 21
159.416603
 31
0.0
  0
TEXT
  5
603
330
5F6
100
AcDbEntity
  8
0
 62
     7
100
AcDbText
 10
100.748878
 20
159.640152
 30
0.0
 40
4.096399
  1
(238.1)
 41
0.768036
  7
ED_VECTOR
 72
     5
 11
117.828148
 21
159.640152
 31
0.0
100
AcDbText
  0
ENDBLK
  5
5F8
330
5F6
100
AcDbEntity
  8
0
100
AcDbBlockEnd
  0
BLOCK
  5
605
330
604
100
AcDbEntity
  8
0
100
AcDbBlockBegin
  2
BLKF044
 70
     0
 71
     0
 10
0.0
 20
0.0
 30
0.0
  3
BLKF044
  1

  0
LINE
  5
608
330
604
100
AcDbEntity
  8
0
  6
CONTINUOUS
 62
     7
100
AcDbLine
 10
165.505777
 20
109.957266
 30
0.0
 11
180.349008
 21
109.957266
 31
0.0
  0
LINE
  5
609
330
604
100
AcDbEntity
  8
0
  6
CONTINUOUS
 62
     7
100
AcDbLine
 10
168.518505
 20
116.907264
 30
0.0
 11
180.349008
 21
116.907264
 31
0.0
  0
LINE
  5
60A
330
604
100
AcDbEntity
  8
0
  6
CONTINUOUS
 62
     7
100
AcDbLine
 10
179.349008
 20
109.957266
 30
0.0
 11
179.349008
 21
116.907264
 31
0.0
  0
LINE
  5
60B
330
604
100
AcDbEntity
  8
0
  6
CONTINUOUS
 62
     7
100
AcDbLine
 10
179.349008
 20
109.957266
 30
0.0
 11
179.349008
 21
112.957266
 31
0.0
  0
LINE
  5
60C
330
604
100
AcDbEntity
  8
0
  6
CONTINUOUS
 62
     7
100
AcDbLine
 10
179.349008
 20
109.957266
 30
0.0
 11
180.125465
 21
112.855044
 31
0.0
  0
LINE
  5
60D
330
604
100
AcDbEntity
  8
0
  6
CONTINUOUS
 62
     7
100
AcDbLine
 10
179.349008
 20
109.957266
 30
0.0
 11
178.572551
 21
112.855044
 31
0.0
  0
LINE
  5
60E
330
604
100
AcDbEntity
  8
0
  6
CONTINUOUS
 62
     7
100
AcDbLine
 10
179.349008
 20
116.907264
 30
0.0
 11
179.349008
 21
113.907264
 31
0.0
  0
LINE
  5
60F
330
604
100
AcDbEntity
  8
0
  6
CONTINUOUS
 62
     7
100
AcDbLine
 10
179.349008
 20
116.907264
 30
0.0
 11
180.125465
 21
114.009486
 31
0.0
  0
LINE
  5
610
330
604
100
AcDbEntity
  8
0
  6
CONTINUOUS
 62
     7
100
AcDbLine
 10
179.349008
 20
116.907264
 30
0.0
 11
178.572551
 21
114.009486
 31
0.0
  0
TEXT
  5
611
330
604
100
AcDbEntity
  8
0
 62
     7
100
AcDbText
 10
178.348984
 20
95.83754
 30
0.0
 40
4.217739
  1
(14.4)
 50
90.0
 41
0.662818
  7
ED_VECTOR
 72
     5
 11
178.348984
 21
108.351142
 31
0.0
100
AcDbText
  0
ENDBLK
  5
606
330
604
100
AcDbEntity
  8
0
100
AcDbBlockEnd
  0
BLOCK
  5
613
330
612
100
AcDbEntity
  8
0
100
AcDbBlockBegin
  2
BLKF045
 70
     0
 71
     0
 10
0.0
 20
0.0
 30
0.0
  3
BLKF045
  1

  0
LINE
  5
616
330
612
100
AcDbEntity
  8
0
  6
CONTINUOUS
 62
     7
100
AcDbLine
 10
169.73456
 20
60.347469
 30
0.0
 11
192.725987
 21
60.347469
 31
0.0
  0
LINE
  5
617
330
612
100
AcDbEntity
  8
0
  6
CONTINUOUS
 62
     7
100
AcDbLine
 10
168.518505
 20
116.907264
 30
0.0
 11
192.725987
 21
116.907264
 31
0.0
  0
LINE
  5
618
330
612
100
AcDbEntity
  8
0
  6
CONTINUOUS
 62
     7
100
AcDbLine
 10
191.725987
 20
60.347469
 30
0.0
 11
191.725987
 21
116.907264
 31
0.0
  0
LINE
  5
619
330
612
100
AcDbEntity
  8
0
  6
CONTINUOUS
 62
     7
100
AcDbLine
 10
191.725987
 20
60.347469
 30
0.0
 11
191.725987
 21
63.347469
 31
0.0
  0
LINE
  5
61A
330
612
100
AcDbEntity
  8
0
  6
CONTINUOUS
 62
     7
100
AcDbLine
 10
191.725987
 20
60.347469
 30
0.0
 11
192.502444
 21
63.245247
 31
0.0
  0
LINE
  5
61B
330
612
100
AcDbEntity
  8
0
  6
CONTINUOUS
 62
     7
100
AcDbLine
 10
191.725987
 20
60.347469
 30
0.0
 11
190.94953
 21
63.245247
 31
0.0
  0
LINE
  5
61C
330
612
100
AcDbEntity
  8
0
  6
CONTINUOUS
 62
     7
100
AcDbLine
 10
191.725987
 20
116.907264
 30
0.0
 11
191.725987
 21
113.907264
 31
0.0
  0
LINE
  5
61D
330
612
100
AcDbEntity
  8
0
  6
CONTINUOUS
 62
     7
100
AcDbLine
 10
191.725987
 20
116.907264
 30
0.0
 11
192.502444
 21
114.009486
 31
0.0
  0
LINE
  5
61E
330
612
100
AcDbEntity
  8
0
  6
CONTINUOUS
 62
     7
100
AcDbLine
 10
191.725987
 20
116.907264
 30
0.0
 11
190.94953
 21
114.009486
 31
0.0
  0
TEXT
  5
61F
330
612
100
AcDbEntity
  8
0
 62
     7
100
AcDbText
 10
190.725983
 20
82.198273
 30
0.0
 40
3.489686
  1
(2000)
 50
90.0
 41
0.74401
  7
ED_VECTOR
 72
     5
 11
190.725983
 21
95.056447
 31
0.0
100
AcDbText
  0
ENDBLK
  5
614
330
612
100
AcDbEntity
  8
0
100
AcDbBlockEnd
  0
ENDSEC
  0
SECTION
  2
ENTITIES
  0
LINE
  5
6F
330
1F
100
AcDbEntity
  8
0
  6
CONTINUOUS
 62
     3
100
AcDbLine
 10
158.125828
 20
109.707263
 30
0.0
 11
158.125828
 21
102.918597
 31
0.0
  0
LINE
  5
70
330
1F
100
AcDbEntity
  8
0
  6
CONTINUOUS
 62
     3
100
AcDbLine
 10
161.625828
 20
103.687815
 30
0.0
 11
161.625828
 21
109.707263
 31
0.0
  0
LINE
  5
71
330
1F
100
AcDbEntity
  8
0
  6
CONTINUOUS
 62
     3
100
AcDbLine
 10
164.204605
 20
104.562646
 30
0.0
 11
164.204605
 21
109.707263
 31
0.0
  0
LINE
  5
72
330
1F
100
AcDbEntity
  8
0
  6
CONTINUOUS
 62
     3
100
AcDbLine
 10
152.518505
 20
114.62726
 30
0.0
 11
152.518505
 21
110.707264
 31
0.0
  0
LINE
  5
73
330
1F
100
AcDbEntity
  8
0
  6
CONTINUOUS
 62
     3
100
AcDbLine
 10
152.568505
 20
110.207263
 30
0.0
 11
152.568505
 21
109.707262
 31
0.0
  0
LINE
  5
74
330
1F
100
AcDbEntity
  8
0
  6
CONTINUOUS
 62
     3
100
AcDbLine
 10
157.468506
 20
109.707262
 30
0.0
 11
157.468506
 21
109.957266
 31
0.0
  0
LINE
  5
75
330
1F
100
AcDbEntity
  8
0
  6
CONTINUOUS
 62
     3
100
AcDbLine
 10
152.568505
 20
110.707264
 30
0.0
 11
152.568505
 21
110.45726
 31
0.0
  0
LINE
  5
76
330
1F
100
AcDbEntity
  8
0
  6
CONTINUOUS
 62
     3
100
AcDbLine
 10
152.768505
 20
116.907264
 30
0.0
 11
152.768505
 21
114.62726
 31
0.0
  0
LINE
  5
77
330
1F
100
AcDbEntity
  8
0
  6
CONTINUOUS
 62
     3
100
AcDbLine
 10
153.218505
 20
110.45726
 30
0.0
 11
153.218505
 21
110.207263
 31
0.0
  0
LINE
  5
78
330
1F
100
AcDbEntity
  8
0
  6
CONTINUOUS
 62
     3
100
AcDbLine
 10
156.768506
 20
110.207263
 30
0.0
 11
157.018506
 21
109.957266
 31
0.0
  0
LINE
  5
79
330
1F
100
AcDbEntity
  8
0
  6
CONTINUOUS
 62
     3
100
AcDbLine
 10
165.018508
 20
109.957266
 30
0.0
 11
165.268504
 21
110.207263
 31
0.0
  0
LINE
  5
7A
330
1F
100
AcDbEntity
  8
0
  6
CONTINUOUS
 62
     3
100
AcDbLine
 10
156.868507
 20
112.957265
 30
0.0
 11
156.768506
 21
112.857263
 31
0.0
  0
LINE
  5
7B
330
1F
100
AcDbEntity
  8
0
  6
CONTINUOUS
 62
     3
100
AcDbLine
 10
165.268504
 20
112.857263
 30
0.0
 11
165.168506
 21
112.957265
 31
0.0
  0
LINE
  5
7C
330
1F
100
AcDbEntity
  8
0
  6
CONTINUOUS
 62
     3
100
AcDbLine
 10
156.768506
 20
112.857263
 30
0.0
 11
156.768506
 21
110.207263
 31
0.0
  0
LINE
  5
7D
330
1F
100
AcDbEntity
  8
0
  6
CONTINUOUS
 62
     3
100
AcDbLine
 10
165.268504
 20
110.207263
 30
0.0
 11
165.268504
 21
112.857263
 31
0.0
  0
LINE
  5
7E
330
1F
100
AcDbEntity
  8
0
  6
CONTINUOUS
 62
     3
100
AcDbLine
 10
156.768506
 20
113.207261
 30
0.0
 11
157.018506
 21
112.957265
 31
0.0
  0
LINE
  5
7F
330
1F
100
AcDbEntity
  8
0
  6
CONTINUOUS
 62
     3
100
AcDbLine
 10
165.018508
 20
112.957265
 30
0.0
 11
165.268504
 21
113.207261
 31
0.0
  0
LINE
  5
80
330
1F
100
AcDbEntity
  8
0
  6
CONTINUOUS
 62
     3
100
AcDbLine
 10
156.868507
 20
116.907264
 30
0.0
 11
156.768506
 21
116.807263
 31
0.0
  0
LINE
  5
81
330
1F
100
AcDbEntity
  8
0
  6
CONTINUOUS
 62
     3
100
AcDbLine
 10
156.768506
 20
116.807263
 30
0.0
 11
156.768506
 21
113.207261
 31
0.0
  0
LINE
  5
82
330
1F
100
AcDbEntity
  8
0
  6
CONTINUOUS
 62
     3
100
AcDbLine
 10
165.268504
 20
116.807263
 30
0.0
 11
165.168506
 21
116.907264
 31
0.0
  0
LINE
  5
83
330
1F
100
AcDbEntity
  8
0
  6
CONTINUOUS
 62
     3
100
AcDbLine
 10
165.268504
 20
113.207261
 30
0.0
 11
165.268504
 21
116.807263
 31
0.0
  0
LINE
  5
84
330
1F
100
AcDbEntity
  8
0
  6
CONTINUOUS
 62
     3
100
AcDbLine
 10
150.868506
 20
136.857259
 30
0.0
 11
150.768505
 21
136.757265
 31
0.0
  0
LINE
  5
85
330
1F
100
AcDbEntity
  8
0
  6
CONTINUOUS
 62
     3
100
AcDbLine
 10
167.518505
 20
136.857259
 30
0.0
 11
150.868506
 21
136.857259
 31
0.0
  0
LINE
  5
86
330
1F
100
AcDbEntity
  8
0
  6
CONTINUOUS
 62
     3
100
AcDbLine
 10
167.768506
 20
136.607263
 30
0.0
 11
167.518505
 21
136.857259
 31
0.0
  0
LINE
  5
87
330
1F
100
AcDbEntity
  8
0
  6
CONTINUOUS
 62
     3
100
AcDbLine
 10
150.768505
 20
136.857259
 30
0.0
 11
150.268507
 21
136.857259
 31
0.0
  0
LINE
  5
88
330
1F
100
AcDbEntity
  8
0
  6
CONTINUOUS
 62
     3
100
AcDbLine
 10
150.268507
 20
116.907264
 30
0.0
 11
150.768505
 21
116.907264
 31
0.0
  0
LINE
  5
89
330
1F
100
AcDbEntity
  8
0
  6
CONTINUOUS
 62
     3
100
AcDbLine
 10
65.818505
 20
136.857259
 30
0.0
 11
65.718507
 21
136.757265
 31
0.0
  0
LINE
  5
8A
330
1F
100
AcDbEntity
  8
0
  6
CONTINUOUS
 62
     3
100
AcDbLine
 10
65.718507
 20
117.007266
 30
0.0
 11
65.818505
 21
116.907264
 31
0.0
  0
LINE
  5
8B
330
1F
100
AcDbEntity
  8
0
  6
CONTINUOUS
 62
     3
100
AcDbLine
 10
67.518507
 20
136.857259
 30
0.0
 11
65.818505
 21
136.857259
 31
0.0
  0
LINE
  5
8C
330
1F
100
AcDbEntity
  8
0
  6
CONTINUOUS
 62
     3
100
AcDbLine
 10
65.818505
 20
116.907264
 30
0.0
 11
67.518507
 21
116.907264
 31
0.0
  0
LINE
  5
8D
330
1F
100
AcDbEntity
  8
0
  6
CONTINUOUS
 62
     3
100
AcDbLine
 10
67.518507
 20
116.907264
 30
0.0
 11
67.618505
 21
117.007266
 31
0.0
  0
LINE
  5
8E
330
1F
100
AcDbEntity
  8
0
  6
CONTINUOUS
 62
     3
100
AcDbLine
 10
67.618505
 20
136.757265
 30
0.0
 11
67.518507
 21
136.857259
 31
0.0
  0
LINE
  5
8F
330
1F
100
AcDbEntity
  8
0
  6
CONTINUOUS
 62
     3
100
AcDbLine
 10
67.868506
 20
135.757263
 30
0.0
 11
67.618505
 21
135.757263
 31
0.0
  0
LINE
  5
90
330
1F
100
AcDbEntity
  8
0
  6
CONTINUOUS
 62
     3
100
AcDbLine
 10
67.618505
 20
118.007261
 30
0.0
 11
67.868506
 21
118.007261
 31
0.0
  0
LINE
  5
91
330
1F
100
AcDbEntity
  8
0
  6
CONTINUOUS
 62
     3
100
AcDbLine
 10
144.268506
 20
136.882264
 30
0.0
 11
70.068506
 21
136.882264
 31
0.0
  0
LINE
  5
92
330
1F
100
AcDbEntity
  8
0
  6
CONTINUOUS
 62
     3
100
AcDbLine
 10
70.068506
 20
116.88226
 30
0.0
 11
144.268506
 21
116.88226
 31
0.0
  0
LINE
  5
93
330
1F
100
AcDbEntity
  8
0
  6
CONTINUOUS
 62
     3
100
AcDbLine
 10
67.968508
 20
136.874761
 30
0.0
 11
67.868506
 21
136.774759
 31
0.0
  0
LINE
  5
94
330
1F
100
AcDbEntity
  8
0
  6
CONTINUOUS
 62
     3
100
AcDbLine
 10
67.868506
 20
116.989765
 30
0.0
 11
67.968508
 21
116.889763
 31
0.0
  0
LINE
  5
95
330
1F
100
AcDbEntity
  8
0
  6
CONTINUOUS
 62
     3
100
AcDbLine
 10
70.068506
 20
136.874761
 30
0.0
 11
67.968508
 21
136.874761
 31
0.0
  0
LINE
  5
96
330
1F
100
AcDbEntity
  8
0
  6
CONTINUOUS
 62
     3
100
AcDbLine
 10
67.968508
 20
116.889763
 30
0.0
 11
70.068506
 21
116.889763
 31
0.0
  0
LINE
  5
97
330
1F
100
AcDbEntity
  8
0
  6
CONTINUOUS
 62
     3
100
AcDbLine
 10
150.268507
 20
136.857259
 30
0.0
 11
144.268506
 21
136.857259
 31
0.0
  0
LINE
  5
98
330
1F
100
AcDbEntity
  8
0
  6
CONTINUOUS
 62
     3
100
AcDbLine
 10
144.268506
 20
116.907264
 30
0.0
 11
150.268507
 21
116.907264
 31
0.0
  0
LINE
  5
99
330
1F
100
AcDbEntity
  8
0
  6
CONTINUOUS
 62
     3
100
AcDbLine
 10
154.140086
 20
110.707264
 30
0.0
 11
152.518505
 21
110.707264
 31
0.0
  0
LINE
  5
9A
330
1F
100
AcDbEntity
  8
0
  6
CONTINUOUS
 62
     3
100
AcDbLine
 10
156.768506
 20
110.707264
 30
0.0
 11
154.140086
 21
110.707264
 31
0.0
  0
LINE
  5
9B
330
1F
100
AcDbEntity
  8
0
  6
CONTINUOUS
 62
     3
100
AcDbLine
 10
154.140086
 20
114.62726
 30
0.0
 11
152.518505
 21
114.62726
 31
0.0
  0
LINE
  5
9C
330
1F
100
AcDbEntity
  8
0
  6
CONTINUOUS
 62
     3
100
AcDbLine
 10
156.768506
 20
114.62726
 30
0.0
 11
154.140086
 21
114.62726
 31
0.0
  0
LINE
  5
9D
330
1F
100
AcDbEntity
  8
0
  6
CONTINUOUS
 62
     3
100
AcDbLine
 10
154.157655
 20
109.707262
 30
0.0
 11
152.568505
 21
109.707262
 31
0.0
  0
LINE
  5
9E
330
1F
100
AcDbEntity
  8
0
  6
CONTINUOUS
 62
     3
100
AcDbLine
 10
157.468506
 20
109.707262
 30
0.0
 11
154.157655
 21
109.707262
 31
0.0
  0
LINE
  5
9F
330
1F
100
AcDbEntity
  8
0
  6
CONTINUOUS
 62
     3
100
AcDbLine
 10
154.157655
 20
110.207263
 30
0.0
 11
152.568505
 21
110.207263
 31
0.0
  0
LINE
  5
A0
330
1F
100
AcDbEntity
  8
0
  6
CONTINUOUS
 62
     3
100
AcDbLine
 10
156.768506
 20
110.207263
 30
0.0
 11
154.157655
 21
110.207263
 31
0.0
  0
LINE
  5
A1
330
1F
100
AcDbEntity
  8
0
  6
CONTINUOUS
 62
     3
100
AcDbLine
 10
154.157655
 20
110.45726
 30
0.0
 11
152.568505
 21
110.45726
 31
0.0
  0
LINE
  5
A2
330
1F
100
AcDbEntity
  8
0
  6
CONTINUOUS
 62
     3
100
AcDbLine
 10
156.768506
 20
110.45726
 30
0.0
 11
154.157655
 21
110.45726
 31
0.0
  0
LINE
  5
A3
330
1F
100
AcDbEntity
  8
0
  6
CONTINUOUS
 62
     3
100
AcDbLine
 10
158.310623
 20
110.207263
 30
0.0
 11
157.578049
 21
109.957266
 31
0.0
  0
LINE
  5
A4
330
1F
100
AcDbEntity
  8
0
  6
CONTINUOUS
 62
     3
100
AcDbLine
 10
158.310623
 20
110.207263
 30
0.0
 11
159.629275
 21
110.207263
 31
0.0
  0
INSERT
  5
A8
330
1F
100
AcDbEntity
  8
0
100
AcDbBlockReference
  2
BLKF011
 10
0.0
 20
0.0
 30
0.0
  0
LINE
  5
CD
330
1F
100
AcDbEntity
  8
0
  6
CONTINUOUS
 62
     3
100
AcDbLine
 10
161.065319
 20
109.957266
 30
0.0
 11
157.578049
 21
109.957266
 31
0.0
  0
LINE
  5
CE
330
1F
100
AcDbEntity
  8
0
  6
CONTINUOUS
 62
     3
100
AcDbLine
 10
159.629275
 20
112.857263
 30
0.0
 11
158.310623
 21
112.857263
 31
0.0
  0
LINE
  5
CF
330
1F
100
AcDbEntity
  8
0
  6
CONTINUOUS
 62
     3
100
AcDbLine
 10
158.14205
 20
112.957265
 30
0.0
 11
158.310623
 21
112.857263
 31
0.0
  0
INSERT
  5
D3
330
1F
100
AcDbEntity
  8
0
100
AcDbBlockReference
  2
BLKF012
 10
0.0
 20
0.0
 30
0.0
  0
LINE
  5
DE
330
1F
100
AcDbEntity
  8
0
  6
CONTINUOUS
 62
     3
100
AcDbLine
 10
158.14205
 20
112.957265
 30
0.0
 11
159.959727
 21
112.957265
 31
0.0
  0
LINE
  5
DF
330
1F
100
AcDbEntity
  8
0
  6
CONTINUOUS
 62
     3
100
AcDbLine
 10
158.310623
 20
112.857263
 30
0.0
 11
158.310623
 21
110.207263
 31
0.0
  0
LINE
  5
E0
330
1F
100
AcDbEntity
  8
0
  6
CONTINUOUS
 62
     3
100
AcDbLine
 10
159.629275
 20
112.857263
 30
0.0
 11
159.629275
 21
110.207263
 31
0.0
  0
INSERT
  5
E4
330
1F
100
AcDbEntity
  8
0
100
AcDbBlockReference
  2
BLKF013
 10
0.0
 20
0.0
 30
0.0
  0
LINE
  5
101
330
1F
100
AcDbEntity
  8
0
  6
CONTINUOUS
 62
     3
100
AcDbLine
 10
162.170911
 20
112.957265
 30
0.0
 11
162.501359
 21
112.857263
 31
0.0
  0
LINE
  5
102
330
1F
100
AcDbEntity
  8
0
  6
CONTINUOUS
 62
     3
100
AcDbLine
 10
162.501359
 20
112.857263
 30
0.0
 11
162.501359
 21
110.207263
 31
0.0
  0
LINE
  5
103
330
1F
100
AcDbEntity
  8
0
  6
CONTINUOUS
 62
     3
100
AcDbLine
 10
159.959727
 20
112.957265
 30
0.0
 11
162.170911
 21
112.957265
 31
0.0
  0
LINE
  5
104
330
1F
100
AcDbEntity
  8
0
  6
CONTINUOUS
 62
     3
100
AcDbLine
 10
162.501359
 20
110.207263
 30
0.0
 11
163.802312
 21
110.207263
 31
0.0
  0
INSERT
  5
108
330
1F
100
AcDbEntity
  8
0
100
AcDbBlockReference
  2
BLKF014
 10
0.0
 20
0.0
 30
0.0
  0
LINE
  5
13D
330
1F
100
AcDbEntity
  8
0
  6
CONTINUOUS
 62
     3
100
AcDbLine
 10
164.505777
 20
109.957266
 30
0.0
 11
161.065319
 21
109.957266
 31
0.0
  0
LINE
  5
13E
330
1F
100
AcDbEntity
  8
0
  6
CONTINUOUS
 62
     3
100
AcDbLine
 10
163.802312
 20
112.857263
 30
0.0
 11
162.501359
 21
112.857263
 31
0.0
  0
INSERT
  5
142
330
1F
100
AcDbEntity
  8
0
100
AcDbBlockReference
  2
BLKF015
 10
0.0
 20
0.0
 30
0.0
  0
LINE
  5
14B
330
1F
100
AcDbEntity
  8
0
  6
CONTINUOUS
 62
     3
100
AcDbLine
 10
162.170911
 20
112.957265
 30
0.0
 11
163.964187
 21
112.957265
 31
0.0
  0
LINE
  5
14C
330
1F
100
AcDbEntity
  8
0
  6
CONTINUOUS
 62
     3
100
AcDbLine
 10
163.802312
 20
112.857263
 30
0.0
 11
163.802312
 21
110.207263
 31
0.0
  0
INSERT
  5
150
330
1F
100
AcDbEntity
  8
0
100
AcDbBlockReference
  2
BLKF016
 10
0.0
 20
0.0
 30
0.0
  0
LINE
  5
185
330
1F
100
AcDbEntity
  8
0
  6
CONTINUOUS
 62
     3
100
AcDbLine
 10
156.84547
 20
112.857263
 30
0.0
 11
156.84547
 21
110.207263
 31
0.0
  0
INSERT
  5
189
330
1F
100
AcDbEntity
  8
0
100
AcDbBlockReference
  2
BLKF017
 10
0.0
 20
0.0
 30
0.0
  0
LINE
  5
192
330
1F
100
AcDbEntity
  8
0
  6
CONTINUOUS
 62
     3
100
AcDbLine
 10
157.014047
 20
112.957265
 30
0.0
 11
158.14205
 21
112.957265
 31
0.0
  0
LINE
  5
193
330
1F
100
AcDbEntity
  8
0
  6
CONTINUOUS
 62
     3
100
AcDbLine
 10
165.209242
 20
110.207263
 30
0.0
 11
164.505777
 21
109.957266
 31
0.0
  0
LINE
  5
194
330
1F
100
AcDbEntity
  8
0
  6
CONTINUOUS
 62
     3
100
AcDbLine
 10
165.047367
 20
112.957265
 30
0.0
 11
165.209242
 21
112.857263
 31
0.0
  0
LINE
  5
195
330
1F
100
AcDbEntity
  8
0
  6
CONTINUOUS
 62
     3
100
AcDbLine
 10
165.209242
 20
112.857263
 30
0.0
 11
165.209242
 21
110.207263
 31
0.0
  0
LINE
  5
196
330
1F
100
AcDbEntity
  8
0
  6
CONTINUOUS
 62
     3
100
AcDbLine
 10
163.964187
 20
112.957265
 30
0.0
 11
165.047367
 21
112.957265
 31
0.0
  0
LINE
  5
197
330
1F
100
AcDbEntity
  8
0
  6
CONTINUOUS
 62
     3
100
AcDbLine
 10
156.768506
 20
110.207263
 30
0.0
 11
156.84547
 21
110.207263
 31
0.0
  0
LINE
  5
198
330
1F
100
AcDbEntity
  8
0
  6
CONTINUOUS
 62
     3
100
AcDbLine
 10
157.578049
 20
109.957266
 30
0.0
 11
157.018506
 21
109.957266
 31
0.0
  0
LINE
  5
199
330
1F
100
AcDbEntity
  8
0
  6
CONTINUOUS
 62
     3
100
AcDbLine
 10
165.209242
 20
110.207263
 30
0.0
 11
165.268504
 21
110.207263
 31
0.0
  0
LINE
  5
19A
330
1F
100
AcDbEntity
  8
0
  6
CONTINUOUS
 62
     3
100
AcDbLine
 10
165.018508
 20
109.957266
 30
0.0
 11
164.505777
 21
109.957266
 31
0.0
  0
LINE
  5
19B
330
1F
100
AcDbEntity
  8
0
  6
CONTINUOUS
 62
     3
100
AcDbLine
 10
156.84547
 20
112.857263
 30
0.0
 11
156.768506
 21
112.857263
 31
0.0
  0
LINE
  5
19C
330
1F
100
AcDbEntity
  8
0
  6
CONTINUOUS
 62
     3
100
AcDbLine
 10
156.868507
 20
112.957265
 30
0.0
 11
157.014047
 21
112.957265
 31
0.0
  0
LINE
  5
19D
330
1F
100
AcDbEntity
  8
0
  6
CONTINUOUS
 62
     3
100
AcDbLine
 10
165.268504
 20
112.857263
 30
0.0
 11
165.209242
 21
112.857263
 31
0.0
  0
LINE
  5
19E
330
1F
100
AcDbEntity
  8
0
  6
CONTINUOUS
 62
     3
100
AcDbLine
 10
165.047367
 20
112.957265
 30
0.0
 11
165.168506
 21
112.957265
 31
0.0
  0
LINE
  5
19F
330
1F
100
AcDbEntity
  8
0
  6
CONTINUOUS
 62
     3
100
AcDbLine
 10
162.880176
 20
113.207261
 30
0.0
 11
161.452514
 21
112.957265
 31
0.0
  0
INSERT
  5
1A3
330
1F
100
AcDbEntity
  8
0
100
AcDbBlockReference
  2
BLKF018
 10
0.0
 20
0.0
 30
0.0
  0
LINE
  5
1D7
330
1F
100
AcDbEntity
  8
0
  6
CONTINUOUS
 62
     3
100
AcDbLine
 10
160.024853
 20
116.807263
 30
0.0
 11
160.024853
 21
113.207261
 31
0.0
  0
INSERT
  5
1DB
330
1F
100
AcDbEntity
  8
0
100
AcDbBlockReference
  2
BLKF019
 10
0.0
 20
0.0
 30
0.0
  0
LINE
  5
1E4
330
1F
100
AcDbEntity
  8
0
  6
CONTINUOUS
 62
     3
100
AcDbLine
 10
162.551654
 20
116.907264
 30
0.0
 11
162.880176
 21
116.807263
 31
0.0
  0
LINE
  5
1E5
330
1F
100
AcDbEntity
  8
0
  6
CONTINUOUS
 62
     3
100
AcDbLine
 10
162.880176
 20
116.807263
 30
0.0
 11
162.880176
 21
113.207261
 31
0.0
  0
LINE
  5
1E6
330
1F
100
AcDbEntity
  8
0
  6
CONTINUOUS
 62
     3
100
AcDbLine
 10
162.880176
 20
113.207261
 30
0.0
 11
164.100279
 21
113.207261
 31
0.0
  0
INSERT
  5
1EA
330
1F
100
AcDbEntity
  8
0
100
AcDbBlockReference
  2
BLKF020
 10
0.0
 20
0.0
 30
0.0
  0
LINE
  5
203
330
1F
100
AcDbEntity
  8
0
  6
CONTINUOUS
 62
     3
100
AcDbLine
 10
158.640639
 20
113.207261
 30
0.0
 11
157.791862
 21
112.957265
 31
0.0
  0
LINE
  5
204
330
1F
100
AcDbEntity
  8
0
  6
CONTINUOUS
 62
     3
100
AcDbLine
 10
158.640639
 20
113.207261
 30
0.0
 11
160.024853
 21
113.207261
 31
0.0
  0
LINE
  5
205
330
1F
100
AcDbEntity
  8
0
  6
CONTINUOUS
 62
     3
100
AcDbLine
 10
160.024853
 20
116.807263
 30
0.0
 11
158.640639
 21
116.807263
 31
0.0
  0
LINE
  5
206
330
1F
100
AcDbEntity
  8
0
  6
CONTINUOUS
 62
     3
100
AcDbLine
 10
158.445326
 20
116.907264
 30
0.0
 11
158.640639
 21
116.807263
 31
0.0
  0
INSERT
  5
20A
330
1F
100
AcDbEntity
  8
0
100
AcDbBlockReference
  2
BLKF021
 10
0.0
 20
0.0
 30
0.0
  0
LINE
  5
215
330
1F
100
AcDbEntity
  8
0
  6
CONTINUOUS
 62
     3
100
AcDbLine
 10
164.100279
 20
116.807263
 30
0.0
 11
162.880176
 21
116.807263
 31
0.0
  0
LINE
  5
216
330
1F
100
AcDbEntity
  8
0
  6
CONTINUOUS
 62
     3
100
AcDbLine
 10
158.640639
 20
116.807263
 30
0.0
 11
158.640639
 21
113.207261
 31
0.0
  0
LINE
  5
217
330
1F
100
AcDbEntity
  8
0
  6
CONTINUOUS
 62
     3
100
AcDbLine
 10
164.100279
 20
116.807263
 30
0.0
 11
164.100279
 21
113.207261
 31
0.0
  0
INSERT
  5
21B
330
1F
100
AcDbEntity
  8
0
100
AcDbBlockReference
  2
BLKF022
 10
0.0
 20
0.0
 30
0.0
  0
LINE
  5
24F
330
1F
100
AcDbEntity
  8
0
  6
CONTINUOUS
 62
     3
100
AcDbLine
 10
156.94308
 20
116.807263
 30
0.0
 11
156.94308
 21
113.207261
 31
0.0
  0
INSERT
  5
253
330
1F
100
AcDbEntity
  8
0
100
AcDbBlockReference
  2
BLKF023
 10
0.0
 20
0.0
 30
0.0
  0
INSERT
  5
25F
330
1F
100
AcDbEntity
  8
0
100
AcDbBlockReference
  2
BLKF024
 10
0.0
 20
0.0
 30
0.0
  0
LINE
  5
286
330
1F
100
AcDbEntity
  8
0
  6
CONTINUOUS
 62
     3
100
AcDbLine
 10
165.124835
 20
116.907264
 30
0.0
 11
165.258044
 21
116.807263
 31
0.0
  0
LINE
  5
287
330
1F
100
AcDbEntity
  8
0
  6
CONTINUOUS
 62
     3
100
AcDbLine
 10
165.258044
 20
116.807263
 30
0.0
 11
165.258044
 21
113.207261
 31
0.0
  0
LINE
  5
288
330
1F
100
AcDbEntity
  8
0
  6
CONTINUOUS
 62
     3
100
AcDbLine
 10
156.768506
 20
113.207261
 30
0.0
 11
156.94308
 21
113.207261
 31
0.0
  0
LINE
  5
289
330
1F
100
AcDbEntity
  8
0
  6
CONTINUOUS
 62
     3
100
AcDbLine
 10
165.258044
 20
113.207261
 30
0.0
 11
165.268504
 21
113.207261
 31
0.0
  0
LINE
  5
28A
330
1F
100
AcDbEntity
  8
0
  6
CONTINUOUS
 62
     3
100
AcDbLine
 10
156.94308
 20
116.807263
 30
0.0
 11
156.768506
 21
116.807263
 31
0.0
  0
LINE
  5
28B
330
1F
100
AcDbEntity
  8
0
  6
CONTINUOUS
 62
     3
100
AcDbLine
 10
165.268504
 20
116.807263
 30
0.0
 11
165.258044
 21
116.807263
 31
0.0
  0
LINE
  5
28C
330
1F
100
AcDbEntity
  8
0
  6
CONTINUOUS
 62
     3
100
AcDbLine
 10
167.768506
 20
136.607263
 30
0.0
 11
167.768506
 21
126.882266
 31
0.0
  0
LINE
  5
28D
330
1F
100
AcDbEntity
  8
0
  6
CONTINUOUS
 62
     3
100
AcDbLine
 10
150.768505
 20
117.448683
 30
0.0
 11
150.768505
 21
125.473361
 31
0.0
  0
LINE
  5
28E
330
1F
100
AcDbEntity
  8
0
  6
CONTINUOUS
 62
     3
100
AcDbLine
 10
150.768505
 20
117.007266
 30
0.0
 11
150.768505
 21
117.448683
 31
0.0
  0
LINE
  5
28F
330
1F
100
AcDbEntity
  8
0
  6
CONTINUOUS
 62
     3
100
AcDbLine
 10
150.768505
 20
117.007266
 30
0.0
 11
150.868506
 21
116.907264
 31
0.0
  0
LINE
  5
290
330
1F
100
AcDbEntity
  8
0
  6
CONTINUOUS
 62
     3
100
AcDbLine
 10
167.518505
 20
116.907264
 30
0.0
 11
167.768506
 21
117.157261
 31
0.0
  0
LINE
  5
291
330
1F
100
AcDbEntity
  8
0
  6
CONTINUOUS
 62
     3
100
AcDbLine
 10
167.518505
 20
116.907264
 30
0.0
 11
150.868506
 21
116.907264
 31
0.0
  0
LINE
  5
292
330
1F
100
AcDbEntity
  8
0
  6
CONTINUOUS
 62
     3
100
AcDbLine
 10
167.768506
 20
126.882266
 30
0.0
 11
167.768506
 21
117.157261
 31
0.0
  0
LINE
  5
293
330
1F
100
AcDbEntity
  8
0
  6
CONTINUOUS
 62
     3
100
AcDbLine
 10
150.768505
 20
126.882266
 30
0.0
 11
150.768505
 21
125.473361
 31
0.0
  0
LINE
  5
294
330
1F
100
AcDbEntity
  8
0
  6
CONTINUOUS
 62
     3
100
AcDbLine
 10
150.768505
 20
117.007266
 30
0.0
 11
150.768505
 21
116.907264
 31
0.0
  0
LINE
  5
295
330
1F
100
AcDbEntity
  8
0
  6
CONTINUOUS
 62
     3
100
AcDbLine
 10
150.768505
 20
136.857259
 30
0.0
 11
150.768505
 21
126.882266
 31
0.0
  0
LINE
  5
296
330
1F
100
AcDbEntity
  8
0
  6
CONTINUOUS
 62
     3
100
AcDbLine
 10
65.718507
 20
118.949983
 30
0.0
 11
65.718507
 21
136.757265
 31
0.0
  0
LINE
  5
297
330
1F
100
AcDbEntity
  8
0
  6
CONTINUOUS
 62
     3
100
AcDbLine
 10
65.718507
 20
117.007266
 30
0.0
 11
65.718507
 21
118.949983
 31
0.0
  0
LINE
  5
298
330
1F
100
AcDbEntity
  8
0
  6
CONTINUOUS
 62
     3
100
AcDbLine
 10
67.618505
 20
136.757265
 30
0.0
 11
67.618505
 21
117.007266
 31
0.0
  0
LINE
  5
299
330
1F
100
AcDbEntity
  8
0
  6
CONTINUOUS
 62
     3
100
AcDbLine
 10
67.868506
 20
116.989765
 30
0.0
 11
67.868506
 21
136.774759
 31
0.0
  0
LINE
  5
29A
330
1F
100
AcDbEntity
  8
CSLAYER3
  6
CONTINUOUS
 62
     3
100
AcDbLine
 10
58.208499
 20
132.481877
 30
0.0
 11
58.208499
 21
121.254765
 31
0.0
  0
LINE
  5
29B
330
1F
100
AcDbEntity
  8
0
  6
CONTINUOUS
 62
     3
100
AcDbLine
 10
60.868507
 20
121.879767
 30
0.0
 11
63.568508
 21
121.879767
 31
0.0
  0
LINE
  5
29C
330
1F
100
AcDbEntity
  8
0
  6
CONTINUOUS
 62
     3
100
AcDbLine
 10
63.568508
 20
131.879765
 30
0.0
 11
60.868507
 21
131.879765
 31
0.0
  0
LINE
  5
29D
330
1F
100
AcDbEntity
  8
0
  6
CONTINUOUS
 62
     3
100
AcDbLine
 10
60.868507
 20
131.879765
 30
0.0
 11
60.61851
 21
131.629768
 31
0.0
  0
LINE
  5
29E
330
1F
100
AcDbEntity
  8
0
  6
CONTINUOUS
 62
     3
100
AcDbLine
 10
60.61851
 20
122.129764
 30
0.0
 11
60.868507
 21
121.879767
 31
0.0
  0
LINE
  5
29F
330
1F
100
AcDbEntity
  8
0
  6
CONTINUOUS
 62
     3
100
AcDbLine
 10
63.568508
 20
121.879767
 30
0.0
 11
63.618509
 21
121.929768
 31
0.0
  0
LINE
  5
2A0
330
1F
100
AcDbEntity
  8
0
  6
CONTINUOUS
 62
     3
100
AcDbLine
 10
65.718507
 20
131.829764
 30
0.0
 11
63.618509
 21
131.829764
 31
0.0
  0
LINE
  5
2A1
330
1F
100
AcDbEntity
  8
0
  6
CONTINUOUS
 62
     3
100
AcDbLine
 10
63.618509
 20
131.829764
 30
0.0
 11
63.568508
 21
131.879765
 31
0.0
  0
LINE
  5
2A2
330
1F
100
AcDbEntity
  8
0
  6
CONTINUOUS
 62
     3
100
AcDbLine
 10
63.618509
 20
121.929768
 30
0.0
 11
65.718507
 21
121.929768
 31
0.0
  0
LINE
  5
2A3
330
1F
100
AcDbEntity
  8
0
  6
CONTINUOUS
 62
     3
100
AcDbLine
 10
59.5085
 20
122.179764
 30
0.0
 11
60.61851
 21
122.179764
 31
0.0
  0
LINE
  5
2A4
330
1F
100
AcDbEntity
  8
0
  6
CONTINUOUS
 62
     3
100
AcDbLine
 10
60.61851
 20
131.579767
 30
0.0
 11
59.5085
 21
131.579767
 31
0.0
  0
ARC
  5
2A5
330
1F
100
AcDbEntity
  8
0
  6
CONTINUOUS
 62
     3
100
AcDbCircle
 10
44.68485
 20
128.279769
 30
0.0
 40
0.0999962805271975
100
AcDbArc
 50
89.996899
 51
180.003101
  0
ARC
  5
2A6
330
1F
100
AcDbEntity
  8
0
  6
CONTINUOUS
 62
     3
100
AcDbCircle
 10
44.68485
 20
125.479763
 30
0.0
 40
0.0999962805272011
100
AcDbArc
 50
179.996899
 51
270.003101
  0
LINE
  5
2A7
330
1F
100
AcDbEntity
  8
0
  6
CONTINUOUS
 62
     3
100
AcDbLine
 10
50.808502
 20
128.379765
 30
0.0
 11
44.684855
 21
128.379765
 31
0.0
  0
LINE
  5
2A8
330
1F
100
AcDbEntity
  8
0
  6
CONTINUOUS
 62
     3
100
AcDbLine
 10
44.684855
 20
125.379766
 30
0.0
 11
50.808502
 21
125.379766
 31
0.0
  0
ARC
  5
2A9
330
1F
100
AcDbEntity
  8
0
  6
CONTINUOUS
 62
     3
100
AcDbCircle
 10
53.251177
 20
121.629726
 30
0.0
 40
0.4999648996474487
100
AcDbArc
 50
234.997989
 51
270.000606
  0
INSERT
  5
2AD
330
1F
100
AcDbEntity
  8
0
100
AcDbBlockReference
  2
BLKF025
 10
0.0
 20
0.0
 30
0.0
  0
LINE
  5
2B7
330
1F
100
AcDbEntity
  8
0
  6
CONTINUOUS
 62
     3
100
AcDbLine
 10
53.251182
 20
121.129762
 30
0.0
 11
56.083498
 21
121.129762
 31
0.0
  0
LINE
  5
2B8
330
1F
100
AcDbEntity
  8
0
  6
CONTINUOUS
 62
     3
100
AcDbLine
 10
56.083498
 20
121.129762
 30
0.0
 11
56.208497
 21
121.254767
 31
0.0
  0
LINE
  5
2B9
330
1F
100
AcDbEntity
  8
0
  6
CONTINUOUS
 62
     3
100
AcDbLine
 10
56.208497
 20
132.504764
 30
0.0
 11
56.083498
 21
132.629763
 31
0.0
  0
LINE
  5
2BA
330
1F
100
AcDbEntity
  8
0
  6
CONTINUOUS
 62
     3
100
AcDbLine
 10
58.333499
 20
132.629763
 30
0.0
 11
58.208501
 21
132.504764
 31
0.0
  0
LINE
  5
2BB
330
1F
100
AcDbEntity
  8
0
  6
CONTINUOUS
 62
     3
100
AcDbLine
 10
58.208501
 20
121.254767
 30
0.0
 11
58.333499
 21
121.129762
 31
0.0
  0
LINE
  5
2BC
330
1F
100
AcDbEntity
  8
0
  6
CONTINUOUS
 62
     3
100
AcDbLine
 10
59.258496
 20
132.629763
 30
0.0
 11
58.333499
 21
132.629763
 31
0.0
  0
INSERT
  5
2C0
330
1F
100
AcDbEntity
  8
0
100
AcDbBlockReference
  2
BLKF026
 10
0.0
 20
0.0
 30
0.0
  0
ARC
  5
2CA
330
1F
100
AcDbEntity
  8
0
  6
CONTINUOUS
 62
     3
100
AcDbCircle
 10
59.258497
 20
132.379759
 30
0.0
 40
0.2500034191570872
100
AcDbArc
 50
0.001521
 51
90.000186
  0
LINE
  5
2CB
330
1F
100
AcDbEntity
  8
0
  6
CONTINUOUS
 62
     3
100
AcDbLine
 10
52.964395
 20
132.539342
 30
0.0
 11
51.021708
 21
131.17906
 31
0.0
  0
LINE
  5
2CC
330
1F
100
AcDbEntity
  8
0
  6
CONTINUOUS
 62
     3
100
AcDbLine
 10
51.021708
 20
122.580472
 30
0.0
 11
52.964395
 21
121.220189
 31
0.0
  0
ARC
  5
2CD
330
1F
100
AcDbEntity
  8
0
  6
CONTINUOUS
 62
     3
100
AcDbCircle
 10
51.308489
 20
130.769495
 30
0.0
 40
0.499987002596529
100
AcDbArc
 50
125.000059
 51
180.001798
  0
ARC
  5
2CE
330
1F
100
AcDbEntity
  8
0
  6
CONTINUOUS
 62
     3
100
AcDbCircle
 10
51.308489
 20
122.990037
 30
0.0
 40
0.4999870018076345
100
AcDbArc
 50
179.999056
 51
234.999941
  0
LINE
  5
2CF
330
1F
100
AcDbEntity
  8
0
  6
CONTINUOUS
 62
     3
100
AcDbLine
 10
65.818509
 20
136.854763
 30
0.0
 11
65.718507
 21
136.754769
 31
0.0
  0
LINE
  5
2D0
330
1F
100
AcDbEntity
  8
0
  6
CONTINUOUS
 62
     3
100
AcDbLine
 10
65.718507
 20
117.004763
 30
0.0
 11
65.818509
 21
116.904768
 31
0.0
  0
LINE
  5
2D1
330
1F
100
AcDbEntity
  8
0
  6
CONTINUOUS
 62
     3
100
AcDbLine
 10
67.518508
 20
136.854763
 30
0.0
 11
65.818509
 21
136.854763
 31
0.0
  0
LINE
  5
2D2
330
1F
100
AcDbEntity
  8
0
  6
CONTINUOUS
 62
     3
100
AcDbLine
 10
65.818509
 20
116.904768
 30
0.0
 11
67.518508
 21
116.904768
 31
0.0
  0
LINE
  5
2D3
330
1F
100
AcDbEntity
  8
0
  6
CONTINUOUS
 62
     3
100
AcDbLine
 10
67.518508
 20
116.904768
 30
0.0
 11
67.618509
 21
117.004763
 31
0.0
  0
LINE
  5
2D4
330
1F
100
AcDbEntity
  8
0
  6
CONTINUOUS
 62
     3
100
AcDbLine
 10
67.618509
 20
136.754769
 30
0.0
 11
67.518508
 21
136.854763
 31
0.0
  0
LINE
  5
2D5
330
1F
100
AcDbEntity
  8
0
  6
CONTINUOUS
 62
     3
100
AcDbLine
 10
67.868506
 20
135.754767
 30
0.0
 11
67.618509
 21
135.754767
 31
0.0
  0
LINE
  5
2D6
330
1F
100
AcDbEntity
  8
0
  6
CONTINUOUS
 62
     3
100
AcDbLine
 10
67.618509
 20
118.004765
 30
0.0
 11
67.868506
 21
118.004765
 31
0.0
  0
LINE
  5
2D7
330
1F
100
AcDbEntity
  8
0
  6
CONTINUOUS
 62
     3
100
AcDbLine
 10
70.068506
 20
136.872265
 30
0.0
 11
67.968508
 21
136.872265
 31
0.0
  0
LINE
  5
2D8
330
1F
100
AcDbEntity
  8
0
  6
CONTINUOUS
 62
     3
100
AcDbLine
 10
67.968508
 20
116.887267
 30
0.0
 11
70.068506
 21
116.887267
 31
0.0
  0
LINE
  5
2D9
330
1F
100
AcDbEntity
  8
0
  6
CONTINUOUS
 62
     3
100
AcDbLine
 10
67.968508
 20
136.872265
 30
0.0
 11
67.868506
 21
136.772263
 31
0.0
  0
LINE
  5
2DA
330
1F
100
AcDbEntity
  8
0
  6
CONTINUOUS
 62
     3
100
AcDbLine
 10
67.868506
 20
116.987269
 30
0.0
 11
67.968508
 21
116.887267
 31
0.0
  0
LINE
  5
2DB
330
1F
100
AcDbEntity
  8
0
  6
CONTINUOUS
 62
     3
100
AcDbLine
 10
60.61851
 20
122.129764
 30
0.0
 11
60.61851
 21
131.629768
 31
0.0
  0
LINE
  5
2DC
330
1F
100
AcDbEntity
  8
0
  6
CONTINUOUS
 62
     3
100
AcDbLine
 10
63.618509
 20
126.879762
 30
0.0
 11
63.618509
 21
121.929768
 31
0.0
  0
LINE
  5
2DD
330
1F
100
AcDbEntity
  8
0
  6
CONTINUOUS
 62
     3
100
AcDbLine
 10
63.618509
 20
131.829764
 30
0.0
 11
63.618509
 21
126.879762
 31
0.0
  0
LINE
  5
2DE
330
1F
100
AcDbEntity
  8
0
  6
CONTINUOUS
 62
     3
100
AcDbLine
 10
65.668506
 20
129.417482
 30
0.0
 11
65.668506
 21
124.34205
 31
0.0
  0
LINE
  5
2DF
330
1F
100
AcDbEntity
  8
0
  6
CONTINUOUS
 62
     3
100
AcDbLine
 10
63.66851
 20
129.417482
 30
0.0
 11
65.668506
 21
129.417482
 31
0.0
  0
LINE
  5
2E0
330
1F
100
AcDbEntity
  8
0
  6
CONTINUOUS
 62
     3
100
AcDbLine
 10
63.66851
 20
124.34205
 30
0.0
 11
63.66851
 21
129.417482
 31
0.0
  0
LINE
  5
2E1
330
1F
100
AcDbEntity
  8
0
  6
CONTINUOUS
 62
     3
100
AcDbLine
 10
65.668506
 20
124.34205
 30
0.0
 11
63.66851
 21
124.34205
 31
0.0
  0
LINE
  5
2E2
330
1F
100
AcDbEntity
  8
0
  6
CONTINUOUS
 62
     3
100
AcDbLine
 10
44.584853
 20
127.717818
 30
0.0
 11
44.584853
 21
128.279763
 31
0.0
  0
LINE
  5
2E3
330
1F
100
AcDbEntity
  8
0
  6
CONTINUOUS
 62
     3
100
AcDbLine
 10
44.584853
 20
125.479768
 30
0.0
 11
44.584853
 21
127.717818
 31
0.0
  0
LINE
  5
2E4
330
1F
100
AcDbEntity
  8
0
  6
CONTINUOUS
 62
     3
100
AcDbLine
 10
56.208497
 20
121.254767
 30
0.0
 11
56.208497
 21
121.562268
 31
0.0
  0
LINE
  5
2E5
330
1F
100
AcDbEntity
  8
0
  6
CONTINUOUS
 62
     3
100
AcDbLine
 10
56.208497
 20
132.481876
 30
0.0
 11
56.208497
 21
132.504764
 31
0.0
  0
LINE
  5
2E6
330
1F
100
AcDbEntity
  8
0
  6
CONTINUOUS
 62
     3
100
AcDbLine
 10
56.208497
 20
128.71411
 30
0.0
 11
56.208497
 21
132.481876
 31
0.0
  0
LINE
  5
2E7
330
1F
100
AcDbEntity
  8
0
  6
CONTINUOUS
 62
     3
100
AcDbLine
 10
56.208497
 20
126.372847
 30
0.0
 11
56.208497
 21
128.71411
 31
0.0
  0
LINE
  5
2E8
330
1F
100
AcDbEntity
  8
0
  6
CONTINUOUS
 62
     3
100
AcDbLine
 10
56.208497
 20
121.562268
 30
0.0
 11
56.208497
 21
126.372847
 31
0.0
  0
LINE
  5
2E9
330
1F
100
AcDbEntity
  8
0
  6
CONTINUOUS
 62
     3
100
AcDbLine
 10
58.208501
 20
126.372847
 30
0.0
 11
58.208501
 21
128.71411
 31
0.0
  0
LINE
  5
2EA
330
1F
100
AcDbEntity
  8
0
  6
CONTINUOUS
 62
     3
100
AcDbLine
 10
58.208501
 20
132.481876
 30
0.0
 11
58.208501
 21
132.504764
 31
0.0
  0
LINE
  5
2EB
330
1F
100
AcDbEntity
  8
0
  6
CONTINUOUS
 62
     3
100
AcDbLine
 10
59.5085
 20
121.419962
 30
0.0
 11
59.5085
 21
121.379766
 31
0.0
  0
LINE
  5
2EC
330
1F
100
AcDbEntity
  8
0
  6
CONTINUOUS
 62
     3
100
AcDbLine
 10
59.5085
 20
132.379766
 30
0.0
 11
59.5085
 21
121.419962
 31
0.0
  0
LINE
  5
2ED
330
1F
100
AcDbEntity
  8
0
  6
CONTINUOUS
 62
     3
100
AcDbLine
 10
56.208497
 20
126.372847
 30
0.0
 11
56.333502
 21
125.87868
 31
0.0
  0
LINE
  5
2EE
330
1F
100
AcDbEntity
  8
0
  6
CONTINUOUS
 62
     3
100
AcDbLine
 10
56.333502
 20
121.622334
 30
0.0
 11
56.208497
 21
121.562268
 31
0.0
  0
LINE
  5
2EF
330
1F
100
AcDbEntity
  8
0
  6
CONTINUOUS
 62
     3
100
AcDbLine
 10
56.333502
 20
121.622334
 30
0.0
 11
58.083502
 21
121.622334
 31
0.0
  0
LINE
  5
2F0
330
1F
100
AcDbEntity
  8
0
  6
CONTINUOUS
 62
     3
100
AcDbLine
 10
58.083502
 20
125.87868
 30
0.0
 11
56.333502
 21
125.87868
 31
0.0
  0
LINE
  5
2F1
330
1F
100
AcDbEntity
  8
0
  6
CONTINUOUS
 62
     3
100
AcDbLine
 10
58.083502
 20
125.87868
 30
0.0
 11
58.208501
 21
126.372847
 31
0.0
  0
LINE
  5
2F2
330
1F
100
AcDbEntity
  8
0
  6
CONTINUOUS
 62
     3
100
AcDbLine
 10
58.208501
 20
121.562268
 30
0.0
 11
58.083502
 21
121.622334
 31
0.0
  0
LINE
  5
2F3
330
1F
100
AcDbEntity
  8
0
  6
CONTINUOUS
 62
     3
100
AcDbLine
 10
58.208501
 20
128.71411
 30
0.0
 11
58.083502
 21
129.20827
 31
0.0
  0
LINE
  5
2F4
330
1F
100
AcDbEntity
  8
0
  6
CONTINUOUS
 62
     3
100
AcDbLine
 10
56.333502
 20
129.20827
 30
0.0
 11
56.208497
 21
128.71411
 31
0.0
  0
LINE
  5
2F5
330
1F
100
AcDbEntity
  8
0
  6
CONTINUOUS
 62
     3
100
AcDbLine
 10
56.333502
 20
129.20827
 30
0.0
 11
58.083502
 21
129.20827
 31
0.0
  0
LINE
  5
2F6
330
1F
100
AcDbEntity
  8
0
  6
CONTINUOUS
 62
     3
100
AcDbLine
 10
56.208497
 20
132.481876
 30
0.0
 11
56.333502
 21
132.54195
 31
0.0
  0
LINE
  5
2F7
330
1F
100
AcDbEntity
  8
0
  6
CONTINUOUS
 62
     3
100
AcDbLine
 10
58.083502
 20
132.54195
 30
0.0
 11
58.208501
 21
132.481876
 31
0.0
  0
LINE
  5
2F8
330
1F
100
AcDbEntity
  8
0
  6
CONTINUOUS
 62
     3
100
AcDbLine
 10
58.083502
 20
132.54195
 30
0.0
 11
56.333502
 21
132.54195
 31
0.0
  0
LINE
  5
2F9
330
1F
100
AcDbEntity
  8
0
  6
CONTINUOUS
 62
     3
100
AcDbLine
 10
50.808502
 20
122.990045
 30
0.0
 11
50.808502
 21
130.769479
 31
0.0
  0
LINE
  5
2FA
330
1F
100
AcDbEntity
  8
0
  6
CONTINUOUS
 62
     3
100
AcDbLine
 10
58.083502
 20
121.217582
 30
0.0
 11
58.208501
 21
121.277656
 31
0.0
  0
LINE
  5
2FB
330
1F
100
AcDbEntity
  8
0
  6
CONTINUOUS
 62
     3
100
AcDbLine
 10
58.083502
 20
121.217582
 30
0.0
 11
56.333502
 21
121.217582
 31
0.0
  0
LINE
  5
2FC
330
1F
100
AcDbEntity
  8
0
  6
CONTINUOUS
 62
     3
100
AcDbLine
 10
56.208497
 20
121.277656
 30
0.0
 11
56.333502
 21
121.217582
 31
0.0
  0
LINE
  5
2FD
330
1F
100
AcDbEntity
  8
0
  6
CONTINUOUS
 62
     3
100
AcDbLine
 10
65.718507
 20
117.004763
 30
0.0
 11
65.718507
 21
136.754769
 31
0.0
  0
LINE
  5
2FE
330
1F
100
AcDbEntity
  8
0
  6
CONTINUOUS
 62
     3
100
AcDbLine
 10
67.618509
 20
118.947487
 30
0.0
 11
67.618509
 21
117.004763
 31
0.0
  0
LINE
  5
2FF
330
1F
100
AcDbEntity
  8
0
  6
CONTINUOUS
 62
     3
100
AcDbLine
 10
67.618509
 20
136.754769
 30
0.0
 11
67.618509
 21
118.947487
 31
0.0
  0
LINE
  5
300
330
1F
100
AcDbEntity
  8
0
  6
CONTINUOUS
 62
     3
100
AcDbLine
 10
67.868506
 20
126.879762
 30
0.0
 11
67.868506
 21
136.772263
 31
0.0
  0
LINE
  5
301
330
1F
100
AcDbEntity
  8
0
  6
CONTINUOUS
 62
     3
100
AcDbLine
 10
67.868506
 20
116.987269
 30
0.0
 11
67.868506
 21
126.879762
 31
0.0
  0
LINE
  5
302
330
1F
100
AcDbEntity
  8
0
  6
CONTINUOUS
 62
     3
100
AcDbLine
 10
52.964395
 20
121.220189
 30
0.0
 11
52.964395
 21
132.539342
 31
0.0
  0
LINE
  5
303
330
1F
100
AcDbEntity
  8
0
  6
CONTINUOUS
 62
     3
100
AcDbLine
 10
151.927777
 20
60.415325
 30
0.0
 11
156.027777
 21
60.415325
 31
0.0
  0
LINE
  5
304
330
1F
100
AcDbEntity
  8
0
  6
CONTINUOUS
 62
     3
100
AcDbLine
 10
151.927777
 20
60.415325
 30
0.0
 11
151.927777
 21
62.895325
 31
0.0
  0
LINE
  5
305
330
1F
100
AcDbEntity
  8
0
  6
CONTINUOUS
 62
     3
100
AcDbLine
 10
155.259242
 20
60.735325
 30
0.0
 11
155.259242
 21
62.895325
 31
0.0
  0
LINE
  5
306
330
1F
100
AcDbEntity
  8
0
  6
CONTINUOUS
 62
     3
100
AcDbLine
 10
155.15546
 20
60.735325
 30
0.0
 11
155.15546
 21
62.895325
 31
0.0
  0
LINE
  5
307
330
1F
100
AcDbEntity
  8
0
  6
CONTINUOUS
 62
     3
100
AcDbLine
 10
154.575905
 20
60.735325
 30
0.0
 11
154.575905
 21
62.895325
 31
0.0
  0
LINE
  5
308
330
1F
100
AcDbEntity
  8
0
  6
CONTINUOUS
 62
     3
100
AcDbLine
 10
153.088251
 20
60.735325
 30
0.0
 11
153.088251
 21
62.895325
 31
0.0
  0
LINE
  5
309
330
1F
100
AcDbEntity
  8
0
  6
CONTINUOUS
 62
     3
100
AcDbLine
 10
152.781083
 20
60.735325
 30
0.0
 11
152.781083
 21
62.895325
 31
0.0
  0
LINE
  5
30A
330
1F
100
AcDbEntity
  8
0
  6
CONTINUOUS
 62
     3
100
AcDbLine
 10
152.39541
 20
60.735325
 30
0.0
 11
152.39541
 21
62.895325
 31
0.0
  0
LINE
  5
30B
330
1F
100
AcDbEntity
  8
0
  6
CONTINUOUS
 62
     3
100
AcDbLine
 10
155.259242
 20
60.735325
 30
0.0
 11
154.575905
 21
60.735325
 31
0.0
  0
LINE
  5
30C
330
1F
100
AcDbEntity
  8
0
  6
CONTINUOUS
 62
     3
100
AcDbLine
 10
153.088251
 20
60.735325
 30
0.0
 11
152.39541
 21
60.735325
 31
0.0
  0
LINE
  5
30D
330
1F
100
AcDbEntity
  8
0
  6
CONTINUOUS
 62
     3
100
AcDbLine
 10
150.827777
 20
68.295325
 30
0.0
 11
150.827777
 21
70.095325
 31
0.0
  0
LINE
  5
30E
330
1F
100
AcDbEntity
  8
0
  6
CONTINUOUS
 62
     3
100
AcDbLine
 10
151.427777
 20
79.695325
 30
0.0
 11
150.827777
 21
70.095325
 31
0.0
  0
LINE
  5
30F
330
1F
100
AcDbEntity
  8
0
  6
CONTINUOUS
 62
     3
100
AcDbLine
 10
150.827777
 20
70.095325
 30
0.0
 11
156.027777
 21
70.095325
 31
0.0
  0
ARC
  5
310
330
1F
100
AcDbEntity
  8
0
  6
CONTINUOUS
 62
     3
100
AcDbCircle
 10
156.027777
 20
73.295325
 30
0.0
 40
4.723999999999999
100
AcDbArc
 50
90.0
 51
111.343676
  0
ARC
  5
311
330
1F
100
AcDbEntity
  8
0
  6
CONTINUOUS
 62
     3
100
AcDbCircle
 10
156.027777
 20
77.695325
 30
0.0
 40
5.0
100
AcDbArc
 50
241.642366
 51
269.999997
  0
LINE
  5
312
330
1F
100
AcDbEntity
  8
0
  6
CONTINUOUS
 62
     3
100
AcDbLine
 10
153.652909
 20
73.295325
 30
0.0
 11
156.027777
 21
73.295325
 31
0.0
  0
LINE
  5
313
330
1F
100
AcDbEntity
  8
0
  6
CONTINUOUS
 62
     3
100
AcDbLine
 10
154.308424
 20
77.695325
 30
0.0
 11
156.027777
 21
77.695325
 31
0.0
  0
LINE
  5
314
330
1F
100
AcDbEntity
  8
0
  6
CONTINUOUS
 62
     3
100
AcDbLine
 10
153.652909
 20
73.295325
 30
0.0
 11
154.308424
 21
77.695325
 31
0.0
  0
LINE
  5
315
330
1F
100
AcDbEntity
  8
0
  6
CONTINUOUS
 62
     3
100
AcDbLine
 10
150.547777
 20
62.895325
 30
0.0
 11
156.027777
 21
62.895325
 31
0.0
  0
LINE
  5
316
330
1F
100
AcDbEntity
  8
0
  6
CONTINUOUS
 62
     3
100
AcDbLine
 10
156.027777
 20
68.295325
 30
0.0
 11
150.507777
 21
68.295325
 31
0.0
  0
LINE
  5
317
330
1F
100
AcDbEntity
  8
0
  6
CONTINUOUS
 62
     3
100
AcDbLine
 10
150.347777
 20
63.095325
 30
0.0
 11
150.347777
 21
63.381803
 31
0.0
  0
ARC
  5
318
330
1F
100
AcDbEntity
  8
0
  6
CONTINUOUS
 62
     3
100
AcDbCircle
 10
150.547777
 20
63.095325
 30
0.0
 40
0.2
100
AcDbArc
 50
180.0
 51
269.999997
  0
LINE
  5
319
330
1F
100
AcDbEntity
  8
0
  6
CONTINUOUS
 62
     3
100
AcDbLine
 10
150.027777
 20
63.615325
 30
0.0
 11
150.027777
 21
67.815325
 31
0.0
  0
ARC
  5
31A
330
1F
100
AcDbEntity
  8
0
  6
CONTINUOUS
 62
     3
100
AcDbCircle
 10
150.507777
 20
67.815325
 30
0.0
 40
0.4799999999999999
100
AcDbArc
 50
90.0
 51
180.000002
  0
ARC
  5
31B
330
1F
100
AcDbEntity
  8
0
  6
CONTINUOUS
 62
     3
100
AcDbCircle
 10
150.347777
 20
63.615325
 30
0.0
 40
0.32
100
AcDbArc
 50
180.000002
 51
269.999997
  0
LINE
  5
31C
330
1F
100
AcDbEntity
  8
0
  6
CONTINUOUS
 62
     3
100
AcDbLine
 10
155.707777
 20
66.895325
 30
0.0
 11
155.707777
 21
63.615325
 31
0.0
  0
LINE
  5
31D
330
1F
100
AcDbEntity
  8
0
  6
CONTINUOUS
 62
     3
100
AcDbLine
 10
154.579564
 20
66.895325
 30
0.0
 11
154.579564
 21
63.608827
 31
0.0
  0
LINE
  5
31E
330
1F
100
AcDbEntity
  8
0
  6
CONTINUOUS
 62
     3
100
AcDbLine
 10
153.952561
 20
66.895325
 30
0.0
 11
153.952561
 21
63.608827
 31
0.0
  0
LINE
  5
31F
330
1F
100
AcDbEntity
  8
0
  6
CONTINUOUS
 62
     3
100
AcDbLine
 10
152.953238
 20
66.895325
 30
0.0
 11
152.953238
 21
63.587366
 31
0.0
  0
LINE
  5
320
330
1F
100
AcDbEntity
  8
0
  6
CONTINUOUS
 62
     3
100
AcDbLine
 10
152.369157
 20
66.895325
 30
0.0
 11
152.369157
 21
63.587366
 31
0.0
  0
LINE
  5
321
330
1F
100
AcDbEntity
  8
0
  6
CONTINUOUS
 62
     3
100
AcDbLine
 10
151.62787
 20
66.895325
 30
0.0
 11
151.62787
 21
63.55298
 31
0.0
  0
LINE
  5
322
330
1F
100
AcDbEntity
  8
0
  6
CONTINUOUS
 62
     3
100
AcDbLine
 10
151.112561
 20
66.895325
 30
0.0
 11
151.112561
 21
63.55298
 31
0.0
  0
LINE
  5
323
330
1F
100
AcDbEntity
  8
0
  6
CONTINUOUS
 62
     3
100
AcDbLine
 10
150.733196
 20
66.895325
 30
0.0
 11
150.733196
 21
63.509035
 31
0.0
  0
LINE
  5
324
330
1F
100
AcDbEntity
  8
0
  6
CONTINUOUS
 62
     3
100
AcDbLine
 10
150.305776
 20
66.895325
 30
0.0
 11
150.305776
 21
63.509035
 31
0.0
  0
ARC
  5
325
330
1F
100
AcDbEntity
  8
0
  6
CONTINUOUS
 62
     3
100
AcDbCircle
 10
156.027777
 20
63.615325
 30
0.0
 40
0.32
100
AcDbArc
 50
180.000002
 51
269.999997
  0
ARC
  5
326
330
1F
100
AcDbEntity
  8
0
  6
CONTINUOUS
 62
     3
100
AcDbCircle
 10
154.266063
 20
63.608827
 30
0.0
 40
0.3135014107148244
100
AcDbArc
 50
180.000002
 51
359.999998
  0
ARC
  5
327
330
1F
100
AcDbEntity
  8
0
  6
CONTINUOUS
 62
     3
100
AcDbCircle
 10
152.661198
 20
63.587366
 30
0.0
 40
0.2920405259076839
100
AcDbArc
 50
180.000002
 51
359.999998
  0
ARC
  5
328
330
1F
100
AcDbEntity
  8
0
  6
CONTINUOUS
 62
     3
100
AcDbCircle
 10
151.370216
 20
63.55298
 30
0.0
 40
0.2576545944442354
100
AcDbArc
 50
180.0
 51
360.0
  0
ARC
  5
329
330
1F
100
AcDbEntity
  8
0
  6
CONTINUOUS
 62
     3
100
AcDbCircle
 10
150.519486
 20
63.509035
 30
0.0
 40
0.2137095508770223
100
AcDbArc
 50
180.0
 51
360.0
  0
LINE
  5
32A
330
1F
100
AcDbEntity
  8
0
  6
CONTINUOUS
 62
     3
100
AcDbLine
 10
156.027777
 20
79.695325
 30
0.0
 11
151.427777
 21
79.695325
 31
0.0
  0
LINE
  5
32B
330
1F
100
AcDbEntity
  8
0
  6
CONTINUOUS
 62
     3
100
AcDbLine
 10
156.027777
 20
82.226064
 30
0.0
 11
151.027777
 21
82.226064
 31
0.0
  0
LINE
  5
32C
330
1F
100
AcDbEntity
  8
0
  6
CONTINUOUS
 62
     3
100
AcDbLine
 10
150.227777
 20
83.026064
 30
0.0
 11
151.027777
 21
82.226064
 31
0.0
  0
LINE
  5
32D
330
1F
100
AcDbEntity
  8
0
  6
CONTINUOUS
 62
     3
100
AcDbLine
 10
156.027777
 20
87.426064
 30
0.0
 11
151.827777
 21
87.426064
 31
0.0
  0
LINE
  5
32E
330
1F
100
AcDbEntity
  8
0
  6
CONTINUOUS
 62
     3
100
AcDbLine
 10
150.627777
 20
86.226064
 30
0.0
 11
150.627777
 21
82.626064
 31
0.0
  0
ARC
  5
32F
330
1F
100
AcDbEntity
  8
0
  6
CONTINUOUS
 62
     3
100
AcDbCircle
 10
151.827777
 20
86.226064
 30
0.0
 40
1.2
100
AcDbArc
 50
90.0
 51
180.000002
  0
LINE
  5
330
330
1F
100
AcDbEntity
  8
0
  6
CONTINUOUS
 62
     3
100
AcDbLine
 10
150.227777
 20
83.026064
 30
0.0
 11
150.227777
 21
85.632768
 31
0.0
  0
ARC
  5
331
330
1F
100
AcDbEntity
  8
0
  6
CONTINUOUS
 62
     3
100
AcDbCircle
 10
150.867777
 20
85.632768
 30
0.0
 40
0.6399999999999995
100
AcDbArc
 50
112.024313
 51
180.000002
  0
LINE
  5
332
330
1F
100
AcDbEntity
  8
0
  6
CONTINUOUS
 62
     3
100
AcDbLine
 10
155.4218
 20
82.626064
 30
0.0
 11
155.4218
 21
85.586064
 31
0.0
  0
LINE
  5
333
330
1F
100
AcDbEntity
  8
0
  6
CONTINUOUS
 62
     3
100
AcDbLine
 10
152.66201
 20
82.626064
 30
0.0
 11
152.66201
 21
85.764612
 31
0.0
  0
LINE
  5
334
330
1F
100
AcDbEntity
  8
0
  6
CONTINUOUS
 62
     3
100
AcDbLine
 10
151.739107
 20
82.626064
 30
0.0
 11
151.739107
 21
85.764612
 31
0.0
  0
LINE
  5
335
330
1F
100
AcDbEntity
  8
0
  6
CONTINUOUS
 62
     3
100
AcDbLine
 10
155.4218
 20
82.626064
 30
0.0
 11
152.66201
 21
82.626064
 31
0.0
  0
LINE
  5
336
330
1F
100
AcDbEntity
  8
0
  6
CONTINUOUS
 62
     3
100
AcDbLine
 10
151.739107
 20
82.626064
 30
0.0
 11
150.627777
 21
82.626064
 31
0.0
  0
ARC
  5
337
330
1F
100
AcDbEntity
  8
0
  6
CONTINUOUS
 62
     3
100
AcDbCircle
 10
156.0618
 20
85.586064
 30
0.0
 40
0.6399999999999995
100
AcDbArc
 50
93.047291
 51
180.000002
  0
ARC
  5
338
330
1F
100
AcDbEntity
  8
0
  6
CONTINUOUS
 62
     3
100
AcDbCircle
 10
156.0618
 20
82.626064
 30
0.0
 40
0.6399999999999995
100
AcDbArc
 50
93.047291
 51
180.000002
  0
ARC
  5
339
330
1F
100
AcDbEntity
  8
0
  6
CONTINUOUS
 62
     3
100
AcDbCircle
 10
152.200558
 20
85.764612
 30
0.0
 40
0.461451762930565
100
AcDbArc
 50
-0.000002
 51
180.000002
  0
ARC
  5
33A
330
1F
100
AcDbEntity
  8
0
  6
CONTINUOUS
 62
     3
100
AcDbCircle
 10
152.200558
 20
82.626064
 30
0.0
 40
0.461451762930565
100
AcDbArc
 50
-0.000002
 51
180.000002
  0
LINE
  5
33B
330
1F
100
AcDbEntity
  8
0
  6
CONTINUOUS
 62
     3
100
AcDbLine
 10
151.465777
 20
82.226064
 30
0.0
 11
151.465777
 21
81.057325
 31
0.0
  0
LINE
  5
33C
330
1F
100
AcDbEntity
  8
0
  6
CONTINUOUS
 62
     3
100
AcDbLine
 10
151.827777
 20
80.695325
 30
0.0
 11
151.465777
 21
81.057325
 31
0.0
  0
LINE
  5
33D
330
1F
100
AcDbEntity
  8
0
  6
CONTINUOUS
 62
     3
100
AcDbLine
 10
151.827777
 20
80.695325
 30
0.0
 11
151.827777
 21
79.695325
 31
0.0
  0
LINE
  5
33E
330
1F
100
AcDbEntity
  8
0
  6
CONTINUOUS
 62
     3
100
AcDbLine
 10
151.827777
 20
79.695325
 30
0.0
 11
151.427777
 21
79.695325
 31
0.0
  0
LINE
  5
33F
330
1F
100
AcDbEntity
  8
0
  6
CONTINUOUS
 62
     3
100
AcDbLine
 10
151.665777
 20
80.857325
 30
0.0
 11
151.665777
 21
82.226064
 31
0.0
  0
LINE
  5
340
330
1F
100
AcDbEntity
  8
0
  6
CONTINUOUS
 62
     3
100
AcDbLine
 10
151.465777
 20
81.057325
 30
0.0
 11
156.027777
 21
81.057325
 31
0.0
  0
LINE
  5
341
330
1F
100
AcDbEntity
  8
0
  6
CONTINUOUS
 62
     3
100
AcDbLine
 10
151.827777
 20
80.695325
 30
0.0
 11
156.027777
 21
80.695325
 31
0.0
  0
LINE
  5
342
330
1F
100
AcDbEntity
  8
0
  6
CONTINUOUS
 62
     3
100
AcDbLine
 10
156.027777
 20
66.895325
 30
0.0
 11
150.027777
 21
66.895325
 31
0.0
  0
ARC
  5
343
330
1F
100
AcDbEntity
  8
0
  6
CONTINUOUS
 62
     3
100
AcDbCircle
 10
150.827777
 20
69.415325
 30
0.0
 40
0.6
100
AcDbArc
 50
-90.000003
 51
90.0
  0
LINE
  5
344
330
1F
100
AcDbEntity
  8
0
  6
CONTINUOUS
 62
     3
100
AcDbLine
 10
150.827777
 20
69.215325
 30
0.0
 11
151.418709
 21
69.519248
 31
0.0
  0
LINE
  5
345
330
1F
100
AcDbEntity
  8
0
  6
CONTINUOUS
 62
     3
100
AcDbLine
 10
150.827777
 20
69.440227
 30
0.0
 11
151.350853
 21
69.709251
 31
0.0
  0
LINE
  5
346
330
1F
100
AcDbEntity
  8
0
  6
CONTINUOUS
 62
     3
100
AcDbLine
 10
160.127777
 20
60.415325
 30
0.0
 11
156.027777
 21
60.415325
 31
0.0
  0
LINE
  5
347
330
1F
100
AcDbEntity
  8
0
  6
CONTINUOUS
 62
     3
100
AcDbLine
 10
160.127777
 20
60.415325
 30
0.0
 11
160.127777
 21
62.895325
 31
0.0
  0
LINE
  5
348
330
1F
100
AcDbEntity
  8
0
  6
CONTINUOUS
 62
     3
100
AcDbLine
 10
160.127777
 20
60.735325
 30
0.0
 11
160.844745
 21
60.735325
 31
0.0
  0
LINE
  5
349
330
1F
100
AcDbEntity
  8
0
  6
CONTINUOUS
 62
     3
100
AcDbLine
 10
161.227777
 20
68.295325
 30
0.0
 11
161.227777
 21
70.095325
 31
0.0
  0
LINE
  5
34A
330
1F
100
AcDbEntity
  8
0
  6
CONTINUOUS
 62
     3
100
AcDbLine
 10
160.627777
 20
79.695325
 30
0.0
 11
161.227777
 21
70.095325
 31
0.0
  0
LINE
  5
34B
330
1F
100
AcDbEntity
  8
0
  6
CONTINUOUS
 62
     3
100
AcDbLine
 10
161.227777
 20
70.095325
 30
0.0
 11
156.027777
 21
70.095325
 31
0.0
  0
ARC
  5
34C
330
1F
100
AcDbEntity
  8
0
  6
CONTINUOUS
 62
     3
100
AcDbCircle
 10
156.027777
 20
73.295325
 30
0.0
 40
4.723999999999999
100
AcDbArc
 50
68.656324
 51
90.0
  0
ARC
  5
34D
330
1F
100
AcDbEntity
  8
0
  6
CONTINUOUS
 62
     3
100
AcDbCircle
 10
156.027777
 20
77.695325
 30
0.0
 40
5.0
100
AcDbArc
 50
270.000003
 51
298.357634
  0
LINE
  5
34E
330
1F
100
AcDbEntity
  8
0
  6
CONTINUOUS
 62
     3
100
AcDbLine
 10
158.402646
 20
73.295325
 30
0.0
 11
156.027777
 21
73.295325
 31
0.0
  0
LINE
  5
34F
330
1F
100
AcDbEntity
  8
0
  6
CONTINUOUS
 62
     3
100
AcDbLine
 10
157.747131
 20
77.695325
 30
0.0
 11
156.027777
 21
77.695325
 31
0.0
  0
LINE
  5
350
330
1F
100
AcDbEntity
  8
0
  6
CONTINUOUS
 62
     3
100
AcDbLine
 10
158.402646
 20
73.295325
 30
0.0
 11
157.747131
 21
77.695325
 31
0.0
  0
LINE
  5
351
330
1F
100
AcDbEntity
  8
0
  6
CONTINUOUS
 62
     3
100
AcDbLine
 10
161.507777
 20
62.895325
 30
0.0
 11
156.027777
 21
62.895325
 31
0.0
  0
LINE
  5
352
330
1F
100
AcDbEntity
  8
0
  6
CONTINUOUS
 62
     3
100
AcDbLine
 10
156.027777
 20
68.295325
 30
0.0
 11
161.547777
 21
68.295325
 31
0.0
  0
LINE
  5
353
330
1F
100
AcDbEntity
  8
0
  6
CONTINUOUS
 62
     3
100
AcDbLine
 10
161.707777
 20
63.095325
 30
0.0
 11
161.707777
 21
63.381803
 31
0.0
  0
ARC
  5
354
330
1F
100
AcDbEntity
  8
0
  6
CONTINUOUS
 62
     3
100
AcDbCircle
 10
161.507777
 20
63.095325
 30
0.0
 40
0.2
100
AcDbArc
 50
270.000003
 51
360.0
  0
LINE
  5
355
330
1F
100
AcDbEntity
  8
0
  6
CONTINUOUS
 62
     3
100
AcDbLine
 10
162.027777
 20
63.615325
 30
0.0
 11
162.027777
 21
67.815325
 31
0.0
  0
ARC
  5
356
330
1F
100
AcDbEntity
  8
0
  6
CONTINUOUS
 62
     3
100
AcDbCircle
 10
161.547777
 20
67.815325
 30
0.0
 40
0.4799999999999999
100
AcDbArc
 50
-0.000002
 51
90.0
  0
ARC
  5
357
330
1F
100
AcDbEntity
  8
0
  6
CONTINUOUS
 62
     3
100
AcDbCircle
 10
161.707777
 20
63.615325
 30
0.0
 40
0.32
100
AcDbArc
 50
270.000003
 51
359.999998
  0
LINE
  5
358
330
1F
100
AcDbEntity
  8
0
  6
CONTINUOUS
 62
     3
100
AcDbLine
 10
156.347777
 20
66.895325
 30
0.0
 11
156.347777
 21
63.615325
 31
0.0
  0
LINE
  5
359
330
1F
100
AcDbEntity
  8
0
  6
CONTINUOUS
 62
     3
100
AcDbLine
 10
157.475992
 20
66.895325
 30
0.0
 11
157.475992
 21
63.608827
 31
0.0
  0
LINE
  5
35A
330
1F
100
AcDbEntity
  8
0
  6
CONTINUOUS
 62
     3
100
AcDbLine
 10
158.102994
 20
66.895325
 30
0.0
 11
158.102994
 21
63.608827
 31
0.0
  0
LINE
  5
35B
330
1F
100
AcDbEntity
  8
0
  6
CONTINUOUS
 62
     3
100
AcDbLine
 10
159.102316
 20
66.895325
 30
0.0
 11
159.102316
 21
63.587366
 31
0.0
  0
LINE
  5
35C
330
1F
100
AcDbEntity
  8
0
  6
CONTINUOUS
 62
     3
100
AcDbLine
 10
159.686398
 20
66.895325
 30
0.0
 11
159.686398
 21
63.587366
 31
0.0
  0
LINE
  5
35D
330
1F
100
AcDbEntity
  8
0
  6
CONTINUOUS
 62
     3
100
AcDbLine
 10
160.427685
 20
66.895325
 30
0.0
 11
160.427685
 21
63.55298
 31
0.0
  0
LINE
  5
35E
330
1F
100
AcDbEntity
  8
0
  6
CONTINUOUS
 62
     3
100
AcDbLine
 10
160.942994
 20
66.895325
 30
0.0
 11
160.942994
 21
63.55298
 31
0.0
  0
LINE
  5
35F
330
1F
100
AcDbEntity
  8
0
  6
CONTINUOUS
 62
     3
100
AcDbLine
 10
161.32236
 20
66.895325
 30
0.0
 11
161.32236
 21
63.509035
 31
0.0
  0
LINE
  5
360
330
1F
100
AcDbEntity
  8
0
  6
CONTINUOUS
 62
     3
100
AcDbLine
 10
161.749779
 20
66.895325
 30
0.0
 11
161.749779
 21
63.509035
 31
0.0
  0
ARC
  5
361
330
1F
100
AcDbEntity
  8
0
  6
CONTINUOUS
 62
     3
100
AcDbCircle
 10
156.027777
 20
63.615325
 30
0.0
 40
0.32
100
AcDbArc
 50
270.000003
 51
359.999998
  0
ARC
  5
362
330
1F
100
AcDbEntity
  8
0
  6
CONTINUOUS
 62
     3
100
AcDbCircle
 10
157.789492
 20
63.608827
 30
0.0
 40
0.3135014107148244
100
AcDbArc
 50
180.000002
 51
359.999998
  0
ARC
  5
363
330
1F
100
AcDbEntity
  8
0
  6
CONTINUOUS
 62
     3
100
AcDbCircle
 10
159.394357
 20
63.587366
 30
0.0
 40
0.2920405259076839
100
AcDbArc
 50
180.000002
 51
359.999998
  0
ARC
  5
364
330
1F
100
AcDbEntity
  8
0
  6
CONTINUOUS
 62
     3
100
AcDbCircle
 10
160.68534
 20
63.55298
 30
0.0
 40
0.2576545944442354
100
AcDbArc
 50
180.0
 51
360.0
  0
ARC
  5
365
330
1F
100
AcDbEntity
  8
0
  6
CONTINUOUS
 62
     3
100
AcDbCircle
 10
161.536069
 20
63.509035
 30
0.0
 40
0.2137095508770223
100
AcDbArc
 50
180.0
 51
360.0
  0
LINE
  5
366
330
1F
100
AcDbEntity
  8
0
  6
CONTINUOUS
 62
     3
100
AcDbLine
 10
156.027777
 20
79.695325
 30
0.0
 11
160.627777
 21
79.695325
 31
0.0
  0
LINE
  5
367
330
1F
100
AcDbEntity
  8
0
  6
CONTINUOUS
 62
     3
100
AcDbLine
 10
156.027777
 20
82.226064
 30
0.0
 11
161.027777
 21
82.226064
 31
0.0
  0
LINE
  5
368
330
1F
100
AcDbEntity
  8
0
  6
CONTINUOUS
 62
     3
100
AcDbLine
 10
161.827777
 20
83.026064
 30
0.0
 11
161.027777
 21
82.226064
 31
0.0
  0
LINE
  5
369
330
1F
100
AcDbEntity
  8
0
  6
CONTINUOUS
 62
     3
100
AcDbLine
 10
156.027777
 20
87.426064
 30
0.0
 11
160.227777
 21
87.426064
 31
0.0
  0
LINE
  5
36A
330
1F
100
AcDbEntity
  8
0
  6
CONTINUOUS
 62
     3
100
AcDbLine
 10
161.427777
 20
86.226064
 30
0.0
 11
161.427777
 21
82.626064
 31
0.0
  0
ARC
  5
36B
330
1F
100
AcDbEntity
  8
0
  6
CONTINUOUS
 62
     3
100
AcDbCircle
 10
160.227777
 20
86.226064
 30
0.0
 40
1.2
100
AcDbArc
 50
-0.000002
 51
90.0
  0
LINE
  5
36C
330
1F
100
AcDbEntity
  8
0
  6
CONTINUOUS
 62
     3
100
AcDbLine
 10
161.827777
 20
83.026064
 30
0.0
 11
161.827777
 21
85.632768
 31
0.0
  0
ARC
  5
36D
330
1F
100
AcDbEntity
  8
0
  6
CONTINUOUS
 62
     3
100
AcDbCircle
 10
161.187777
 20
85.632768
 30
0.0
 40
0.6399999999999995
100
AcDbArc
 50
-0.000002
 51
67.975687
  0
LINE
  5
36E
330
1F
100
AcDbEntity
  8
0
  6
CONTINUOUS
 62
     3
100
AcDbLine
 10
156.633755
 20
82.626064
 30
0.0
 11
156.633755
 21
85.586064
 31
0.0
  0
LINE
  5
36F
330
1F
100
AcDbEntity
  8
0
  6
CONTINUOUS
 62
     3
100
AcDbLine
 10
159.393545
 20
82.626064
 30
0.0
 11
159.393545
 21
85.764612
 31
0.0
  0
LINE
  5
370
330
1F
100
AcDbEntity
  8
0
  6
CONTINUOUS
 62
     3
100
AcDbLine
 10
160.316448
 20
82.626064
 30
0.0
 11
160.316448
 21
85.764612
 31
0.0
  0
LINE
  5
371
330
1F
100
AcDbEntity
  8
0
  6
CONTINUOUS
 62
     3
100
AcDbLine
 10
156.633755
 20
82.626064
 30
0.0
 11
159.393545
 21
82.626064
 31
0.0
  0
LINE
  5
372
330
1F
100
AcDbEntity
  8
0
  6
CONTINUOUS
 62
     3
100
AcDbLine
 10
160.316448
 20
82.626064
 30
0.0
 11
161.427777
 21
82.626064
 31
0.0
  0
ARC
  5
373
330
1F
100
AcDbEntity
  8
0
  6
CONTINUOUS
 62
     3
100
AcDbCircle
 10
155.993755
 20
85.586064
 30
0.0
 40
0.6399999999999995
100
AcDbArc
 50
-0.000002
 51
86.952709
  0
ARC
  5
374
330
1F
100
AcDbEntity
  8
0
  6
CONTINUOUS
 62
     3
100
AcDbCircle
 10
155.993755
 20
82.626064
 30
0.0
 40
0.6399999999999995
100
AcDbArc
 50
-0.000002
 51
86.952709
  0
ARC
  5
375
330
1F
100
AcDbEntity
  8
0
  6
CONTINUOUS
 62
     3
100
AcDbCircle
 10
159.854996
 20
85.764612
 30
0.0
 40
0.461451762930565
100
AcDbArc
 50
-0.000002
 51
180.000002
  0
ARC
  5
376
330
1F
100
AcDbEntity
  8
0
  6
CONTINUOUS
 62
     3
100
AcDbCircle
 10
159.854996
 20
82.626064
 30
0.0
 40
0.461451762930565
100
AcDbArc
 50
-0.000002
 51
180.000002
  0
LINE
  5
377
330
1F
100
AcDbEntity
  8
0
  6
CONTINUOUS
 62
     3
100
AcDbLine
 10
160.589777
 20
82.226064
 30
0.0
 11
160.589777
 21
81.057325
 31
0.0
  0
LINE
  5
378
330
1F
100
AcDbEntity
  8
0
  6
CONTINUOUS
 62
     3
100
AcDbLine
 10
160.227777
 20
80.695325
 30
0.0
 11
160.589777
 21
81.057325
 31
0.0
  0
LINE
  5
379
330
1F
100
AcDbEntity
  8
0
  6
CONTINUOUS
 62
     3
100
AcDbLine
 10
160.227777
 20
80.695325
 30
0.0
 11
160.227777
 21
79.695325
 31
0.0
  0
LINE
  5
37A
330
1F
100
AcDbEntity
  8
0
  6
CONTINUOUS
 62
     3
100
AcDbLine
 10
160.227777
 20
79.695325
 30
0.0
 11
160.627777
 21
79.695325
 31
0.0
  0
LINE
  5
37B
330
1F
100
AcDbEntity
  8
0
  6
CONTINUOUS
 62
     3
100
AcDbLine
 10
160.389777
 20
80.857325
 30
0.0
 11
160.389777
 21
82.226064
 31
0.0
  0
LINE
  5
37C
330
1F
100
AcDbEntity
  8
0
  6
CONTINUOUS
 62
     3
100
AcDbLine
 10
160.589777
 20
81.057325
 30
0.0
 11
156.027777
 21
81.057325
 31
0.0
  0
LINE
  5
37D
330
1F
100
AcDbEntity
  8
0
  6
CONTINUOUS
 62
     3
100
AcDbLine
 10
160.227777
 20
80.695325
 30
0.0
 11
156.027777
 21
80.695325
 31
0.0
  0
LINE
  5
37E
330
1F
100
AcDbEntity
  8
0
  6
CONTINUOUS
 62
     3
100
AcDbLine
 10
156.027777
 20
66.895325
 30
0.0
 11
162.027777
 21
66.895325
 31
0.0
  0
LINE
  5
37F
330
1F
100
AcDbEntity
  8
0
  6
CONTINUOUS
 62
     3
100
AcDbLine
 10
160.844745
 20
60.735325
 30
0.0
 11
160.844745
 21
62.895325
 31
0.0
  0
LINE
  5
380
330
1F
100
AcDbEntity
  8
0
  6
CONTINUOUS
 62
     3
100
AcDbLine
 10
159.911126
 20
102.061833
 30
0.0
 11
159.19773
 21
101.562456
 31
0.0
  0
LINE
  5
381
330
1F
100
AcDbEntity
  8
0
  6
CONTINUOUS
 62
     3
100
AcDbLine
 10
155.996307
 20
101.842769
 30
0.0
 11
155.492069
 21
102.347007
 31
0.0
  0
LINE
  5
382
330
1F
100
AcDbEntity
  8
0
  6
CONTINUOUS
 62
     3
100
AcDbLine
 10
152.522221
 20
102.771271
 30
0.0
 11
151.339398
 21
102.122626
 31
0.0
  0
ARC
  5
383
330
1F
100
AcDbEntity
  8
0
  6
CONTINUOUS
 62
     3
100
AcDbCircle
 10
157.764074
 20
103.610536
 30
0.0
 40
2.5
100
AcDbArc
 50
225.0
 51
304.99202
  0
ARC
  5
384
330
1F
100
AcDbEntity
  8
0
  6
CONTINUOUS
 62
     3
100
AcDbCircle
 10
153.724302
 20
100.57924
 30
0.0
 40
2.5
100
AcDbArc
 50
45.0
 51
118.739795
  0
ARC
  5
385
330
1F
100
AcDbEntity
  8
0
  6
CONTINUOUS
 62
     3
100
AcDbCircle
 10
157.855262
 20
105.403912
 30
0.0
 40
2.5
100
AcDbArc
 50
225.0
 51
304.99202
  0
LINE
  5
386
330
1F
100
AcDbEntity
  8
0
  6
CONTINUOUS
 62
     3
100
AcDbLine
 10
156.087495
 20
103.636145
 30
0.0
 11
155.583258
 21
104.140382
 31
0.0
  0
ARC
  5
387
330
1F
100
AcDbEntity
  8
0
  6
CONTINUOUS
 62
     3
100
AcDbCircle
 10
153.815491
 20
102.372615
 30
0.0
 40
2.5
100
AcDbArc
 50
45.0
 51
118.739795
  0
LINE
  5
388
330
1F
100
AcDbEntity
  8
0
  6
CONTINUOUS
 62
     3
100
AcDbLine
 10
152.613409
 20
104.564646
 30
0.0
 11
151.430586
 21
103.916001
 31
0.0
  0
LINE
  5
389
330
1F
100
AcDbEntity
  8
0
  6
CONTINUOUS
 62
     3
100
AcDbLine
 10
159.277777
 20
101.61849
 30
0.0
 11
159.277777
 21
87.426064
 31
0.0
  0
LINE
  5
38A
330
1F
100
AcDbEntity
  8
0
  6
CONTINUOUS
 62
     3
100
AcDbLine
 10
152.777777
 20
102.89313
 30
0.0
 11
152.777777
 21
87.426064
 31
0.0
  0
LINE
  5
38B
330
1F
100
AcDbEntity
  8
CSLAYER2
  6
CONTINUOUS
 62
     3
100
AcDbLine
 10
163.849244
 20
81.239513
 30
0.0
 11
163.849244
 21
81.599721
 31
0.0
  0
LINE
  5
38C
330
1F
100
AcDbEntity
  8
CSLAYER2
  6
CONTINUOUS
 62
     3
100
AcDbLine
 10
166.325671
 20
81.599721
 30
0.0
 11
163.286419
 21
81.599721
 31
0.0
  0
LINE
  5
38D
330
1F
100
AcDbEntity
  8
CSLAYER2
  6
CONTINUOUS
 62
     3
100
AcDbLine
 10
163.286419
 20
81.599721
 30
0.0
 11
163.286419
 21
82.50024
 31
0.0
  0
ARC
  5
38E
330
1F
100
AcDbEntity
  8
CSLAYER2
  6
CONTINUOUS
 62
     3
100
AcDbCircle
 10
163.511549
 20
82.50024
 30
0.0
 40
0.2251298
100
AcDbArc
 50
90.0
 51
180.0
  0
LINE
  5
38F
330
1F
100
AcDbEntity
  8
CSLAYER2
  6
CONTINUOUS
 62
     3
100
AcDbLine
 10
163.511549
 20
82.725369
 30
0.0
 11
166.325671
 21
82.725369
 31
0.0
  0
LINE
  5
390
330
1F
100
AcDbEntity
  8
CSLAYER2
  6
CONTINUOUS
 62
     3
100
AcDbLine
 10
164.933321
 20
81.599721
 30
0.0
 11
164.933321
 21
82.50024
 31
0.0
  0
INSERT
  5
394
330
1F
100
AcDbEntity
  8
0
100
AcDbBlockReference
  2
BLKF027
 10
0.0
 20
0.0
 30
0.0
  0
LINE
  5
3A6
330
1F
100
AcDbEntity
  8
CSLAYER2
  6
CONTINUOUS
 62
     3
100
AcDbLine
 10
163.66914
 20
64.669961
 30
0.0
 11
163.66914
 21
66.155817
 31
0.0
  0
LINE
  5
3A7
330
1F
100
AcDbEntity
  8
CSLAYER2
  6
CONTINUOUS
 62
     3
100
AcDbLine
 10
163.916782
 20
61.698248
 30
0.0
 11
163.916782
 21
60.347469
 31
0.0
  0
LINE
  5
3A8
330
1F
100
AcDbEntity
  8
CSLAYER2
  6
CONTINUOUS
 62
     3
100
AcDbLine
 10
163.916782
 20
60.347469
 30
0.0
 11
166.325671
 21
60.347469
 31
0.0
  0
LINE
  5
3A9
330
1F
100
AcDbEntity
  8
CSLAYER2
  6
CONTINUOUS
 62
     3
100
AcDbLine
 10
163.66914
 20
66.155817
 30
0.0
 11
166.325671
 21
66.155817
 31
0.0
  0
INSERT
  5
3AD
330
1F
100
AcDbEntity
  8
0
100
AcDbBlockReference
  2
BLKF028
 10
0.0
 20
0.0
 30
0.0
  0
INSERT
  5
3C3
330
1F
100
AcDbEntity
  8
0
100
AcDbBlockReference
  2
BLKF029
 10
0.0
 20
0.0
 30
0.0
  0
LINE
  5
3D6
330
1F
100
AcDbEntity
  8
CSLAYER2
  6
CONTINUOUS
 62
     3
100
AcDbLine
 10
165.11331
 20
66.673616
 30
0.0
 11
165.11331
 21
68.519681
 31
0.0
  0
LINE
  5
3D7
330
1F
100
AcDbEntity
  8
CSLAYER2
  6
CONTINUOUS
 62
     3
100
AcDbLine
 10
165.11331
 20
66.673616
 30
0.0
 11
162.948725
 21
66.673616
 31
0.0
  0
LINE
  5
3D8
330
1F
100
AcDbEntity
  8
CSLAYER2
  6
CONTINUOUS
 62
     3
100
AcDbLine
 10
165.11331
 20
68.519681
 30
0.0
 11
162.948725
 21
68.519681
 31
0.0
  0
LINE
  5
3D9
330
1F
100
AcDbEntity
  8
CSLAYER2
  6
CONTINUOUS
 62
     3
100
AcDbLine
 10
166.325671
 20
66.290895
 30
0.0
 11
163.331446
 21
66.290895
 31
0.0
  0
LINE
  5
3DA
330
1F
100
AcDbEntity
  8
CSLAYER2
  6
CONTINUOUS
 62
     3
100
AcDbLine
 10
163.331446
 20
66.155817
 30
0.0
 11
163.331446
 21
66.290895
 31
0.0
  0
LINE
  5
3DB
330
1F
100
AcDbEntity
  8
CSLAYER2
  6
CONTINUOUS
 62
     3
100
AcDbLine
 10
162.948725
 20
66.673616
 30
0.0
 11
163.331446
 21
66.290895
 31
0.0
  0
LINE
  5
3DC
330
1F
100
AcDbEntity
  8
CSLAYER2
  6
CONTINUOUS
 62
     3
100
AcDbLine
 10
163.331446
 20
66.155817
 30
0.0
 11
166.325671
 21
66.155817
 31
0.0
  0
LINE
  5
3DD
330
1F
100
AcDbEntity
  8
CSLAYER2
  6
CONTINUOUS
 62
     3
100
AcDbLine
 10
162.948725
 20
68.51968
 30
0.0
 11
162.948725
 21
66.673616
 31
0.0
  0
LINE
  5
3DE
330
1F
100
AcDbEntity
  8
CSLAYER2
  6
CONTINUOUS
 62
     3
100
AcDbLine
 10
163.286419
 20
68.857375
 30
0.0
 11
162.948725
 21
68.519681
 31
0.0
  0
LINE
  5
3DF
330
1F
100
AcDbEntity
  8
CSLAYER2
  6
CONTINUOUS
 62
     3
100
AcDbLine
 10
166.325671
 20
68.857375
 30
0.0
 11
163.286419
 21
68.857375
 31
0.0
  0
LINE
  5
3E0
330
1F
100
AcDbEntity
  8
CSLAYER2
  6
CONTINUOUS
 62
     3
100
AcDbLine
 10
166.325671
 20
81.239513
 30
0.0
 11
163.511549
 21
81.239513
 31
0.0
  0
LINE
  5
3E1
330
1F
100
AcDbEntity
  8
CSLAYER2
  6
CONTINUOUS
 62
     3
100
AcDbLine
 10
163.286419
 20
81.014383
 30
0.0
 11
163.286419
 21
68.857375
 31
0.0
  0
ARC
  5
3E2
330
1F
100
AcDbEntity
  8
CSLAYER2
  6
CONTINUOUS
 62
     3
100
AcDbCircle
 10
163.511549
 20
81.014383
 30
0.0
 40
0.2251298
100
AcDbArc
 50
90.0
 51
180.0
  0
LINE
  5
3E3
330
1F
100
AcDbEntity
  8
CSLAYER2
  6
CONTINUOUS
 62
     3
100
AcDbLine
 10
162.855276
 20
61.878352
 30
0.0
 11
162.855276
 21
64.489857
 31
0.0
  0
LINE
  5
3E4
330
1F
100
AcDbEntity
  8
CSLAYER2
  6
CONTINUOUS
 62
     3
100
AcDbLine
 10
162.912414
 20
61.878352
 30
0.0
 11
162.912414
 21
64.489857
 31
0.0
  0
LINE
  5
3E5
330
1F
100
AcDbEntity
  8
CSLAYER2
  6
CONTINUOUS
 62
     3
100
AcDbLine
 10
163.006949
 20
61.878352
 30
0.0
 11
163.006949
 21
64.489857
 31
0.0
  0
LINE
  5
3E6
330
1F
100
AcDbEntity
  8
CSLAYER2
  6
CONTINUOUS
 62
     3
100
AcDbLine
 10
163.137844
 20
61.878352
 30
0.0
 11
163.137844
 21
64.489857
 31
0.0
  0
LINE
  5
3E7
330
1F
100
AcDbEntity
  8
CSLAYER2
  6
CONTINUOUS
 62
     3
100
AcDbLine
 10
163.303666
 20
61.878352
 30
0.0
 11
163.303666
 21
64.489857
 31
0.0
  0
LINE
  5
3E8
330
1F
100
AcDbEntity
  8
CSLAYER2
  6
CONTINUOUS
 62
     3
100
AcDbLine
 10
163.502598
 20
61.878352
 30
0.0
 11
163.502598
 21
64.489857
 31
0.0
  0
LINE
  5
3E9
330
1F
100
AcDbEntity
  8
CSLAYER2
  6
CONTINUOUS
 62
     3
100
AcDbLine
 10
163.732459
 20
61.878352
 30
0.0
 11
163.732459
 21
64.489857
 31
0.0
  0
LINE
  5
3EA
330
1F
100
AcDbEntity
  8
CSLAYER2
  6
CONTINUOUS
 62
     3
100
AcDbLine
 10
163.990732
 20
61.878352
 30
0.0
 11
163.990732
 21
64.489857
 31
0.0
  0
LINE
  5
3EB
330
1F
100
AcDbEntity
  8
CSLAYER2
  6
CONTINUOUS
 62
     3
100
AcDbLine
 10
164.274588
 20
61.878352
 30
0.0
 11
164.274588
 21
64.489857
 31
0.0
  0
LINE
  5
3EC
330
1F
100
AcDbEntity
  8
CSLAYER2
  6
CONTINUOUS
 62
     3
100
AcDbLine
 10
164.580916
 20
61.878352
 30
0.0
 11
164.580916
 21
64.489857
 31
0.0
  0
LINE
  5
3ED
330
1F
100
AcDbEntity
  8
CSLAYER2
  6
CONTINUOUS
 62
     3
100
AcDbLine
 10
164.906359
 20
61.878352
 30
0.0
 11
164.906359
 21
64.489857
 31
0.0
  0
LINE
  5
3EE
330
1F
100
AcDbEntity
  8
CSLAYER2
  6
CONTINUOUS
 62
     3
100
AcDbLine
 10
165.247353
 20
61.878352
 30
0.0
 11
165.247353
 21
64.489857
 31
0.0
  0
LINE
  5
3EF
330
1F
100
AcDbEntity
  8
CSLAYER2
  6
CONTINUOUS
 62
     3
100
AcDbLine
 10
165.600162
 20
61.878352
 30
0.0
 11
165.600162
 21
64.489857
 31
0.0
  0
LINE
  5
3F0
330
1F
100
AcDbEntity
  8
CSLAYER2
  6
CONTINUOUS
 62
     3
100
AcDbLine
 10
165.960918
 20
61.878352
 30
0.0
 11
165.960918
 21
64.489857
 31
0.0
  0
LINE
  5
3F1
330
1F
100
AcDbEntity
  8
CSLAYER2
  6
CONTINUOUS
 62
     3
100
AcDbLine
 10
166.325671
 20
64.489857
 30
0.0
 11
162.83616
 21
64.489857
 31
0.0
  0
LINE
  5
3F2
330
1F
100
AcDbEntity
  8
CSLAYER2
  6
CONTINUOUS
 62
     3
100
AcDbLine
 10
166.325671
 20
61.878352
 30
0.0
 11
162.83616
 21
61.878352
 31
0.0
  0
LINE
  5
3F3
330
1F
100
AcDbEntity
  8
CSLAYER2
  6
CONTINUOUS
 62
     3
100
AcDbLine
 10
162.83616
 20
64.489857
 30
0.0
 11
163.016264
 21
64.669961
 31
0.0
  0
LINE
  5
3F4
330
1F
100
AcDbEntity
  8
CSLAYER2
  6
CONTINUOUS
 62
     3
100
AcDbLine
 10
166.325671
 20
64.669961
 30
0.0
 11
163.016264
 21
64.669961
 31
0.0
  0
LINE
  5
3F5
330
1F
100
AcDbEntity
  8
CSLAYER2
  6
CONTINUOUS
 62
     3
100
AcDbLine
 10
162.83616
 20
61.878352
 30
0.0
 11
162.83616
 21
64.489857
 31
0.0
  0
LINE
  5
3F6
330
1F
100
AcDbEntity
  8
CSLAYER2
  6
CONTINUOUS
 62
     3
100
AcDbLine
 10
163.016264
 20
61.698248
 30
0.0
 11
162.83616
 21
61.878352
 31
0.0
  0
LINE
  5
3F7
330
1F
100
AcDbEntity
  8
CSLAYER2
  6
CONTINUOUS
 62
     3
100
AcDbLine
 10
166.325671
 20
61.698248
 30
0.0
 11
163.016264
 21
61.698248
 31
0.0
  0
LINE
  5
3F8
330
1F
100
AcDbEntity
  8
CSLAYER2
  6
CONTINUOUS
 62
     3
100
AcDbLine
 10
168.802099
 20
81.239513
 30
0.0
 11
168.802099
 21
81.599721
 31
0.0
  0
LINE
  5
3F9
330
1F
100
AcDbEntity
  8
CSLAYER2
  6
CONTINUOUS
 62
     3
100
AcDbLine
 10
166.325671
 20
81.599721
 30
0.0
 11
169.364924
 21
81.599721
 31
0.0
  0
LINE
  5
3FA
330
1F
100
AcDbEntity
  8
CSLAYER2
  6
CONTINUOUS
 62
     3
100
AcDbLine
 10
169.364924
 20
81.599721
 30
0.0
 11
169.364924
 21
82.50024
 31
0.0
  0
ARC
  5
3FB
330
1F
100
AcDbEntity
  8
CSLAYER2
  6
CONTINUOUS
 62
     3
100
AcDbCircle
 10
169.139794
 20
82.50024
 30
0.0
 40
0.2251298
100
AcDbArc
 50
0.0
 51
90.0
  0
LINE
  5
3FC
330
1F
100
AcDbEntity
  8
CSLAYER2
  6
CONTINUOUS
 62
     3
100
AcDbLine
 10
169.139794
 20
82.725369
 30
0.0
 11
166.325671
 21
82.725369
 31
0.0
  0
LINE
  5
3FD
330
1F
100
AcDbEntity
  8
CSLAYER2
  6
CONTINUOUS
 62
     3
100
AcDbLine
 10
167.718022
 20
81.599721
 30
0.0
 11
167.718022
 21
82.50024
 31
0.0
  0
INSERT
  5
401
330
1F
100
AcDbEntity
  8
0
100
AcDbBlockReference
  2
BLKF030
 10
0.0
 20
0.0
 30
0.0
  0
LINE
  5
413
330
1F
100
AcDbEntity
  8
CSLAYER2
  6
CONTINUOUS
 62
     3
100
AcDbLine
 10
168.982203
 20
64.669961
 30
0.0
 11
168.982203
 21
66.155817
 31
0.0
  0
LINE
  5
414
330
1F
100
AcDbEntity
  8
CSLAYER2
  6
CONTINUOUS
 62
     3
100
AcDbLine
 10
168.73456
 20
61.698248
 30
0.0
 11
168.73456
 21
60.347469
 31
0.0
  0
LINE
  5
415
330
1F
100
AcDbEntity
  8
CSLAYER2
  6
CONTINUOUS
 62
     3
100
AcDbLine
 10
168.73456
 20
60.347469
 30
0.0
 11
166.325671
 21
60.347469
 31
0.0
  0
LINE
  5
416
330
1F
100
AcDbEntity
  8
CSLAYER2
  6
CONTINUOUS
 62
     3
100
AcDbLine
 10
168.982203
 20
66.155817
 30
0.0
 11
166.325671
 21
66.155817
 31
0.0
  0
INSERT
  5
41A
330
1F
100
AcDbEntity
  8
0
100
AcDbBlockReference
  2
BLKF031
 10
0.0
 20
0.0
 30
0.0
  0
INSERT
  5
430
330
1F
100
AcDbEntity
  8
0
100
AcDbBlockReference
  2
BLKF032
 10
0.0
 20
0.0
 30
0.0
  0
LINE
  5
443
330
1F
100
AcDbEntity
  8
CSLAYER2
  6
CONTINUOUS
 62
     3
100
AcDbLine
 10
167.538033
 20
66.673616
 30
0.0
 11
167.538033
 21
68.519681
 31
0.0
  0
LINE
  5
444
330
1F
100
AcDbEntity
  8
CSLAYER2
  6
CONTINUOUS
 62
     3
100
AcDbLine
 10
167.538033
 20
66.673616
 30
0.0
 11
169.702618
 21
66.673616
 31
0.0
  0
LINE
  5
445
330
1F
100
AcDbEntity
  8
CSLAYER2
  6
CONTINUOUS
 62
     3
100
AcDbLine
 10
167.538033
 20
68.519681
 30
0.0
 11
169.702618
 21
68.519681
 31
0.0
  0
LINE
  5
446
330
1F
100
AcDbEntity
  8
CSLAYER2
  6
CONTINUOUS
 62
     3
100
AcDbLine
 10
166.325671
 20
66.290895
 30
0.0
 11
169.319898
 21
66.290895
 31
0.0
  0
LINE
  5
447
330
1F
100
AcDbEntity
  8
CSLAYER2
  6
CONTINUOUS
 62
     3
100
AcDbLine
 10
169.319898
 20
66.155817
 30
0.0
 11
169.319898
 21
66.290895
 31
0.0
  0
LINE
  5
448
330
1F
100
AcDbEntity
  8
CSLAYER2
  6
CONTINUOUS
 62
     3
100
AcDbLine
 10
169.702618
 20
66.673616
 30
0.0
 11
169.319898
 21
66.290895
 31
0.0
  0
LINE
  5
449
330
1F
100
AcDbEntity
  8
CSLAYER2
  6
CONTINUOUS
 62
     3
100
AcDbLine
 10
169.319898
 20
66.155817
 30
0.0
 11
166.325671
 21
66.155817
 31
0.0
  0
LINE
  5
44A
330
1F
100
AcDbEntity
  8
CSLAYER2
  6
CONTINUOUS
 62
     3
100
AcDbLine
 10
169.702618
 20
68.51968
 30
0.0
 11
169.702618
 21
66.673616
 31
0.0
  0
LINE
  5
44B
330
1F
100
AcDbEntity
  8
CSLAYER2
  6
CONTINUOUS
 62
     3
100
AcDbLine
 10
169.364924
 20
68.857375
 30
0.0
 11
169.702618
 21
68.519681
 31
0.0
  0
LINE
  5
44C
330
1F
100
AcDbEntity
  8
CSLAYER2
  6
CONTINUOUS
 62
     3
100
AcDbLine
 10
166.325671
 20
68.857375
 30
0.0
 11
169.364923
 21
68.857375
 31
0.0
  0
LINE
  5
44D
330
1F
100
AcDbEntity
  8
CSLAYER2
  6
CONTINUOUS
 62
     3
100
AcDbLine
 10
166.325671
 20
81.239513
 30
0.0
 11
169.139794
 21
81.239513
 31
0.0
  0
LINE
  5
44E
330
1F
100
AcDbEntity
  8
CSLAYER2
  6
CONTINUOUS
 62
     3
100
AcDbLine
 10
169.364924
 20
81.014383
 30
0.0
 11
169.364924
 21
68.857375
 31
0.0
  0
ARC
  5
44F
330
1F
100
AcDbEntity
  8
CSLAYER2
  6
CONTINUOUS
 62
     3
100
AcDbCircle
 10
169.139794
 20
81.014383
 30
0.0
 40
0.2251298
100
AcDbArc
 50
0.0
 51
90.0
  0
LINE
  5
450
330
1F
100
AcDbEntity
  8
CSLAYER2
  6
CONTINUOUS
 62
     3
100
AcDbLine
 10
169.796067
 20
61.878352
 30
0.0
 11
169.796067
 21
64.489857
 31
0.0
  0
LINE
  5
451
330
1F
100
AcDbEntity
  8
CSLAYER2
  6
CONTINUOUS
 62
     3
100
AcDbLine
 10
169.738929
 20
61.878352
 30
0.0
 11
169.738929
 21
64.489857
 31
0.0
  0
LINE
  5
452
330
1F
100
AcDbEntity
  8
CSLAYER2
  6
CONTINUOUS
 62
     3
100
AcDbLine
 10
169.644394
 20
61.878352
 30
0.0
 11
169.644394
 21
64.489857
 31
0.0
  0
LINE
  5
453
330
1F
100
AcDbEntity
  8
CSLAYER2
  6
CONTINUOUS
 62
     3
100
AcDbLine
 10
169.513499
 20
61.878352
 30
0.0
 11
169.513499
 21
64.489857
 31
0.0
  0
LINE
  5
454
330
1F
100
AcDbEntity
  8
CSLAYER2
  6
CONTINUOUS
 62
     3
100
AcDbLine
 10
169.347678
 20
61.878352
 30
0.0
 11
169.347678
 21
64.489857
 31
0.0
  0
LINE
  5
455
330
1F
100
AcDbEntity
  8
CSLAYER2
  6
CONTINUOUS
 62
     3
100
AcDbLine
 10
169.148746
 20
61.878352
 30
0.0
 11
169.148746
 21
64.489857
 31
0.0
  0
LINE
  5
456
330
1F
100
AcDbEntity
  8
CSLAYER2
  6
CONTINUOUS
 62
     3
100
AcDbLine
 10
168.918884
 20
61.878352
 30
0.0
 11
168.918884
 21
64.489857
 31
0.0
  0
LINE
  5
457
330
1F
100
AcDbEntity
  8
CSLAYER2
  6
CONTINUOUS
 62
     3
100
AcDbLine
 10
168.66061
 20
61.878352
 30
0.0
 11
168.66061
 21
64.489857
 31
0.0
  0
LINE
  5
458
330
1F
100
AcDbEntity
  8
CSLAYER2
  6
CONTINUOUS
 62
     3
100
AcDbLine
 10
168.376755
 20
61.878352
 30
0.0
 11
168.376755
 21
64.489857
 31
0.0
  0
LINE
  5
459
330
1F
100
AcDbEntity
  8
CSLAYER2
  6
CONTINUOUS
 62
     3
100
AcDbLine
 10
168.070427
 20
61.878352
 30
0.0
 11
168.070427
 21
64.489857
 31
0.0
  0
LINE
  5
45A
330
1F
100
AcDbEntity
  8
CSLAYER2
  6
CONTINUOUS
 62
     3
100
AcDbLine
 10
167.744984
 20
61.878352
 30
0.0
 11
167.744984
 21
64.489857
 31
0.0
  0
LINE
  5
45B
330
1F
100
AcDbEntity
  8
CSLAYER2
  6
CONTINUOUS
 62
     3
100
AcDbLine
 10
167.40399
 20
61.878352
 30
0.0
 11
167.40399
 21
64.489857
 31
0.0
  0
LINE
  5
45C
330
1F
100
AcDbEntity
  8
CSLAYER2
  6
CONTINUOUS
 62
     3
100
AcDbLine
 10
167.051182
 20
61.878352
 30
0.0
 11
167.051182
 21
64.489857
 31
0.0
  0
LINE
  5
45D
330
1F
100
AcDbEntity
  8
CSLAYER2
  6
CONTINUOUS
 62
     3
100
AcDbLine
 10
166.690425
 20
61.878352
 30
0.0
 11
166.690425
 21
64.489857
 31
0.0
  0
LINE
  5
45E
330
1F
100
AcDbEntity
  8
CSLAYER2
  6
CONTINUOUS
 62
     3
100
AcDbLine
 10
166.325671
 20
64.489857
 30
0.0
 11
169.815183
 21
64.489857
 31
0.0
  0
LINE
  5
45F
330
1F
100
AcDbEntity
  8
CSLAYER2
  6
CONTINUOUS
 62
     3
100
AcDbLine
 10
166.325671
 20
61.878352
 30
0.0
 11
169.815183
 21
61.878352
 31
0.0
  0
LINE
  5
460
330
1F
100
AcDbEntity
  8
CSLAYER2
  6
CONTINUOUS
 62
     3
100
AcDbLine
 10
169.815183
 20
64.489857
 30
0.0
 11
169.635079
 21
64.669961
 31
0.0
  0
LINE
  5
461
330
1F
100
AcDbEntity
  8
CSLAYER2
  6
CONTINUOUS
 62
     3
100
AcDbLine
 10
166.325671
 20
64.669961
 30
0.0
 11
169.635079
 21
64.669961
 31
0.0
  0
LINE
  5
462
330
1F
100
AcDbEntity
  8
CSLAYER2
  6
CONTINUOUS
 62
     3
100
AcDbLine
 10
169.815183
 20
61.878352
 30
0.0
 11
169.815183
 21
64.489857
 31
0.0
  0
LINE
  5
463
330
1F
100
AcDbEntity
  8
CSLAYER2
  6
CONTINUOUS
 62
     3
100
AcDbLine
 10
169.635079
 20
61.698248
 30
0.0
 11
169.815183
 21
61.878352
 31
0.0
  0
LINE
  5
464
330
1F
100
AcDbEntity
  8
CSLAYER2
  6
CONTINUOUS
 62
     3
100
AcDbLine
 10
166.325671
 20
61.698248
 30
0.0
 11
169.635079
 21
61.698248
 31
0.0
  0
LINE
  5
465
330
1F
100
AcDbEntity
  8
CSLAYER2
  6
CONTINUOUS
 62
     3
100
AcDbLine
 10
166.325671
 20
61.878352
 30
0.0
 11
166.325671
 21
64.489857
 31
0.0
  0
LINE
  5
466
330
1F
100
AcDbEntity
  8
0
  6
CONTINUOUS
 62
     3
100
AcDbLine
 10
169.992014
 20
101.770937
 30
0.0
 11
169.278618
 21
101.27156
 31
0.0
  0
LINE
  5
467
330
1F
100
AcDbEntity
  8
0
  6
CONTINUOUS
 62
     3
100
AcDbLine
 10
166.077196
 20
101.551873
 30
0.0
 11
165.572958
 21
102.056111
 31
0.0
  0
ARC
  5
468
330
1F
100
AcDbEntity
  8
0
  6
CONTINUOUS
 62
     3
100
AcDbCircle
 10
167.844963
 20
103.31964
 30
0.0
 40
2.5
100
AcDbArc
 50
225.0
 51
304.99202
  0
ARC
  5
469
330
1F
100
AcDbEntity
  8
0
  6
CONTINUOUS
 62
     3
100
AcDbCircle
 10
163.805191
 20
100.288344
 30
0.0
 40
2.5
100
AcDbArc
 50
45.0
 51
118.739795
  0
LINE
  5
46A
330
1F
100
AcDbEntity
  8
0
  6
CONTINUOUS
 62
     3
100
AcDbLine
 10
170.083203
 20
103.564313
 30
0.0
 11
169.369807
 21
103.064936
 31
0.0
  0
ARC
  5
46B
330
1F
100
AcDbEntity
  8
0
  6
CONTINUOUS
 62
     3
100
AcDbCircle
 10
167.936151
 20
105.113016
 30
0.0
 40
2.5
100
AcDbArc
 50
225.0
 51
304.99202
  0
LINE
  5
46C
330
1F
100
AcDbEntity
  8
0
  6
CONTINUOUS
 62
     3
100
AcDbLine
 10
166.168384
 20
103.345249
 30
0.0
 11
165.664147
 21
103.849486
 31
0.0
  0
ARC
  5
46D
330
1F
100
AcDbEntity
  8
0
  6
CONTINUOUS
 62
     3
100
AcDbCircle
 10
163.89638
 20
102.081719
 30
0.0
 40
2.5
100
AcDbArc
 50
45.0
 51
118.739795
  0
LINE
  5
46E
330
1F
100
AcDbEntity
  8
0
  6
CONTINUOUS
 62
     3
100
AcDbLine
 10
162.694298
 20
104.27375
 30
0.0
 11
161.511475
 21
103.625105
 31
0.0
  0
LINE
  5
46F
330
1F
100
AcDbEntity
  8
0
  6
CONTINUOUS
 62
     3
100
AcDbLine
 10
167.825671
 20
100.819714
 30
0.0
 11
167.825671
 21
82.725369
 31
0.0
  0
LINE
  5
470
330
1F
100
AcDbEntity
  8
0
  6
CONTINUOUS
 62
     3
100
AcDbLine
 10
164.825671
 20
102.570584
 30
0.0
 11
164.825671
 21
82.725369
 31
0.0
  0
LINE
  5
471
330
1F
100
AcDbEntity
  8
0
  6
CONTINUOUS
 62
     3
100
AcDbLine
 10
170.083203
 20
103.564313
 30
0.0
 11
169.369807
 21
103.064936
 31
0.0
  0
ARC
  5
472
330
1F
100
AcDbEntity
  8
0
  6
CONTINUOUS
 62
     3
100
AcDbCircle
 10
167.936151
 20
105.113016
 30
0.0
 40
2.5
100
AcDbArc
 50
225.0
 51
304.99202
  0
LINE
  5
473
330
1F
100
AcDbEntity
  8
0
  6
CONTINUOUS
 62
     3
100
AcDbLine
 10
166.168384
 20
103.345249
 30
0.0
 11
165.664147
 21
103.849486
 31
0.0
  0
ARC
  5
474
330
1F
100
AcDbEntity
  8
0
  6
CONTINUOUS
 62
     3
100
AcDbCircle
 10
163.89638
 20
102.081719
 30
0.0
 40
2.5
100
AcDbArc
 50
45.0
 51
118.739795
  0
LINE
  5
475
330
1F
100
AcDbEntity
  8
0
  6
CONTINUOUS
 62
     3
100
AcDbLine
 10
162.694298
 20
104.27375
 30
0.0
 11
161.511475
 21
103.625105
 31
0.0
  0
LINE
  5
476
330
1F
100
AcDbEntity
  8
CSLAYER2
  6
CONTINUOUS
 62
     3
100
AcDbLine
 10
67.665234
 20
136.754769
 30
0.0
 11
67.665234
 21
117.004769
 31
0.0
  0
LINE
  5
477
330
1F
100
AcDbEntity
  8
0
  6
CONTINUOUS
 62
     3
100
AcDbLine
 10
65.718507
 20
131.829769
 30
0.0
 11
65.668513
 21
131.829769
 31
0.0
  0
LINE
  5
478
330
1F
100
AcDbEntity
  8
0
  6
CONTINUOUS
 62
     3
100
AcDbLine
 10
65.668513
 20
121.929769
 30
0.0
 11
65.718507
 21
121.929769
 31
0.0
  0
LINE
  5
479
330
1F
100
AcDbEntity
  8
0
  6
CONTINUOUS
 62
     3
100
AcDbLine
 10
65.818508
 20
136.854769
 30
0.0
 11
65.718507
 21
136.754769
 31
0.0
  0
LINE
  5
47A
330
1F
100
AcDbEntity
  8
0
  6
CONTINUOUS
 62
     3
100
AcDbLine
 10
65.718507
 20
117.004768
 30
0.0
 11
65.818508
 21
116.904768
 31
0.0
  0
LINE
  5
47B
330
1F
100
AcDbEntity
  8
0
  6
CONTINUOUS
 62
     3
100
AcDbLine
 10
66.024263
 20
136.854769
 30
0.0
 11
65.818508
 21
136.854769
 31
0.0
  0
LINE
  5
47C
330
1F
100
AcDbEntity
  8
0
  6
CONTINUOUS
 62
     3
100
AcDbLine
 10
67.518507
 20
136.854769
 30
0.0
 11
66.917827
 21
136.854769
 31
0.0
  0
LINE
  5
47D
330
1F
100
AcDbEntity
  8
0
  6
CONTINUOUS
 62
     3
100
AcDbLine
 10
66.917827
 20
116.904768
 30
0.0
 11
67.518507
 21
116.904768
 31
0.0
  0
LINE
  5
47E
330
1F
100
AcDbEntity
  8
0
  6
CONTINUOUS
 62
     3
100
AcDbLine
 10
65.818508
 20
116.904768
 30
0.0
 11
66.024263
 21
116.904768
 31
0.0
  0
LINE
  5
47F
330
1F
100
AcDbEntity
  8
0
  6
CONTINUOUS
 62
     3
100
AcDbLine
 10
67.518507
 20
116.904768
 30
0.0
 11
67.618509
 21
117.004768
 31
0.0
  0
LINE
  5
480
330
1F
100
AcDbEntity
  8
0
  6
CONTINUOUS
 62
     3
100
AcDbLine
 10
67.618509
 20
136.754769
 30
0.0
 11
67.518507
 21
136.854769
 31
0.0
  0
LINE
  5
481
330
1F
100
AcDbEntity
  8
0
  6
CONTINUOUS
 62
     3
100
AcDbLine
 10
67.868506
 20
135.754769
 30
0.0
 11
67.618509
 21
135.754769
 31
0.0
  0
LINE
  5
482
330
1F
100
AcDbEntity
  8
0
  6
CONTINUOUS
 62
     3
100
AcDbLine
 10
67.618509
 20
118.004768
 30
0.0
 11
67.868506
 21
118.004768
 31
0.0
  0
LINE
  5
483
330
1F
100
AcDbEntity
  8
0
  6
CONTINUOUS
 62
     3
100
AcDbLine
 10
70.068513
 20
136.872269
 30
0.0
 11
67.968507
 21
136.872269
 31
0.0
  0
LINE
  5
484
330
1F
100
AcDbEntity
  8
0
  6
CONTINUOUS
 62
     3
100
AcDbLine
 10
67.968507
 20
116.887269
 30
0.0
 11
70.068513
 21
116.887269
 31
0.0
  0
LINE
  5
485
330
1F
100
AcDbEntity
  8
0
  6
CONTINUOUS
 62
     3
100
AcDbLine
 10
67.968507
 20
136.872269
 30
0.0
 11
67.868506
 21
136.772269
 31
0.0
  0
LINE
  5
486
330
1F
100
AcDbEntity
  8
0
  6
CONTINUOUS
 62
     3
100
AcDbLine
 10
67.868506
 20
116.987269
 30
0.0
 11
67.968507
 21
116.887269
 31
0.0
  0
LINE
  5
487
330
1F
100
AcDbEntity
  8
0
  6
CONTINUOUS
 62
     3
100
AcDbLine
 10
65.668513
 20
131.829769
 30
0.0
 11
65.668513
 21
131.129769
 31
0.0
  0
LINE
  5
488
330
1F
100
AcDbEntity
  8
0
  6
CONTINUOUS
 62
     3
100
AcDbLine
 10
65.668513
 20
122.629768
 30
0.0
 11
65.668513
 21
121.929769
 31
0.0
  0
LINE
  5
489
330
1F
100
AcDbEntity
  8
0
  6
CONTINUOUS
 62
     3
100
AcDbLine
 10
65.718507
 20
117.004768
 30
0.0
 11
65.718507
 21
136.754769
 31
0.0
  0
INSERT
  5
48D
330
1F
100
AcDbEntity
  8
0
100
AcDbBlockReference
  2
BLKF033
 10
0.0
 20
0.0
 30
0.0
  0
INSERT
  5
4AD
330
1F
100
AcDbEntity
  8
0
100
AcDbBlockReference
  2
BLKF034
 10
0.0
 20
0.0
 30
0.0
  0
INSERT
  5
4EA
330
1F
100
AcDbEntity
  8
0
100
AcDbBlockReference
  2
BLKF035
 10
0.0
 20
0.0
 30
0.0
  0
LINE
  5
543
330
1F
100
AcDbEntity
  8
0
  6
CONTINUOUS
 62
     3
100
AcDbLine
 10
67.618509
 20
126.879769
 30
0.0
 11
67.618509
 21
117.004768
 31
0.0
  0
LINE
  5
544
330
1F
100
AcDbEntity
  8
0
  6
CONTINUOUS
 62
     3
100
AcDbLine
 10
67.618509
 20
136.754769
 30
0.0
 11
67.618509
 21
126.879769
 31
0.0
  0
LINE
  5
545
330
1F
100
AcDbEntity
  8
0
  6
CONTINUOUS
 62
     3
100
AcDbLine
 10
67.868506
 20
116.987269
 30
0.0
 11
67.868506
 21
136.772269
 31
0.0
  0
LINE
  5
546
330
1F
100
AcDbEntity
  8
0
  6
CONTINUOUS
 62
     3
100
AcDbLine
 10
60.868507
 20
121.879767
 30
0.0
 11
63.568508
 21
121.879767
 31
0.0
  0
LINE
  5
547
330
1F
100
AcDbEntity
  8
0
  6
CONTINUOUS
 62
     3
100
AcDbLine
 10
63.568508
 20
131.879765
 30
0.0
 11
60.868507
 21
131.879765
 31
0.0
  0
LINE
  5
548
330
1F
100
AcDbEntity
  8
0
  6
CONTINUOUS
 62
     3
100
AcDbLine
 10
60.868507
 20
131.879765
 30
0.0
 11
60.61851
 21
131.629768
 31
0.0
  0
LINE
  5
549
330
1F
100
AcDbEntity
  8
0
  6
CONTINUOUS
 62
     3
100
AcDbLine
 10
60.61851
 20
122.129764
 30
0.0
 11
60.868507
 21
121.879767
 31
0.0
  0
LINE
  5
54A
330
1F
100
AcDbEntity
  8
0
  6
CONTINUOUS
 62
     3
100
AcDbLine
 10
63.568508
 20
121.879767
 30
0.0
 11
63.618509
 21
121.929768
 31
0.0
  0
LINE
  5
54B
330
1F
100
AcDbEntity
  8
0
  6
CONTINUOUS
 62
     3
100
AcDbLine
 10
65.718507
 20
131.829764
 30
0.0
 11
63.618509
 21
131.829764
 31
0.0
  0
LINE
  5
54C
330
1F
100
AcDbEntity
  8
0
  6
CONTINUOUS
 62
     3
100
AcDbLine
 10
63.618509
 20
131.829764
 30
0.0
 11
63.568508
 21
131.879765
 31
0.0
  0
LINE
  5
54D
330
1F
100
AcDbEntity
  8
0
  6
CONTINUOUS
 62
     3
100
AcDbLine
 10
63.618509
 20
121.929768
 30
0.0
 11
65.718507
 21
121.929768
 31
0.0
  0
LINE
  5
54E
330
1F
100
AcDbEntity
  8
0
  6
CONTINUOUS
 62
     3
100
AcDbLine
 10
59.508501
 20
122.179765
 30
0.0
 11
60.61851
 21
122.179765
 31
0.0
  0
LINE
  5
54F
330
1F
100
AcDbEntity
  8
0
  6
CONTINUOUS
 62
     3
100
AcDbLine
 10
60.61851
 20
131.579767
 30
0.0
 11
59.508501
 21
131.579767
 31
0.0
  0
ARC
  5
550
330
1F
100
AcDbEntity
  8
0
  6
CONTINUOUS
 62
     3
100
AcDbCircle
 10
44.68485
 20
125.479763
 30
0.0
 40
0.0999962805272011
100
AcDbArc
 50
179.996899
 51
270.003101
  0
LINE
  5
551
330
1F
100
AcDbEntity
  8
0
  6
CONTINUOUS
 62
     3
100
AcDbLine
 10
50.808502
 20
128.379765
 30
0.0
 11
44.684855
 21
128.379765
 31
0.0
  0
LINE
  5
552
330
1F
100
AcDbEntity
  8
0
  6
CONTINUOUS
 62
     3
100
AcDbLine
 10
44.684855
 20
125.379767
 30
0.0
 11
50.808502
 21
125.379767
 31
0.0
  0
ARC
  5
553
330
1F
100
AcDbEntity
  8
0
  6
CONTINUOUS
 62
     3
100
AcDbCircle
 10
53.251177
 20
121.629727
 30
0.0
 40
0.4999648996474487
100
AcDbArc
 50
234.997989
 51
270.000606
  0
INSERT
  5
557
330
1F
100
AcDbEntity
  8
0
100
AcDbBlockReference
  2
BLKF036
 10
0.0
 20
0.0
 30
0.0
  0
LINE
  5
561
330
1F
100
AcDbEntity
  8
0
  6
CONTINUOUS
 62
     3
100
AcDbLine
 10
53.251183
 20
121.129762
 30
0.0
 11
56.083499
 21
121.129762
 31
0.0
  0
LINE
  5
562
330
1F
100
AcDbEntity
  8
0
  6
CONTINUOUS
 62
     3
100
AcDbLine
 10
56.083499
 20
121.129762
 30
0.0
 11
56.208497
 21
121.254768
 31
0.0
  0
LINE
  5
563
330
1F
100
AcDbEntity
  8
0
  6
CONTINUOUS
 62
     3
100
AcDbLine
 10
56.208497
 20
132.504764
 30
0.0
 11
56.083499
 21
132.629763
 31
0.0
  0
LINE
  5
564
330
1F
100
AcDbEntity
  8
0
  6
CONTINUOUS
 62
     3
100
AcDbLine
 10
58.333499
 20
132.629763
 30
0.0
 11
58.208501
 21
132.504764
 31
0.0
  0
LINE
  5
565
330
1F
100
AcDbEntity
  8
0
  6
CONTINUOUS
 62
     3
100
AcDbLine
 10
58.208501
 20
121.254768
 30
0.0
 11
58.333499
 21
121.129762
 31
0.0
  0
LINE
  5
566
330
1F
100
AcDbEntity
  8
0
  6
CONTINUOUS
 62
     3
100
AcDbLine
 10
59.258496
 20
132.629763
 30
0.0
 11
58.333499
 21
132.629763
 31
0.0
  0
INSERT
  5
56A
330
1F
100
AcDbEntity
  8
0
100
AcDbBlockReference
  2
BLKF037
 10
0.0
 20
0.0
 30
0.0
  0
ARC
  5
574
330
1F
100
AcDbEntity
  8
0
  6
CONTINUOUS
 62
     3
100
AcDbCircle
 10
59.258497
 20
132.379759
 30
0.0
 40
0.2500034191570872
100
AcDbArc
 50
0.001521
 51
90.000186
  0
LINE
  5
575
330
1F
100
AcDbEntity
  8
0
  6
CONTINUOUS
 62
     3
100
AcDbLine
 10
52.964395
 20
132.539343
 30
0.0
 11
51.021708
 21
131.17906
 31
0.0
  0
LINE
  5
576
330
1F
100
AcDbEntity
  8
0
  6
CONTINUOUS
 62
     3
100
AcDbLine
 10
51.021708
 20
122.580472
 30
0.0
 11
52.964395
 21
121.22019
 31
0.0
  0
ARC
  5
577
330
1F
100
AcDbEntity
  8
0
  6
CONTINUOUS
 62
     3
100
AcDbCircle
 10
51.308489
 20
130.769495
 30
0.0
 40
0.499987002596529
100
AcDbArc
 50
125.000059
 51
180.001798
  0
ARC
  5
578
330
1F
100
AcDbEntity
  8
0
  6
CONTINUOUS
 62
     3
100
AcDbCircle
 10
51.308489
 20
122.990037
 30
0.0
 40
0.4999870018076345
100
AcDbArc
 50
179.999056
 51
234.999941
  0
LINE
  5
579
330
1F
100
AcDbEntity
  8
0
  6
CONTINUOUS
 62
     3
100
AcDbLine
 10
65.818509
 20
136.854764
 30
0.0
 11
65.718507
 21
136.754769
 31
0.0
  0
LINE
  5
57A
330
1F
100
AcDbEntity
  8
0
  6
CONTINUOUS
 62
     3
100
AcDbLine
 10
65.718507
 20
117.004763
 30
0.0
 11
65.818509
 21
116.904769
 31
0.0
  0
LINE
  5
57B
330
1F
100
AcDbEntity
  8
0
  6
CONTINUOUS
 62
     3
100
AcDbLine
 10
67.518508
 20
136.854764
 30
0.0
 11
65.818509
 21
136.854764
 31
0.0
  0
LINE
  5
57C
330
1F
100
AcDbEntity
  8
0
  6
CONTINUOUS
 62
     3
100
AcDbLine
 10
65.818509
 20
116.904769
 30
0.0
 11
67.518508
 21
116.904769
 31
0.0
  0
LINE
  5
57D
330
1F
100
AcDbEntity
  8
0
  6
CONTINUOUS
 62
     3
100
AcDbLine
 10
67.518508
 20
116.904769
 30
0.0
 11
67.61851
 21
117.004763
 31
0.0
  0
LINE
  5
57E
330
1F
100
AcDbEntity
  8
0
  6
CONTINUOUS
 62
     3
100
AcDbLine
 10
67.61851
 20
136.754769
 30
0.0
 11
67.518508
 21
136.854764
 31
0.0
  0
LINE
  5
57F
330
1F
100
AcDbEntity
  8
0
  6
CONTINUOUS
 62
     3
100
AcDbLine
 10
67.868507
 20
135.754767
 30
0.0
 11
67.61851
 21
135.754767
 31
0.0
  0
LINE
  5
580
330
1F
100
AcDbEntity
  8
0
  6
CONTINUOUS
 62
     3
100
AcDbLine
 10
67.61851
 20
118.004765
 30
0.0
 11
67.868507
 21
118.004765
 31
0.0
  0
LINE
  5
581
330
1F
100
AcDbEntity
  8
0
  6
CONTINUOUS
 62
     3
100
AcDbLine
 10
70.068507
 20
136.872265
 30
0.0
 11
67.968508
 21
136.872265
 31
0.0
  0
LINE
  5
582
330
1F
100
AcDbEntity
  8
0
  6
CONTINUOUS
 62
     3
100
AcDbLine
 10
67.968508
 20
116.887267
 30
0.0
 11
70.068507
 21
116.887267
 31
0.0
  0
LINE
  5
583
330
1F
100
AcDbEntity
  8
0
  6
CONTINUOUS
 62
     3
100
AcDbLine
 10
67.968508
 20
136.872265
 30
0.0
 11
67.868507
 21
136.772263
 31
0.0
  0
LINE
  5
584
330
1F
100
AcDbEntity
  8
0
  6
CONTINUOUS
 62
     3
100
AcDbLine
 10
67.868507
 20
116.987269
 30
0.0
 11
67.968508
 21
116.887267
 31
0.0
  0
LINE
  5
585
330
1F
100
AcDbEntity
  8
0
  6
CONTINUOUS
 62
     3
100
AcDbLine
 10
60.61851
 20
122.129764
 30
0.0
 11
60.61851
 21
131.629768
 31
0.0
  0
LINE
  5
586
330
1F
100
AcDbEntity
  8
0
  6
CONTINUOUS
 62
     3
100
AcDbLine
 10
63.618509
 20
126.879762
 30
0.0
 11
63.618509
 21
121.929768
 31
0.0
  0
LINE
  5
587
330
1F
100
AcDbEntity
  8
0
  6
CONTINUOUS
 62
     3
100
AcDbLine
 10
63.618509
 20
131.829764
 30
0.0
 11
63.618509
 21
126.879762
 31
0.0
  0
LINE
  5
588
330
1F
100
AcDbEntity
  8
0
  6
CONTINUOUS
 62
     3
100
AcDbLine
 10
65.668507
 20
129.417482
 30
0.0
 11
65.668507
 21
124.34205
 31
0.0
  0
LINE
  5
589
330
1F
100
AcDbEntity
  8
0
  6
CONTINUOUS
 62
     3
100
AcDbLine
 10
63.66851
 20
129.417482
 30
0.0
 11
65.668507
 21
129.417482
 31
0.0
  0
LINE
  5
58A
330
1F
100
AcDbEntity
  8
0
  6
CONTINUOUS
 62
     3
100
AcDbLine
 10
63.66851
 20
124.34205
 30
0.0
 11
63.66851
 21
129.417482
 31
0.0
  0
LINE
  5
58B
330
1F
100
AcDbEntity
  8
0
  6
CONTINUOUS
 62
     3
100
AcDbLine
 10
65.668507
 20
124.34205
 30
0.0
 11
63.66851
 21
124.34205
 31
0.0
  0
LINE
  5
58C
330
1F
100
AcDbEntity
  8
0
  6
CONTINUOUS
 62
     3
100
AcDbLine
 10
44.584854
 20
127.717819
 30
0.0
 11
44.584854
 21
128.279764
 31
0.0
  0
LINE
  5
58D
330
1F
100
AcDbEntity
  8
0
  6
CONTINUOUS
 62
     3
100
AcDbLine
 10
44.584854
 20
125.479768
 30
0.0
 11
44.584854
 21
127.717819
 31
0.0
  0
LINE
  5
58E
330
1F
100
AcDbEntity
  8
0
  6
CONTINUOUS
 62
     3
100
AcDbLine
 10
56.208497
 20
121.254768
 30
0.0
 11
56.208497
 21
121.562268
 31
0.0
  0
LINE
  5
58F
330
1F
100
AcDbEntity
  8
0
  6
CONTINUOUS
 62
     3
100
AcDbLine
 10
56.208497
 20
132.481876
 30
0.0
 11
56.208497
 21
132.504764
 31
0.0
  0
LINE
  5
590
330
1F
100
AcDbEntity
  8
0
  6
CONTINUOUS
 62
     3
100
AcDbLine
 10
56.208497
 20
128.71411
 30
0.0
 11
56.208497
 21
132.481876
 31
0.0
  0
LINE
  5
591
330
1F
100
AcDbEntity
  8
0
  6
CONTINUOUS
 62
     3
100
AcDbLine
 10
56.208497
 20
126.372847
 30
0.0
 11
56.208497
 21
128.71411
 31
0.0
  0
LINE
  5
592
330
1F
100
AcDbEntity
  8
0
  6
CONTINUOUS
 62
     3
100
AcDbLine
 10
56.208497
 20
121.562268
 30
0.0
 11
56.208497
 21
126.372847
 31
0.0
  0
LINE
  5
593
330
1F
100
AcDbEntity
  8
0
  6
CONTINUOUS
 62
     3
100
AcDbLine
 10
58.208501
 20
126.372847
 30
0.0
 11
58.208501
 21
128.71411
 31
0.0
  0
LINE
  5
594
330
1F
100
AcDbEntity
  8
0
  6
CONTINUOUS
 62
     3
100
AcDbLine
 10
58.208501
 20
132.481876
 30
0.0
 11
58.208501
 21
132.504764
 31
0.0
  0
LINE
  5
595
330
1F
100
AcDbEntity
  8
0
  6
CONTINUOUS
 62
     3
100
AcDbLine
 10
59.508501
 20
121.419962
 30
0.0
 11
59.508501
 21
121.379766
 31
0.0
  0
LINE
  5
596
330
1F
100
AcDbEntity
  8
0
  6
CONTINUOUS
 62
     3
100
AcDbLine
 10
59.508501
 20
132.379766
 30
0.0
 11
59.508501
 21
121.419962
 31
0.0
  0
LINE
  5
597
330
1F
100
AcDbEntity
  8
0
  6
CONTINUOUS
 62
     3
100
AcDbLine
 10
56.208497
 20
126.372847
 30
0.0
 11
56.333503
 21
125.87868
 31
0.0
  0
LINE
  5
598
330
1F
100
AcDbEntity
  8
0
  6
CONTINUOUS
 62
     3
100
AcDbLine
 10
56.333503
 20
121.622335
 30
0.0
 11
56.208497
 21
121.562268
 31
0.0
  0
LINE
  5
599
330
1F
100
AcDbEntity
  8
0
  6
CONTINUOUS
 62
     3
100
AcDbLine
 10
56.333503
 20
121.622335
 30
0.0
 11
58.083503
 21
121.622335
 31
0.0
  0
LINE
  5
59A
330
1F
100
AcDbEntity
  8
0
  6
CONTINUOUS
 62
     3
100
AcDbLine
 10
58.083503
 20
125.87868
 30
0.0
 11
56.333503
 21
125.87868
 31
0.0
  0
LINE
  5
59B
330
1F
100
AcDbEntity
  8
0
  6
CONTINUOUS
 62
     3
100
AcDbLine
 10
58.083503
 20
125.87868
 30
0.0
 11
58.208501
 21
126.372847
 31
0.0
  0
LINE
  5
59C
330
1F
100
AcDbEntity
  8
0
  6
CONTINUOUS
 62
     3
100
AcDbLine
 10
58.208501
 20
121.562268
 30
0.0
 11
58.083503
 21
121.622335
 31
0.0
  0
LINE
  5
59D
330
1F
100
AcDbEntity
  8
0
  6
CONTINUOUS
 62
     3
100
AcDbLine
 10
58.208501
 20
128.71411
 30
0.0
 11
58.083503
 21
129.20827
 31
0.0
  0
LINE
  5
59E
330
1F
100
AcDbEntity
  8
0
  6
CONTINUOUS
 62
     3
100
AcDbLine
 10
56.333503
 20
129.20827
 30
0.0
 11
56.208497
 21
128.71411
 31
0.0
  0
LINE
  5
59F
330
1F
100
AcDbEntity
  8
0
  6
CONTINUOUS
 62
     3
100
AcDbLine
 10
56.333503
 20
129.20827
 30
0.0
 11
58.083503
 21
129.20827
 31
0.0
  0
LINE
  5
5A0
330
1F
100
AcDbEntity
  8
0
  6
CONTINUOUS
 62
     3
100
AcDbLine
 10
56.208497
 20
132.481876
 30
0.0
 11
56.333503
 21
132.54195
 31
0.0
  0
LINE
  5
5A1
330
1F
100
AcDbEntity
  8
0
  6
CONTINUOUS
 62
     3
100
AcDbLine
 10
58.083503
 20
132.54195
 30
0.0
 11
58.208501
 21
132.481876
 31
0.0
  0
LINE
  5
5A2
330
1F
100
AcDbEntity
  8
0
  6
CONTINUOUS
 62
     3
100
AcDbLine
 10
58.083503
 20
132.54195
 30
0.0
 11
56.333503
 21
132.54195
 31
0.0
  0
LINE
  5
5A3
330
1F
100
AcDbEntity
  8
0
  6
CONTINUOUS
 62
     3
100
AcDbLine
 10
50.808502
 20
122.990045
 30
0.0
 11
50.808502
 21
130.76948
 31
0.0
  0
LINE
  5
5A4
330
1F
100
AcDbEntity
  8
0
  6
CONTINUOUS
 62
     3
100
AcDbLine
 10
58.083503
 20
121.217582
 30
0.0
 11
58.208501
 21
121.277656
 31
0.0
  0
LINE
  5
5A5
330
1F
100
AcDbEntity
  8
0
  6
CONTINUOUS
 62
     3
100
AcDbLine
 10
58.083503
 20
121.217582
 30
0.0
 11
56.333503
 21
121.217582
 31
0.0
  0
LINE
  5
5A6
330
1F
100
AcDbEntity
  8
0
  6
CONTINUOUS
 62
     3
100
AcDbLine
 10
56.208497
 20
121.277656
 30
0.0
 11
56.333503
 21
121.217582
 31
0.0
  0
LINE
  5
5A7
330
1F
100
AcDbEntity
  8
0
  6
CONTINUOUS
 62
     3
100
AcDbLine
 10
65.718507
 20
117.004763
 30
0.0
 11
65.718507
 21
136.754769
 31
0.0
  0
LINE
  5
5A8
330
1F
100
AcDbEntity
  8
0
  6
CONTINUOUS
 62
     3
100
AcDbLine
 10
67.61851
 20
118.947487
 30
0.0
 11
67.61851
 21
117.004763
 31
0.0
  0
LINE
  5
5A9
330
1F
100
AcDbEntity
  8
0
  6
CONTINUOUS
 62
     3
100
AcDbLine
 10
67.61851
 20
136.754769
 30
0.0
 11
67.61851
 21
118.947487
 31
0.0
  0
LINE
  5
5AA
330
1F
100
AcDbEntity
  8
0
  6
CONTINUOUS
 62
     3
100
AcDbLine
 10
67.868507
 20
126.879762
 30
0.0
 11
67.868507
 21
136.772263
 31
0.0
  0
LINE
  5
5AB
330
1F
100
AcDbEntity
  8
0
  6
CONTINUOUS
 62
     3
100
AcDbLine
 10
67.868507
 20
116.987269
 30
0.0
 11
67.868507
 21
126.879762
 31
0.0
  0
LINE
  5
5AC
330
1F
100
AcDbEntity
  8
0
  6
CONTINUOUS
 62
     3
100
AcDbLine
 10
52.964395
 20
121.22019
 30
0.0
 11
52.964395
 21
132.539343
 31
0.0
  0
LINE
  5
5AD
330
1F
100
AcDbEntity
  8
0
  6
CONTINUOUS
 62
     3
100
AcDbLine
 10
58.208501
 20
132.481876
 30
0.0
 11
58.208501
 21
121.254768
 31
0.0
  0
INSERT
  5
5B1
330
1F
100
AcDbEntity
  8
0
100
AcDbBlockReference
  2
BLKF038
 10
0.0
 20
0.0
 30
0.0
  0
INSERT
  5
5BF
330
1F
100
AcDbEntity
  8
0
100
AcDbBlockReference
  2
BLKF039
 10
0.0
 20
0.0
 30
0.0
  0
INSERT
  5
5CF
330
1F
100
AcDbEntity
  8
0
100
AcDbBlockReference
  2
BLKF040
 10
0.0
 20
0.0
 30
0.0
  0
INSERT
  5
5DD
330
1F
100
AcDbEntity
  8
0
100
AcDbBlockReference
  2
BLKF041
 10
0.0
 20
0.0
 30
0.0
  0
INSERT
  5
5EB
330
1F
100
AcDbEntity
  8
0
100
AcDbBlockReference
  2
BLKF042
 10
0.0
 20
0.0
 30
0.0
  0
INSERT
  5
5F9
330
1F
100
AcDbEntity
  8
0
100
AcDbBlockReference
  2
BLKF043
 10
0.0
 20
0.0
 30
0.0
  0
INSERT
  5
607
330
1F
100
AcDbEntity
  8
0
100
AcDbBlockReference
  2
BLKF044
 10
0.0
 20
0.0
 30
0.0
  0
INSERT
  5
615
330
1F
100
AcDbEntity
  8
0
100
AcDbBlockReference
  2
BLKF045
 10
0.0
 20
0.0
 30
0.0
  0
LINE
  5
620
330
1F
100
AcDbEntity
  8
0
  6
CONTINUOUS
 62
     7
100
AcDbLine
 10
179.349008
 20
109.957266
 30
0.0
 11
179.349008
 21
96.269879
 31
0.0
  0
ENDSEC
  0
SECTION
  2
OBJECTS
  0
DICTIONARY
  5
C
330
0
100
AcDbDictionary
  3
ACAD_GROUP
350
D
  3
ACAD_LAYOUT
350
1A
  3
ACAD_MLINESTYLE
350
17
  3
ACAD_PLOTSETTINGS
350
19
1001
ACAD
1000
TREAT_AS_HARD
1070
     0
  0
DICTIONARY
  5
D
102
{ACAD_REACTORS
330
C
102
}
330
C
100
AcDbDictionary
1001
ACAD
1000
TREAT_AS_HARD
1070
     0
  0
DICTIONARY
  5
1A
102
{ACAD_REACTORS
330
C
102
}
330
C
100
AcDbDictionary
1001
ACAD
1000
TREAT_AS_HARD
1070
     0
  0
DICTIONARY
  5
17
102
{ACAD_REACTORS
330
C
102
}
330
C
100
AcDbDictionary
  3
STANDARD
350
18
1001
ACAD
1000
TREAT_AS_HARD
1070
     0
  0
DICTIONARY
  5
19
102
{ACAD_REACTORS
330
C
102
}
330
C
100
AcDbDictionary
1001
ACAD
1000
TREAT_AS_HARD
1070
     0
  0
MLINESTYLE
  5
18
102
{ACAD_REACTORS
330
17
102
}
330
17
100
AcDbMlineStyle
  2
Standard
 70
     0
  3

 62
   256
 51
90.0
 52
90.0
 71
     2
 49
0.5
 62
   256
  6
BYLAYER
 49
-0.5
 62
   256
  6
BYLAYER
  0
ENDSEC
  0
EOF
