  0
SECTION
  2
HEADER
  9
$ACADVER
  1
AC1012
  9
$DWGCODEPAGE
  3
ansi_932
  9
$INSBASE
 10
0.0
 20
0.0
 30
0.0
  9
$EXTMIN
 10
0.0
 20
0.0
 30
0.0
  9
$EXTMAX
 10
271.04592
 20
109.484303
 30
0.0
  9
$LIMMIN
 10
0.0
 20
0.0
  9
$LIMMAX
 10
271.04592
 20
109.484303
  9
$ORTHOMODE
 70
     0
  9
$REGENMODE
 70
     1
  9
$FILLMODE
 70
     1
  9
$QTEXTMODE
 70
     0
  9
$MIRRTEXT
 70
     1
  9
$DRAGMODE
 70
     2
  9
$LTSCALE
 40
1.0
  9
$OSMODE
 70
    37
  9
$ATTMODE
 70
     1
  9
$TEXTSIZE
 40
0.2
  9
$TRACEWID
 40
0.05
  9
$TEXTSTYLE
  7
ED_VECTOR
  9
$CLAYER
  8
0
  9
$CELTYPE
  6
BYLAYER
  9
$CECOLOR
 62
   256
  9
$CELTSCALE
 40
1.0
  9
$DELOBJ
 70
     1
  9
$DISPSILH
 70
     0
  9
$DIMSCALE
 40
1.0
  9
$DIMASZ
 40
3.0
  9
$DIMEXO
 40
1.0
  9
$DIMDLI
 40
10.0
  9
$DIMRND
 40
0.0
  9
$DIMDLE
 40
5.0
  9
$DIMEXE
 40
1.0
  9
$DIMTP
 40
0.0
  9
$DIMTM
 40
0.0
  9
$DIMTXT
 40
4.0
  9
$DIMCEN
 40
2.5
  9
$DIMTSZ
 40
0.0
  9
$DIMTOL
 70
     0
  9
$DIMLIM
 70
     0
  9
$DIMTIH
 70
     0
  9
$DIMTOH
 70
     0
  9
$DIMSE1
 70
     0
  9
$DIMSE2
 70
     0
  9
$DIMTAD
 70
     1
  9
$DIMZIN
 70
     8
  9
$DIMBLK
  1

  9
$DIMASO
 70
     1
  9
$DIMSHO
 70
     1
  9
$DIMPOST
  1

  9
$DIMAPOST
  1

  9
$DIMALT
 70
     0
  9
$DIMALTD
 70
     3
  9
$DIMALTF
 40
0.03937
  9
$DIMLFAC
 40
1.0
  9
$DIMTOFL
 70
     1
  9
$DIMTVP
 40
0.0
  9
$DIMTIX
 70
     0
  9
$DIMSOXD
 70
     0
  9
$DIMSAH
 70
     1
  9
$DIMBLK1
  1
EDTIP_ARROW_S
  9
$DIMBLK2
  1
EDTIP_ARROW_E
  9
$DIMSTYLE
  2
EDDIMINFO
  9
$DIMCLRD
 70
     7
  9
$DIMCLRE
 70
     7
  9
$DIMCLRT
 70
     7
  9
$DIMTFAC
 40
1.0
  9
$DIMGAP
 40
1.0
  9
$DIMJUST
 70
     0
  9
$DIMSD1
 70
     0
  9
$DIMSD2
 70
     0
  9
$DIMTOLJ
 70
     0
  9
$DIMTZIN
 70
     8
  9
$DIMALTZ
 70
     0
  9
$DIMALTTZ
 70
     0
  9
$DIMFIT
 70
     3
  9
$DIMUPT
 70
     0
  9
$DIMUNIT
 70
     2
  9
$DIMDEC
 70
     2
  9
$DIMTDEC
 70
     2
  9
$DIMALTU
 70
     2
  9
$DIMALTTD
 70
     3
  9
$DIMTXSTY
  7
ED_VECTOR
  9
$DIMAUNIT
 70
     0
  9
$LUNITS
 70
     2
  9
$LUPREC
 70
     4
  9
$SKETCHINC
 40
0.1
  9
$FILLETRAD
 40
0.5
  9
$AUNITS
 70
     0
  9
$AUPREC
 70
     0
  9
$MENU
  1
.
  9
$ELEVATION
 40
0.0
  9
$PELEVATION
 40
0.0
  9
$THICKNESS
 40
0.0
  9
$LIMCHECK
 70
     0
  9
$CHAMFERA
 40
0.5
  9
$CHAMFERB
 40
0.5
  9
$CHAMFERC
 40
1.0
  9
$CHAMFERD
 40
0.0
  9
$SKPOLY
 70
     0
  9
$TDCREATE
 40
2456063.677075625
  9
$TDUPDATE
 40
2456063.677075637
  9
$TDINDWG
 40
0.0000000116
  9
$TDUSRTIMER
 40
0.0000000116
  9
$USRTIMER
 70
     1
  9
$ANGBASE
 50
0.0
  9
$ANGDIR
 70
     0
  9
$PDMODE
 70
     0
  9
$PDSIZE
 40
0.0
  9
$PLINEWID
 40
0.0
  9
$COORDS
 70
     1
  9
$SPLFRAME
 70
     0
  9
$SPLINETYPE
 70
     6
  9
$SPLINESEGS
 70
     8
  9
$ATTDIA
 70
     0
  9
$ATTREQ
 70
     1
  9
$HANDLING
 70
     1
  9
$HANDSEED
  5
6AC
  9
$SURFTAB1
 70
     6
  9
$SURFTAB2
 70
     6
  9
$SURFTYPE
 70
     6
  9
$SURFU
 70
     6
  9
$SURFV
 70
     6
  9
$UCSNAME
  2

  9
$UCSORG
 10
0.0
 20
0.0
 30
0.0
  9
$UCSXDIR
 10
1.0
 20
0.0
 30
0.0
  9
$UCSYDIR
 10
0.0
 20
1.0
 30
0.0
  9
$PUCSNAME
  2

  9
$PUCSORG
 10
0.0
 20
0.0
 30
0.0
  9
$PUCSXDIR
 10
1.0
 20
0.0
 30
0.0
  9
$PUCSYDIR
 10
0.0
 20
1.0
 30
0.0
  9
$USERI1
 70
     0
  9
$USERI2
 70
     0
  9
$USERI3
 70
     0
  9
$USERI4
 70
     0
  9
$USERI5
 70
     0
  9
$USERR1
 40
0.0
  9
$USERR2
 40
0.0
  9
$USERR3
 40
0.0
  9
$USERR4
 40
0.0
  9
$USERR5
 40
0.0
  9
$WORLDVIEW
 70
     1
  9
$SHADEDGE
 70
     3
  9
$SHADEDIF
 70
    70
  9
$TILEMODE
 70
     1
  9
$MAXACTVP
 70
    64
  9
$PINSBASE
 10
0.0
 20
0.0
 30
0.0
  9
$PLIMCHECK
 70
     0
  9
$PEXTMIN
 10
1.000000E+20
 20
1.000000E+20
 30
1.000000E+20
  9
$PEXTMAX
 10
-1.000000E+20
 20
-1.000000E+20
 30
-1.000000E+20
  9
$PLIMMIN
 10
0.0
 20
0.0
  9
$PLIMMAX
 10
12.0
 20
9.0
  9
$UNITMODE
 70
     0
  9
$VISRETAIN
 70
     1
  9
$PLINEGEN
 70
     0
  9
$PSLTSCALE
 70
     1
  9
$TREEDEPTH
 70
  3020
  9
$PICKSTYLE
 70
     1
  9
$CMLSTYLE
  2
STANDARD
  9
$CMLJUST
 70
     0
  9
$CMLSCALE
 40
1.0
  9
$SAVEIMAGES
 70
     1
  0
ENDSEC
  0
SECTION
  2
CLASSES
  0
CLASS
  1
ACDBDICTIONARYWDFLT
  2
AcDbDictionaryWithDefault
  3
ObjectDBX Classes
 90
    32768
280
     0
281
     0
  0
CLASS
  1
XRECORD
  2
AcDbXrecord
  3
AutoCAD 2000
 90
    32768
280
     0
281
     0
  0
CLASS
  1
LWPOLYLINE
  2
AcDbPolyline
  3
AutoCAD 2000
 90
    32768
280
     0
281
     1
  0
CLASS
  1
HATCH
  2
AcDbHatch
  3
AutoCAD 2000
 90
    32768
280
     0
281
     1
  0
CLASS
  1
ACDBPLACEHOLDER
  2
AcDbPlaceHolder
  3
ObjectDBX Classes
 90
        0
280
     0
281
     0
  0
CLASS
  1
LAYOUT
  2
AcDbLayout
  3
ObjectDBX Classes
 90
        0
280
     0
281
     0
  0
ENDSEC
  0
SECTION
  2
TABLES
  0
TABLE
  2
VPORT
  5
8
330
0
100
AcDbSymbolTable
 70
     1
  0
VPORT
  5
29
330
8
100
AcDbSymbolTableRecord
100
AcDbViewportTableRecord
  2
*ACTIVE
 70
     0
 10
0.0
 20
0.0
 11
1.0
 21
1.0
 12
135.52296
 22
54.742151
 13
0.0
 23
0.0
 14
0.5
 24
0.5
 15
0.5
 25
0.5
 16
0.0
 26
0.0
 36
1.0
 17
0.0
 27
0.0
 37
0.0
 40
109.484303
 41
2.47566
 42
50.0
 43
0.0
 44
0.0
 50
0.0
 51
0.0
 71
     0
 72
   100
 73
     1
 74
     3
 75
     0
 76
     0
 77
     0
 78
     0
  0
ENDTAB
  0
TABLE
  2
LTYPE
  5
5
330
0
100
AcDbSymbolTable
 70
     5
  0
LTYPE
  5
14
330
5
100
AcDbSymbolTableRecord
100
AcDbLinetypeTableRecord
  2
BYBLOCK
 70
     0
  3

 72
    65
 73
     0
 40
0.0
  0
LTYPE
  5
15
330
5
100
AcDbSymbolTableRecord
100
AcDbLinetypeTableRecord
  2
BYLAYER
 70
     0
  3

 72
    65
 73
     0
 40
0.0
  0
LTYPE
  5
16
330
5
100
AcDbSymbolTableRecord
100
AcDbLinetypeTableRecord
  2
CONTINUOUS
 70
     0
  3
--------------------
 72
    65
 73
     0
 40
0.0
  0
LTYPE
  5
2A
330
5
100
AcDbSymbolTableRecord
100
AcDbLinetypeTableRecord
  2
DASHED
 70
     0
  3
- - - - - - - - - - -
 72
    65
 73
     2
 40
19.1
 49
12.7
 74
     0
 49
-6.4
 74
     0
  0
LTYPE
  5
2B
330
5
100
AcDbSymbolTableRecord
100
AcDbLinetypeTableRecord
  2
CENTER
 70
     0
  3
- ･ - ･ - ･ - ･ - ･ - ･ - ･ - ･ - ･ - ･ -
 72
    65
 73
     4
 40
51.0
 49
31.8
 74
     0
 49
-6.4
 74
     0
 49
6.4
 74
     0
 49
-6.4
 74
     0
  0
LTYPE
  5
2C
330
5
100
AcDbSymbolTableRecord
100
AcDbLinetypeTableRecord
  2
PHANTOM
 70
     0
  3
- ･ ･ - ･ ･ - ･ ･ - ･ ･ - ･ ･ - ･ ･ - ･ ･ - 
 72
    65
 73
     6
 40
63.8
 49
31.8
 74
     0
 49
-6.4
 74
     0
 49
6.4
 74
     0
 49
-6.4
 74
     0
 49
6.4
 74
     0
 49
-6.4
 74
     0
  0
LTYPE
  5
2D
330
5
100
AcDbSymbolTableRecord
100
AcDbLinetypeTableRecord
  2
DOT
 70
     0
  3
・・・・・・・・・・・・・・・
 72
    65
 73
     2
 40
6.5
 49
0.1
 74
     0
 49
-6.4
 74
     0
  0
ENDTAB
  0
TABLE
  2
LAYER
  5
2
330
0
100
AcDbSymbolTable
 70
    16
  0
LAYER
  5
10
330
2
100
AcDbSymbolTableRecord
100
AcDbLayerTableRecord
  2
0
 70
     0
 62
     7
  6
CONTINUOUS
  0
LAYER
  5
2E
330
2
100
AcDbSymbolTableRecord
100
AcDbLayerTableRecord
  2
CSLAYER2
 70
     0
 62
     7
  6
CONTINUOUS
  0
ENDTAB
  0
TABLE
  2
STYLE
  5
3
330
0
100
AcDbSymbolTable
 70
     2
  0
STYLE
  5
11
330
3
100
AcDbSymbolTableRecord
100
AcDbTextStyleTableRecord
  2
STANDARD
 70
     0
 40
0.0
 41
1.0
 50
0.0
 71
     0
 42
0.2
  3
txt
  4

  0
STYLE
  5
3D
330
3
100
AcDbSymbolTableRecord
100
AcDbTextStyleTableRecord
  2
ED_VECTOR
 70
     0
 40
0.0
 41
1.0
 50
0.0
 71
     0
 42
0.2
  3
MONOTXT.SHX
  4
BIGFONT.SHX
  0
ENDTAB
  0
TABLE
  2
VIEW
  5
6
330
0
100
AcDbSymbolTable
 70
     0
  0
ENDTAB
  0
TABLE
  2
UCS
  5
7
330
0
100
AcDbSymbolTable
 70
     0
  0
ENDTAB
  0
TABLE
  2
APPID
  5
9
330
0
100
AcDbSymbolTable
 70
     1
  0
APPID
  5
12
330
9
100
AcDbSymbolTableRecord
100
AcDbRegAppTableRecord
  2
ACAD
 70
     0
  0
ENDTAB
  0
TABLE
  2
DIMSTYLE
  5
A
330
0
100
AcDbSymbolTable
 70
     2
  0
DIMSTYLE
105
27
330
A
100
AcDbSymbolTableRecord
100
AcDbDimStyleTableRecord
  2
STANDARD
 70
     0
  3

  4

  5

  6

  7

 40
1.0
 41
0.18
 42
0.0625
 43
0.38
 44
0.18
 45
0.0
 46
0.0
 47
0.0
 48
0.0
140
0.18
141
0.09
142
0.0
143
25.4
144
1.0
145
0.0
146
1.0
147
0.09
 71
     0
 72
     0
 73
     1
 74
     1
 75
     0
 76
     0
 77
     0
 78
     0
170
     0
171
     2
172
     0
173
     0
174
     0
175
     0
176
     0
177
     0
178
     0
270
     2
271
     4
272
     4
273
     2
274
     2
340
11
275
     0
280
     0
281
     0
282
     0
283
     1
284
     0
285
     0
286
     0
287
     3
288
     0
  0
DIMSTYLE
105
6E
330
A
100
AcDbSymbolTableRecord
100
AcDbDimStyleTableRecord
  2
EDDIMINFO
 70
     0
  3

  4

  5

  6
EDTIP_ARROW_S
  7
EDTIP_ARROW_E
 40
1.0
 41
3.0
 42
1.0
 43
10.0
 44
1.0
 45
0.0
 46
5.0
 47
0.0
 48
0.0
140
4.0
141
2.5
142
0.0
143
0.03937
144
1.0
145
0.0
146
1.0
147
1.0
 71
     0
 72
     0
 73
     0
 74
     0
 75
     0
 76
     0
 77
     1
 78
     8
170
     0
171
     3
172
     1
173
     1
174
     0
175
     0
176
     7
177
     7
178
     7
179
     2
270
     2
271
     2
272
     2
273
     2
274
     3
340
3D
275
     0
280
     0
281
     0
282
     0
283
     0
284
     8
285
     0
286
     0
287
     3
288
     0
  0
ENDTAB
  0
TABLE
  2
BLOCK_RECORD
  5
1
330
0
100
AcDbSymbolTable
 70
    50
  0
BLOCK_RECORD
  5
1F
330
1
100
AcDbSymbolTableRecord
100
AcDbBlockTableRecord
  2
*MODEL_SPACE
  0
BLOCK_RECORD
  5
1B
330
1
100
AcDbSymbolTableRecord
100
AcDbBlockTableRecord
  2
*PAPER_SPACE
  0
BLOCK_RECORD
  5
3E
330
1
100
AcDbSymbolTableRecord
100
AcDbBlockTableRecord
  2
EDTIP_ARROW_S
  0
BLOCK_RECORD
  5
44
330
1
100
AcDbSymbolTableRecord
100
AcDbBlockTableRecord
  2
EDTIP_ARROW_E
  0
BLOCK_RECORD
  5
4A
330
1
100
AcDbSymbolTableRecord
100
AcDbBlockTableRecord
  2
EDTIP_BLACKDOT_S
  0
BLOCK_RECORD
  5
50
330
1
100
AcDbSymbolTableRecord
100
AcDbBlockTableRecord
  2
EDTIP_BLACKDOT_E
  0
BLOCK_RECORD
  5
56
330
1
100
AcDbSymbolTableRecord
100
AcDbBlockTableRecord
  2
EDTIP_ARCHITECT_S
  0
BLOCK_RECORD
  5
5C
330
1
100
AcDbSymbolTableRecord
100
AcDbBlockTableRecord
  2
EDTIP_ARCHITECT_E
  0
BLOCK_RECORD
  5
62
330
1
100
AcDbSymbolTableRecord
100
AcDbBlockTableRecord
  2
EDTIP_CIVIL_S
  0
BLOCK_RECORD
  5
68
330
1
100
AcDbSymbolTableRecord
100
AcDbBlockTableRecord
  2
EDTIP_CIVIL_E
  0
BLOCK_RECORD
  5
C9
330
1
100
AcDbSymbolTableRecord
100
AcDbBlockTableRecord
  2
BLKF011
  0
BLOCK_RECORD
  5
D1
330
1
100
AcDbSymbolTableRecord
100
AcDbBlockTableRecord
  2
BLKF012
  0
BLOCK_RECORD
  5
DA
330
1
100
AcDbSymbolTableRecord
100
AcDbBlockTableRecord
  2
BLKF013
  0
BLOCK_RECORD
  5
E2
330
1
100
AcDbSymbolTableRecord
100
AcDbBlockTableRecord
  2
BLKF014
  0
BLOCK_RECORD
  5
123
330
1
100
AcDbSymbolTableRecord
100
AcDbBlockTableRecord
  2
BLKF015
  0
BLOCK_RECORD
  5
156
330
1
100
AcDbSymbolTableRecord
100
AcDbBlockTableRecord
  2
BLKF016
  0
BLOCK_RECORD
  5
294
330
1
100
AcDbSymbolTableRecord
100
AcDbBlockTableRecord
  2
BLKF017
  0
BLOCK_RECORD
  5
2A9
330
1
100
AcDbSymbolTableRecord
100
AcDbBlockTableRecord
  2
BLKF018
  0
BLOCK_RECORD
  5
2BC
330
1
100
AcDbSymbolTableRecord
100
AcDbBlockTableRecord
  2
BLKF019
  0
BLOCK_RECORD
  5
35A
330
1
100
AcDbSymbolTableRecord
100
AcDbBlockTableRecord
  2
BLKF020
  0
BLOCK_RECORD
  5
368
330
1
100
AcDbSymbolTableRecord
100
AcDbBlockTableRecord
  2
BLKF021
  0
BLOCK_RECORD
  5
3D9
330
1
100
AcDbSymbolTableRecord
100
AcDbBlockTableRecord
  2
BLKF022
  0
BLOCK_RECORD
  5
3EC
330
1
100
AcDbSymbolTableRecord
100
AcDbBlockTableRecord
  2
BLKF023
  0
BLOCK_RECORD
  5
48A
330
1
100
AcDbSymbolTableRecord
100
AcDbBlockTableRecord
  2
BLKF024
  0
BLOCK_RECORD
  5
498
330
1
100
AcDbSymbolTableRecord
100
AcDbBlockTableRecord
  2
BLKF025
  0
BLOCK_RECORD
  5
50D
330
1
100
AcDbSymbolTableRecord
100
AcDbBlockTableRecord
  2
BLKF026
  0
BLOCK_RECORD
  5
51B
330
1
100
AcDbSymbolTableRecord
100
AcDbBlockTableRecord
  2
BLKF027
  0
BLOCK_RECORD
  5
529
330
1
100
AcDbSymbolTableRecord
100
AcDbBlockTableRecord
  2
BLKF028
  0
BLOCK_RECORD
  5
537
330
1
100
AcDbSymbolTableRecord
100
AcDbBlockTableRecord
  2
BLKF029
  0
BLOCK_RECORD
  5
545
330
1
100
AcDbSymbolTableRecord
100
AcDbBlockTableRecord
  2
BLKF030
  0
BLOCK_RECORD
  5
553
330
1
100
AcDbSymbolTableRecord
100
AcDbBlockTableRecord
  2
BLKF031
  0
BLOCK_RECORD
  5
563
330
1
100
AcDbSymbolTableRecord
100
AcDbBlockTableRecord
  2
BLKF032
  0
BLOCK_RECORD
  5
574
330
1
100
AcDbSymbolTableRecord
100
AcDbBlockTableRecord
  2
BLKF033
  0
BLOCK_RECORD
  5
588
330
1
100
AcDbSymbolTableRecord
100
AcDbBlockTableRecord
  2
BLKF034
  0
BLOCK_RECORD
  5
59C
330
1
100
AcDbSymbolTableRecord
100
AcDbBlockTableRecord
  2
BLKF035
  0
BLOCK_RECORD
  5
5AC
330
1
100
AcDbSymbolTableRecord
100
AcDbBlockTableRecord
  2
BLKF036
  0
BLOCK_RECORD
  5
5DC
330
1
100
AcDbSymbolTableRecord
100
AcDbBlockTableRecord
  2
BLKF037
  0
BLOCK_RECORD
  5
5EE
330
1
100
AcDbSymbolTableRecord
100
AcDbBlockTableRecord
  2
BLKF038
  0
BLOCK_RECORD
  5
600
330
1
100
AcDbSymbolTableRecord
100
AcDbBlockTableRecord
  2
BLKF039
  0
BLOCK_RECORD
  5
614
330
1
100
AcDbSymbolTableRecord
100
AcDbBlockTableRecord
  2
BLKF040
  0
BLOCK_RECORD
  5
623
330
1
100
AcDbSymbolTableRecord
100
AcDbBlockTableRecord
  2
BLKF041
  0
BLOCK_RECORD
  5
632
330
1
100
AcDbSymbolTableRecord
100
AcDbBlockTableRecord
  2
BLKF042
  0
BLOCK_RECORD
  5
640
330
1
100
AcDbSymbolTableRecord
100
AcDbBlockTableRecord
  2
BLKF043
  0
BLOCK_RECORD
  5
64E
330
1
100
AcDbSymbolTableRecord
100
AcDbBlockTableRecord
  2
BLKF044
  0
BLOCK_RECORD
  5
65C
330
1
100
AcDbSymbolTableRecord
100
AcDbBlockTableRecord
  2
BLKF045
  0
BLOCK_RECORD
  5
668
330
1
100
AcDbSymbolTableRecord
100
AcDbBlockTableRecord
  2
BLKF046
  0
BLOCK_RECORD
  5
670
330
1
100
AcDbSymbolTableRecord
100
AcDbBlockTableRecord
  2
BLKF047
  0
BLOCK_RECORD
  5
67C
330
1
100
AcDbSymbolTableRecord
100
AcDbBlockTableRecord
  2
BLKF048
  0
BLOCK_RECORD
  5
688
330
1
100
AcDbSymbolTableRecord
100
AcDbBlockTableRecord
  2
BLKF049
  0
BLOCK_RECORD
  5
694
330
1
100
AcDbSymbolTableRecord
100
AcDbBlockTableRecord
  2
BLKF050
  0
BLOCK_RECORD
  5
6A0
330
1
100
AcDbSymbolTableRecord
100
AcDbBlockTableRecord
  2
BLKF051
  0
ENDTAB
  0
ENDSEC
  0
SECTION
  2
BLOCKS
  0
BLOCK
  5
20
330
1F
100
AcDbEntity
  8
0
100
AcDbBlockBegin
  2
*MODEL_SPACE
 70
     0
 71
     0
 10
0.0
 20
0.0
 30
0.0
  3
*MODEL_SPACE
  1

  0
ENDBLK
  5
21
330
1F
100
AcDbEntity
  8
0
100
AcDbBlockEnd
  0
BLOCK
  5
1C
330
1B
100
AcDbEntity
 67
     1
  8
0
100
AcDbBlockBegin
  2
*PAPER_SPACE
 70
     0
 71
     0
 10
0.0
 20
0.0
 30
0.0
  3
*PAPER_SPACE
  1

  0
ENDBLK
  5
1D
330
1B
100
AcDbEntity
 67
     1
  8
0
100
AcDbBlockEnd
  0
BLOCK
  5
3F
330
3E
100
AcDbEntity
  8
0
100
AcDbBlockBegin
  2
EDTIP_ARROW_S
 70
     0
 71
     0
 10
0.0
 20
0.0
 30
0.0
  3
EDTIP_ARROW_S
  1

  0
LINE
  5
41
330
3E
100
AcDbEntity
  8
0
  6
CONTINUOUS
 62
     0
100
AcDbLine
 10
0.0
 20
0.0
 30
0.0
 11
-1.0
 21
0.0
 31
0.0
  0
LINE
  5
42
330
3E
100
AcDbEntity
  8
0
  6
CONTINUOUS
 62
     0
100
AcDbLine
 10
0.0
 20
0.0
 30
0.0
 11
-0.965926
 21
0.258819
 31
0.0
  0
LINE
  5
43
330
3E
100
AcDbEntity
  8
0
  6
CONTINUOUS
 62
     0
100
AcDbLine
 10
0.0
 20
0.0
 30
0.0
 11
-0.965926
 21
-0.258819
 31
0.0
  0
ENDBLK
  5
40
330
3E
100
AcDbEntity
  8
0
100
AcDbBlockEnd
  0
BLOCK
  5
45
330
44
100
AcDbEntity
  8
0
100
AcDbBlockBegin
  2
EDTIP_ARROW_E
 70
     0
 71
     0
 10
0.0
 20
0.0
 30
0.0
  3
EDTIP_ARROW_E
  1

  0
LINE
  5
47
330
44
100
AcDbEntity
  8
0
  6
CONTINUOUS
 62
     0
100
AcDbLine
 10
0.0
 20
0.0
 30
0.0
 11
-1.0
 21
0.0
 31
0.0
  0
LINE
  5
48
330
44
100
AcDbEntity
  8
0
  6
CONTINUOUS
 62
     0
100
AcDbLine
 10
0.0
 20
0.0
 30
0.0
 11
-0.965926
 21
-0.258819
 31
0.0
  0
LINE
  5
49
330
44
100
AcDbEntity
  8
0
  6
CONTINUOUS
 62
     0
100
AcDbLine
 10
0.0
 20
0.0
 30
0.0
 11
-0.965926
 21
0.258819
 31
0.0
  0
ENDBLK
  5
46
330
44
100
AcDbEntity
  8
0
100
AcDbBlockEnd
  0
BLOCK
  5
4B
330
4A
100
AcDbEntity
  8
0
100
AcDbBlockBegin
  2
EDTIP_BLACKDOT_S
 70
     0
 71
     0
 10
0.0
 20
0.0
 30
0.0
  3
EDTIP_BLACKDOT_S
  1

  0
LINE
  5
4D
330
4A
100
AcDbEntity
  8
0
  6
CONTINUOUS
 62
     0
100
AcDbLine
 10
0.0
 20
0.0
 30
0.0
 11
-1.0
 21
0.0
 31
0.0
  0
CIRCLE
  5
4E
330
4A
100
AcDbEntity
  8
0
  6
CONTINUOUS
 62
     0
100
AcDbCircle
 10
0.0
 20
0.0
 30
0.0
 40
0.5
  0
CIRCLE
  5
4F
330
4A
100
AcDbEntity
  8
0
  6
CONTINUOUS
 62
     0
100
AcDbCircle
 10
0.0
 20
0.0
 30
0.0
 40
0.25
  0
ENDBLK
  5
4C
330
4A
100
AcDbEntity
  8
0
100
AcDbBlockEnd
  0
BLOCK
  5
51
330
50
100
AcDbEntity
  8
0
100
AcDbBlockBegin
  2
EDTIP_BLACKDOT_E
 70
     0
 71
     0
 10
0.0
 20
0.0
 30
0.0
  3
EDTIP_BLACKDOT_E
  1

  0
LINE
  5
53
330
50
100
AcDbEntity
  8
0
  6
CONTINUOUS
 62
     0
100
AcDbLine
 10
0.0
 20
0.0
 30
0.0
 11
-1.0
 21
0.0
 31
0.0
  0
CIRCLE
  5
54
330
50
100
AcDbEntity
  8
0
  6
CONTINUOUS
 62
     0
100
AcDbCircle
 10
0.0
 20
0.0
 30
0.0
 40
0.5
  0
CIRCLE
  5
55
330
50
100
AcDbEntity
  8
0
  6
CONTINUOUS
 62
     0
100
AcDbCircle
 10
0.0
 20
0.0
 30
0.0
 40
0.25
  0
ENDBLK
  5
52
330
50
100
AcDbEntity
  8
0
100
AcDbBlockEnd
  0
BLOCK
  5
57
330
56
100
AcDbEntity
  8
0
100
AcDbBlockBegin
  2
EDTIP_ARCHITECT_S
 70
     0
 71
     0
 10
0.0
 20
0.0
 30
0.0
  3
EDTIP_ARCHITECT_S
  1

  0
LINE
  5
59
330
56
100
AcDbEntity
  8
0
  6
CONTINUOUS
 62
     0
100
AcDbLine
 10
0.0
 20
0.0
 30
0.0
 11
-1.0
 21
0.0
 31
0.0
  0
LINE
  5
5A
330
56
100
AcDbEntity
  8
0
  6
CONTINUOUS
 62
     0
100
AcDbLine
 10
0.0
 20
0.0
 30
0.0
 11
-0.707107
 21
-0.707107
 31
0.0
  0
LINE
  5
5B
330
56
100
AcDbEntity
  8
0
  6
CONTINUOUS
 62
     0
100
AcDbLine
 10
0.0
 20
0.0
 30
0.0
 11
0.707107
 21
0.707107
 31
0.0
  0
ENDBLK
  5
58
330
56
100
AcDbEntity
  8
0
100
AcDbBlockEnd
  0
BLOCK
  5
5D
330
5C
100
AcDbEntity
  8
0
100
AcDbBlockBegin
  2
EDTIP_ARCHITECT_E
 70
     0
 71
     0
 10
0.0
 20
0.0
 30
0.0
  3
EDTIP_ARCHITECT_E
  1

  0
LINE
  5
5F
330
5C
100
AcDbEntity
  8
0
  6
CONTINUOUS
 62
     0
100
AcDbLine
 10
0.0
 20
0.0
 30
0.0
 11
-1.0
 21
0.0
 31
0.0
  0
LINE
  5
60
330
5C
100
AcDbEntity
  8
0
  6
CONTINUOUS
 62
     0
100
AcDbLine
 10
0.0
 20
0.0
 30
0.0
 11
-0.707107
 21
-0.707107
 31
0.0
  0
LINE
  5
61
330
5C
100
AcDbEntity
  8
0
  6
CONTINUOUS
 62
     0
100
AcDbLine
 10
0.0
 20
0.0
 30
0.0
 11
0.707107
 21
0.707107
 31
0.0
  0
ENDBLK
  5
5E
330
5C
100
AcDbEntity
  8
0
100
AcDbBlockEnd
  0
BLOCK
  5
63
330
62
100
AcDbEntity
  8
0
100
AcDbBlockBegin
  2
EDTIP_CIVIL_S
 70
     0
 71
     0
 10
0.0
 20
0.0
 30
0.0
  3
EDTIP_CIVIL_S
  1

  0
LINE
  5
65
330
62
100
AcDbEntity
  8
0
  6
CONTINUOUS
 62
     0
100
AcDbLine
 10
0.0
 20
0.0
 30
0.0
 11
-1.0
 21
0.0
 31
0.0
  0
LINE
  5
66
330
62
100
AcDbEntity
  8
0
  6
CONTINUOUS
 62
     0
100
AcDbLine
 10
0.0
 20
-0.083333
 30
0.0
 11
-1.0
 21
-0.083333
 31
0.0
  0
LINE
  5
67
330
62
100
AcDbEntity
  8
0
  6
CONTINUOUS
 62
     0
100
AcDbLine
 10
0.0
 20
-0.166667
 30
0.0
 11
-1.0
 21
-0.166667
 31
0.0
  0
ENDBLK
  5
64
330
62
100
AcDbEntity
  8
0
100
AcDbBlockEnd
  0
BLOCK
  5
69
330
68
100
AcDbEntity
  8
0
100
AcDbBlockBegin
  2
EDTIP_CIVIL_E
 70
     0
 71
     0
 10
0.0
 20
0.0
 30
0.0
  3
EDTIP_CIVIL_E
  1

  0
LINE
  5
6B
330
68
100
AcDbEntity
  8
0
  6
CONTINUOUS
 62
     0
100
AcDbLine
 10
0.0
 20
0.0
 30
0.0
 11
-1.0
 21
0.0
 31
0.0
  0
LINE
  5
6C
330
68
100
AcDbEntity
  8
0
  6
CONTINUOUS
 62
     0
100
AcDbLine
 10
0.0
 20
0.083333
 30
0.0
 11
-1.0
 21
0.083333
 31
0.0
  0
LINE
  5
6D
330
68
100
AcDbEntity
  8
0
  6
CONTINUOUS
 62
     0
100
AcDbLine
 10
0.0
 20
0.166667
 30
0.0
 11
-1.0
 21
0.166667
 31
0.0
  0
ENDBLK
  5
6A
330
68
100
AcDbEntity
  8
0
100
AcDbBlockEnd
  0
BLOCK
  5
CA
330
C9
100
AcDbEntity
  8
0
100
AcDbBlockBegin
  2
BLKF011
 70
     0
 71
     0
 10
0.0
 20
0.0
 30
0.0
  3
BLKF011
  1

  0
LINE
  5
CD
330
C9
100
AcDbEntity
  8
0
  6
CONTINUOUS
 62
     7
100
AcDbLine
 10
182.331225
 20
47.972086
 30
0.0
 11
182.256257
 21
47.934745
 31
0.0
  0
LINE
  5
CE
330
C9
100
AcDbEntity
  8
0
  6
CONTINUOUS
 62
     7
100
AcDbLine
 10
182.256257
 20
47.934745
 30
0.0
 11
182.181269
 21
47.897488
 31
0.0
  0
LINE
  5
CF
330
C9
100
AcDbEntity
  8
0
  6
CONTINUOUS
 62
     7
100
AcDbLine
 10
182.181269
 20
47.897488
 30
0.0
 11
182.10626
 21
47.860314
 31
0.0
  0
LINE
  5
D0
330
C9
100
AcDbEntity
  8
0
  6
CONTINUOUS
 62
     7
100
AcDbLine
 10
182.10626
 20
47.860314
 30
0.0
 11
182.031231
 21
47.823223
 31
0.0
  0
ENDBLK
  5
CB
330
C9
100
AcDbEntity
  8
0
100
AcDbBlockEnd
  0
BLOCK
  5
D2
330
D1
100
AcDbEntity
  8
0
100
AcDbBlockBegin
  2
BLKF012
 70
     0
 71
     0
 10
0.0
 20
0.0
 30
0.0
  3
BLKF012
  1

  0
LINE
  5
D5
330
D1
100
AcDbEntity
  8
0
  6
CONTINUOUS
 62
     7
100
AcDbLine
 10
182.031225
 20
77.595858
 30
0.0
 11
182.106254
 21
77.558767
 31
0.0
  0
LINE
  5
D6
330
D1
100
AcDbEntity
  8
0
  6
CONTINUOUS
 62
     7
100
AcDbLine
 10
182.106254
 20
77.558767
 30
0.0
 11
182.181263
 21
77.521592
 31
0.0
  0
LINE
  5
D7
330
D1
100
AcDbEntity
  8
0
  6
CONTINUOUS
 62
     7
100
AcDbLine
 10
182.181263
 20
77.521592
 30
0.0
 11
182.256251
 21
77.484335
 31
0.0
  0
LINE
  5
D8
330
D1
100
AcDbEntity
  8
0
  6
CONTINUOUS
 62
     7
100
AcDbLine
 10
182.256251
 20
77.484335
 30
0.0
 11
182.331218
 21
77.446994
 31
0.0
  0
ENDBLK
  5
D3
330
D1
100
AcDbEntity
  8
0
100
AcDbBlockEnd
  0
BLOCK
  5
DB
330
DA
100
AcDbEntity
  8
0
100
AcDbBlockBegin
  2
BLKF013
 70
     0
 71
     0
 10
0.0
 20
0.0
 30
0.0
  3
BLKF013
  1

  0
LINE
  5
DE
330
DA
100
AcDbEntity
  8
0
  6
CONTINUOUS
 62
     7
100
AcDbLine
 10
172.331225
 20
77.446991
 30
0.0
 11
172.406192
 21
77.484332
 31
0.0
  0
LINE
  5
DF
330
DA
100
AcDbEntity
  8
0
  6
CONTINUOUS
 62
     7
100
AcDbLine
 10
172.406192
 20
77.484332
 30
0.0
 11
172.48118
 21
77.521589
 31
0.0
  0
LINE
  5
E0
330
DA
100
AcDbEntity
  8
0
  6
CONTINUOUS
 62
     7
100
AcDbLine
 10
172.48118
 20
77.521589
 30
0.0
 11
172.556189
 21
77.558763
 31
0.0
  0
LINE
  5
E1
330
DA
100
AcDbEntity
  8
0
  6
CONTINUOUS
 62
     7
100
AcDbLine
 10
172.556189
 20
77.558763
 30
0.0
 11
172.631218
 21
77.595854
 31
0.0
  0
ENDBLK
  5
DC
330
DA
100
AcDbEntity
  8
0
100
AcDbBlockEnd
  0
BLOCK
  5
E3
330
E2
100
AcDbEntity
  8
0
100
AcDbBlockBegin
  2
BLKF014
 70
     0
 71
     0
 10
0.0
 20
0.0
 30
0.0
  3
BLKF014
  1

  0
LINE
  5
E6
330
E2
100
AcDbEntity
  8
0
  6
CONTINUOUS
 62
     7
100
AcDbLine
 10
172.631225
 20
47.823219
 30
0.0
 11
172.556195
 21
47.860311
 31
0.0
  0
LINE
  5
E7
330
E2
100
AcDbEntity
  8
0
  6
CONTINUOUS
 62
     7
100
AcDbLine
 10
172.556195
 20
47.860311
 30
0.0
 11
172.481187
 21
47.897485
 31
0.0
  0
LINE
  5
E8
330
E2
100
AcDbEntity
  8
0
  6
CONTINUOUS
 62
     7
100
AcDbLine
 10
172.481187
 20
47.897485
 30
0.0
 11
172.406199
 21
47.934742
 31
0.0
  0
LINE
  5
E9
330
E2
100
AcDbEntity
  8
0
  6
CONTINUOUS
 62
     7
100
AcDbLine
 10
172.406199
 20
47.934742
 30
0.0
 11
172.331231
 21
47.972083
 31
0.0
  0
ENDBLK
  5
E4
330
E2
100
AcDbEntity
  8
0
100
AcDbBlockEnd
  0
BLOCK
  5
124
330
123
100
AcDbEntity
  8
0
100
AcDbBlockBegin
  2
BLKF015
 70
     0
 71
     0
 10
0.0
 20
0.0
 30
0.0
  3
BLKF015
  1

  0
LINE
  5
127
330
123
100
AcDbEntity
  8
0
  6
CONTINUOUS
 62
     7
100
AcDbLine
 10
224.681224
 20
72.121934
 30
0.0
 11
224.64049
 21
72.122146
 31
0.0
  0
LINE
  5
128
330
123
100
AcDbEntity
  8
0
  6
CONTINUOUS
 62
     7
100
AcDbLine
 10
224.64049
 20
72.122146
 30
0.0
 11
224.620155
 21
72.12227
 31
0.0
  0
LINE
  5
129
330
123
100
AcDbEntity
  8
0
  6
CONTINUOUS
 62
     7
100
AcDbLine
 10
224.620155
 20
72.12227
 30
0.0
 11
224.599859
 21
72.122414
 31
0.0
  0
LINE
  5
12A
330
123
100
AcDbEntity
  8
0
  6
CONTINUOUS
 62
     7
100
AcDbLine
 10
224.599859
 20
72.122414
 30
0.0
 11
224.579615
 21
72.122587
 31
0.0
  0
LINE
  5
12B
330
123
100
AcDbEntity
  8
0
  6
CONTINUOUS
 62
     7
100
AcDbLine
 10
224.579615
 20
72.122587
 30
0.0
 11
224.559436
 21
72.122795
 31
0.0
  0
LINE
  5
12C
330
123
100
AcDbEntity
  8
0
  6
CONTINUOUS
 62
     7
100
AcDbLine
 10
224.559436
 20
72.122795
 30
0.0
 11
224.539334
 21
72.123046
 31
0.0
  0
LINE
  5
12D
330
123
100
AcDbEntity
  8
0
  6
CONTINUOUS
 62
     7
100
AcDbLine
 10
224.539334
 20
72.123046
 30
0.0
 11
224.519323
 21
72.123346
 31
0.0
  0
LINE
  5
12E
330
123
100
AcDbEntity
  8
0
  6
CONTINUOUS
 62
     7
100
AcDbLine
 10
224.519323
 20
72.123346
 30
0.0
 11
224.499912
 21
72.123692
 31
0.0
  0
LINE
  5
12F
330
123
100
AcDbEntity
  8
0
  6
CONTINUOUS
 62
     7
100
AcDbLine
 10
224.499912
 20
72.123692
 30
0.0
 11
224.480613
 21
72.124088
 31
0.0
  0
LINE
  5
130
330
123
100
AcDbEntity
  8
0
  6
CONTINUOUS
 62
     7
100
AcDbLine
 10
224.480613
 20
72.124088
 30
0.0
 11
224.461441
 21
72.124533
 31
0.0
  0
LINE
  5
131
330
123
100
AcDbEntity
  8
0
  6
CONTINUOUS
 62
     7
100
AcDbLine
 10
224.461441
 20
72.124533
 30
0.0
 11
224.44241
 21
72.125023
 31
0.0
  0
LINE
  5
132
330
123
100
AcDbEntity
  8
0
  6
CONTINUOUS
 62
     7
100
AcDbLine
 10
224.44241
 20
72.125023
 30
0.0
 11
224.423534
 21
72.125555
 31
0.0
  0
LINE
  5
133
330
123
100
AcDbEntity
  8
0
  6
CONTINUOUS
 62
     7
100
AcDbLine
 10
224.423534
 20
72.125555
 30
0.0
 11
224.404828
 21
72.126128
 31
0.0
  0
LINE
  5
134
330
123
100
AcDbEntity
  8
0
  6
CONTINUOUS
 62
     7
100
AcDbLine
 10
224.404828
 20
72.126128
 30
0.0
 11
224.386305
 21
72.126738
 31
0.0
  0
LINE
  5
135
330
123
100
AcDbEntity
  8
0
  6
CONTINUOUS
 62
     7
100
AcDbLine
 10
224.386305
 20
72.126738
 30
0.0
 11
224.367979
 21
72.127382
 31
0.0
  0
LINE
  5
136
330
123
100
AcDbEntity
  8
0
  6
CONTINUOUS
 62
     7
100
AcDbLine
 10
224.367979
 20
72.127382
 30
0.0
 11
224.349099
 21
72.128087
 31
0.0
  0
LINE
  5
137
330
123
100
AcDbEntity
  8
0
  6
CONTINUOUS
 62
     7
100
AcDbLine
 10
224.349099
 20
72.128087
 30
0.0
 11
224.330455
 21
72.128824
 31
0.0
  0
LINE
  5
138
330
123
100
AcDbEntity
  8
0
  6
CONTINUOUS
 62
     7
100
AcDbLine
 10
224.330455
 20
72.128824
 30
0.0
 11
224.31205
 21
72.12959
 31
0.0
  0
LINE
  5
139
330
123
100
AcDbEntity
  8
0
  6
CONTINUOUS
 62
     7
100
AcDbLine
 10
224.31205
 20
72.12959
 30
0.0
 11
224.293891
 21
72.130383
 31
0.0
  0
LINE
  5
13A
330
123
100
AcDbEntity
  8
0
  6
CONTINUOUS
 62
     7
100
AcDbLine
 10
224.293891
 20
72.130383
 30
0.0
 11
224.275983
 21
72.131201
 31
0.0
  0
LINE
  5
13B
330
123
100
AcDbEntity
  8
0
  6
CONTINUOUS
 62
     7
100
AcDbLine
 10
224.275983
 20
72.131201
 30
0.0
 11
224.25833
 21
72.132041
 31
0.0
  0
LINE
  5
13C
330
123
100
AcDbEntity
  8
0
  6
CONTINUOUS
 62
     7
100
AcDbLine
 10
224.25833
 20
72.132041
 30
0.0
 11
224.240938
 21
72.132901
 31
0.0
  0
LINE
  5
13D
330
123
100
AcDbEntity
  8
0
  6
CONTINUOUS
 62
     7
100
AcDbLine
 10
224.240938
 20
72.132901
 30
0.0
 11
224.223812
 21
72.133777
 31
0.0
  0
LINE
  5
13E
330
123
100
AcDbEntity
  8
0
  6
CONTINUOUS
 62
     7
100
AcDbLine
 10
224.223812
 20
72.133777
 30
0.0
 11
224.206957
 21
72.134668
 31
0.0
  0
LINE
  5
13F
330
123
100
AcDbEntity
  8
0
  6
CONTINUOUS
 62
     7
100
AcDbLine
 10
224.206957
 20
72.134668
 30
0.0
 11
224.190377
 21
72.135572
 31
0.0
  0
LINE
  5
140
330
123
100
AcDbEntity
  8
0
  6
CONTINUOUS
 62
     7
100
AcDbLine
 10
224.190377
 20
72.135572
 30
0.0
 11
224.174079
 21
72.136485
 31
0.0
  0
LINE
  5
141
330
123
100
AcDbEntity
  8
0
  6
CONTINUOUS
 62
     7
100
AcDbLine
 10
224.174079
 20
72.136485
 30
0.0
 11
224.158066
 21
72.137406
 31
0.0
  0
LINE
  5
142
330
123
100
AcDbEntity
  8
0
  6
CONTINUOUS
 62
     7
100
AcDbLine
 10
224.158066
 20
72.137406
 30
0.0
 11
224.142345
 21
72.138331
 31
0.0
  0
LINE
  5
143
330
123
100
AcDbEntity
  8
0
  6
CONTINUOUS
 62
     7
100
AcDbLine
 10
224.142345
 20
72.138331
 30
0.0
 11
224.12692
 21
72.139259
 31
0.0
  0
LINE
  5
144
330
123
100
AcDbEntity
  8
0
  6
CONTINUOUS
 62
     7
100
AcDbLine
 10
224.12692
 20
72.139259
 30
0.0
 11
224.111796
 21
72.140187
 31
0.0
  0
LINE
  5
145
330
123
100
AcDbEntity
  8
0
  6
CONTINUOUS
 62
     7
100
AcDbLine
 10
224.111796
 20
72.140187
 30
0.0
 11
224.096979
 21
72.141112
 31
0.0
  0
LINE
  5
146
330
123
100
AcDbEntity
  8
0
  6
CONTINUOUS
 62
     7
100
AcDbLine
 10
224.096979
 20
72.141112
 30
0.0
 11
224.082433
 21
72.142035
 31
0.0
  0
LINE
  5
147
330
123
100
AcDbEntity
  8
0
  6
CONTINUOUS
 62
     7
100
AcDbLine
 10
224.082433
 20
72.142035
 30
0.0
 11
224.068212
 21
72.142952
 31
0.0
  0
LINE
  5
148
330
123
100
AcDbEntity
  8
0
  6
CONTINUOUS
 62
     7
100
AcDbLine
 10
224.068212
 20
72.142952
 30
0.0
 11
224.054328
 21
72.14386
 31
0.0
  0
LINE
  5
149
330
123
100
AcDbEntity
  8
0
  6
CONTINUOUS
 62
     7
100
AcDbLine
 10
224.054328
 20
72.14386
 30
0.0
 11
224.040791
 21
72.144759
 31
0.0
  0
LINE
  5
14A
330
123
100
AcDbEntity
  8
0
  6
CONTINUOUS
 62
     7
100
AcDbLine
 10
224.040791
 20
72.144759
 30
0.0
 11
224.014809
 21
72.146522
 31
0.0
  0
LINE
  5
14B
330
123
100
AcDbEntity
  8
0
  6
CONTINUOUS
 62
     7
100
AcDbLine
 10
224.014809
 20
72.146522
 30
0.0
 11
223.990359
 21
72.148228
 31
0.0
  0
LINE
  5
14C
330
123
100
AcDbEntity
  8
0
  6
CONTINUOUS
 62
     7
100
AcDbLine
 10
223.990359
 20
72.148228
 30
0.0
 11
223.967533
 21
72.149866
 31
0.0
  0
LINE
  5
14D
330
123
100
AcDbEntity
  8
0
  6
CONTINUOUS
 62
     7
100
AcDbLine
 10
223.967533
 20
72.149866
 30
0.0
 11
223.946424
 21
72.151422
 31
0.0
  0
LINE
  5
14E
330
123
100
AcDbEntity
  8
0
  6
CONTINUOUS
 62
     7
100
AcDbLine
 10
223.946424
 20
72.151422
 30
0.0
 11
223.927126
 21
72.152884
 31
0.0
  0
LINE
  5
14F
330
123
100
AcDbEntity
  8
0
  6
CONTINUOUS
 62
     7
100
AcDbLine
 10
223.927126
 20
72.152884
 30
0.0
 11
223.909731
 21
72.154241
 31
0.0
  0
LINE
  5
150
330
123
100
AcDbEntity
  8
0
  6
CONTINUOUS
 62
     7
100
AcDbLine
 10
223.909731
 20
72.154241
 30
0.0
 11
223.894855
 21
72.155436
 31
0.0
  0
LINE
  5
151
330
123
100
AcDbEntity
  8
0
  6
CONTINUOUS
 62
     7
100
AcDbLine
 10
223.894855
 20
72.155436
 30
0.0
 11
223.881989
 21
72.156497
 31
0.0
  0
LINE
  5
152
330
123
100
AcDbEntity
  8
0
  6
CONTINUOUS
 62
     7
100
AcDbLine
 10
223.881989
 20
72.156497
 30
0.0
 11
223.862897
 21
72.158125
 31
0.0
  0
LINE
  5
153
330
123
100
AcDbEntity
  8
0
  6
CONTINUOUS
 62
     7
100
AcDbLine
 10
223.862897
 20
72.158125
 30
0.0
 11
223.85249
 21
72.159047
 31
0.0
  0
LINE
  5
154
330
123
100
AcDbEntity
  8
0
  6
CONTINUOUS
 62
     7
100
AcDbLine
 10
223.85249
 20
72.159047
 30
0.0
 11
223.847288
 21
72.159537
 31
0.0
  0
ENDBLK
  5
125
330
123
100
AcDbEntity
  8
0
100
AcDbBlockEnd
  0
BLOCK
  5
157
330
156
100
AcDbEntity
  8
0
100
AcDbBlockBegin
  2
BLKF016
 70
     0
 71
     0
 10
0.0
 20
0.0
 30
0.0
  3
BLKF016
  1

  0
LINE
  5
15A
330
156
100
AcDbEntity
  8
0
  6
CONTINUOUS
 62
     7
100
AcDbLine
 10
225.515138
 20
72.159535
 30
0.0
 11
225.515182
 21
72.159538
 31
0.0
  0
LINE
  5
15B
330
156
100
AcDbEntity
  8
0
  6
CONTINUOUS
 62
     7
100
AcDbLine
 10
225.515182
 20
72.159538
 30
0.0
 11
225.516097
 21
72.159614
 31
0.0
  0
LINE
  5
15C
330
156
100
AcDbEntity
  8
0
  6
CONTINUOUS
 62
     7
100
AcDbLine
 10
225.516097
 20
72.159614
 30
0.0
 11
225.516678
 21
72.15966
 31
0.0
  0
LINE
  5
15D
330
156
100
AcDbEntity
  8
0
  6
CONTINUOUS
 62
     7
100
AcDbLine
 10
225.516678
 20
72.15966
 30
0.0
 11
225.516941
 21
72.159678
 31
0.0
  0
LINE
  5
15E
330
156
100
AcDbEntity
  8
0
  6
CONTINUOUS
 62
     7
100
AcDbLine
 10
225.516941
 20
72.159678
 30
0.0
 11
225.516904
 21
72.15967
 31
0.0
  0
LINE
  5
15F
330
156
100
AcDbEntity
  8
0
  6
CONTINUOUS
 62
     7
100
AcDbLine
 10
225.516904
 20
72.15967
 30
0.0
 11
225.516586
 21
72.159638
 31
0.0
  0
LINE
  5
160
330
156
100
AcDbEntity
  8
0
  6
CONTINUOUS
 62
     7
100
AcDbLine
 10
225.516586
 20
72.159638
 30
0.0
 11
225.516004
 21
72.159582
 31
0.0
  0
LINE
  5
161
330
156
100
AcDbEntity
  8
0
  6
CONTINUOUS
 62
     7
100
AcDbLine
 10
225.516004
 20
72.159582
 30
0.0
 11
225.515176
 21
72.159505
 31
0.0
  0
LINE
  5
162
330
156
100
AcDbEntity
  8
0
  6
CONTINUOUS
 62
     7
100
AcDbLine
 10
225.515176
 20
72.159505
 30
0.0
 11
225.514119
 21
72.159409
 31
0.0
  0
LINE
  5
163
330
156
100
AcDbEntity
  8
0
  6
CONTINUOUS
 62
     7
100
AcDbLine
 10
225.514119
 20
72.159409
 30
0.0
 11
225.512851
 21
72.159294
 31
0.0
  0
LINE
  5
164
330
156
100
AcDbEntity
  8
0
  6
CONTINUOUS
 62
     7
100
AcDbLine
 10
225.512851
 20
72.159294
 30
0.0
 11
225.511391
 21
72.159163
 31
0.0
  0
LINE
  5
165
330
156
100
AcDbEntity
  8
0
  6
CONTINUOUS
 62
     7
100
AcDbLine
 10
225.511391
 20
72.159163
 30
0.0
 11
225.509754
 21
72.159017
 31
0.0
  0
LINE
  5
166
330
156
100
AcDbEntity
  8
0
  6
CONTINUOUS
 62
     7
100
AcDbLine
 10
225.509754
 20
72.159017
 30
0.0
 11
225.50796
 21
72.158857
 31
0.0
  0
LINE
  5
167
330
156
100
AcDbEntity
  8
0
  6
CONTINUOUS
 62
     7
100
AcDbLine
 10
225.50796
 20
72.158857
 30
0.0
 11
225.506025
 21
72.158686
 31
0.0
  0
LINE
  5
168
330
156
100
AcDbEntity
  8
0
  6
CONTINUOUS
 62
     7
100
AcDbLine
 10
225.506025
 20
72.158686
 30
0.0
 11
225.503969
 21
72.158505
 31
0.0
  0
LINE
  5
169
330
156
100
AcDbEntity
  8
0
  6
CONTINUOUS
 62
     7
100
AcDbLine
 10
225.503969
 20
72.158505
 30
0.0
 11
225.501807
 21
72.158316
 31
0.0
  0
LINE
  5
16A
330
156
100
AcDbEntity
  8
0
  6
CONTINUOUS
 62
     7
100
AcDbLine
 10
225.501807
 20
72.158316
 30
0.0
 11
225.499559
 21
72.158119
 31
0.0
  0
LINE
  5
16B
330
156
100
AcDbEntity
  8
0
  6
CONTINUOUS
 62
     7
100
AcDbLine
 10
225.499559
 20
72.158119
 30
0.0
 11
225.497298
 21
72.157922
 31
0.0
  0
LINE
  5
16C
330
156
100
AcDbEntity
  8
0
  6
CONTINUOUS
 62
     7
100
AcDbLine
 10
225.497298
 20
72.157922
 30
0.0
 11
225.494968
 21
72.15772
 31
0.0
  0
LINE
  5
16D
330
156
100
AcDbEntity
  8
0
  6
CONTINUOUS
 62
     7
100
AcDbLine
 10
225.494968
 20
72.15772
 30
0.0
 11
225.492564
 21
72.157513
 31
0.0
  0
LINE
  5
16E
330
156
100
AcDbEntity
  8
0
  6
CONTINUOUS
 62
     7
100
AcDbLine
 10
225.492564
 20
72.157513
 30
0.0
 11
225.490082
 21
72.1573
 31
0.0
  0
LINE
  5
16F
330
156
100
AcDbEntity
  8
0
  6
CONTINUOUS
 62
     7
100
AcDbLine
 10
225.490082
 20
72.1573
 30
0.0
 11
225.487518
 21
72.157081
 31
0.0
  0
LINE
  5
170
330
156
100
AcDbEntity
  8
0
  6
CONTINUOUS
 62
     7
100
AcDbLine
 10
225.487518
 20
72.157081
 30
0.0
 11
225.484867
 21
72.156857
 31
0.0
  0
LINE
  5
171
330
156
100
AcDbEntity
  8
0
  6
CONTINUOUS
 62
     7
100
AcDbLine
 10
225.484867
 20
72.156857
 30
0.0
 11
225.482126
 21
72.156626
 31
0.0
  0
LINE
  5
172
330
156
100
AcDbEntity
  8
0
  6
CONTINUOUS
 62
     7
100
AcDbLine
 10
225.482126
 20
72.156626
 30
0.0
 11
225.479291
 21
72.156388
 31
0.0
  0
LINE
  5
173
330
156
100
AcDbEntity
  8
0
  6
CONTINUOUS
 62
     7
100
AcDbLine
 10
225.479291
 20
72.156388
 30
0.0
 11
225.476356
 21
72.156144
 31
0.0
  0
LINE
  5
174
330
156
100
AcDbEntity
  8
0
  6
CONTINUOUS
 62
     7
100
AcDbLine
 10
225.476356
 20
72.156144
 30
0.0
 11
225.473319
 21
72.155894
 31
0.0
  0
LINE
  5
175
330
156
100
AcDbEntity
  8
0
  6
CONTINUOUS
 62
     7
100
AcDbLine
 10
225.473319
 20
72.155894
 30
0.0
 11
225.470176
 21
72.155636
 31
0.0
  0
LINE
  5
176
330
156
100
AcDbEntity
  8
0
  6
CONTINUOUS
 62
     7
100
AcDbLine
 10
225.470176
 20
72.155636
 30
0.0
 11
225.466921
 21
72.155371
 31
0.0
  0
LINE
  5
177
330
156
100
AcDbEntity
  8
0
  6
CONTINUOUS
 62
     7
100
AcDbLine
 10
225.466921
 20
72.155371
 30
0.0
 11
225.463551
 21
72.155098
 31
0.0
  0
LINE
  5
178
330
156
100
AcDbEntity
  8
0
  6
CONTINUOUS
 62
     7
100
AcDbLine
 10
225.463551
 20
72.155098
 30
0.0
 11
225.460062
 21
72.154818
 31
0.0
  0
LINE
  5
179
330
156
100
AcDbEntity
  8
0
  6
CONTINUOUS
 62
     7
100
AcDbLine
 10
225.460062
 20
72.154818
 30
0.0
 11
225.458271
 21
72.154675
 31
0.0
  0
LINE
  5
17A
330
156
100
AcDbEntity
  8
0
  6
CONTINUOUS
 62
     7
100
AcDbLine
 10
225.458271
 20
72.154675
 30
0.0
 11
225.456449
 21
72.15453
 31
0.0
  0
LINE
  5
17B
330
156
100
AcDbEntity
  8
0
  6
CONTINUOUS
 62
     7
100
AcDbLine
 10
225.456449
 20
72.15453
 30
0.0
 11
225.454595
 21
72.154383
 31
0.0
  0
LINE
  5
17C
330
156
100
AcDbEntity
  8
0
  6
CONTINUOUS
 62
     7
100
AcDbLine
 10
225.454595
 20
72.154383
 30
0.0
 11
225.452709
 21
72.154234
 31
0.0
  0
LINE
  5
17D
330
156
100
AcDbEntity
  8
0
  6
CONTINUOUS
 62
     7
100
AcDbLine
 10
225.452709
 20
72.154234
 30
0.0
 11
225.450716
 21
72.154078
 31
0.0
  0
LINE
  5
17E
330
156
100
AcDbEntity
  8
0
  6
CONTINUOUS
 62
     7
100
AcDbLine
 10
225.450716
 20
72.154078
 30
0.0
 11
225.448688
 21
72.153919
 31
0.0
  0
LINE
  5
17F
330
156
100
AcDbEntity
  8
0
  6
CONTINUOUS
 62
     7
100
AcDbLine
 10
225.448688
 20
72.153919
 30
0.0
 11
225.446625
 21
72.153757
 31
0.0
  0
LINE
  5
180
330
156
100
AcDbEntity
  8
0
  6
CONTINUOUS
 62
     7
100
AcDbLine
 10
225.446625
 20
72.153757
 30
0.0
 11
225.444527
 21
72.153594
 31
0.0
  0
LINE
  5
181
330
156
100
AcDbEntity
  8
0
  6
CONTINUOUS
 62
     7
100
AcDbLine
 10
225.444527
 20
72.153594
 30
0.0
 11
225.442395
 21
72.153429
 31
0.0
  0
LINE
  5
182
330
156
100
AcDbEntity
  8
0
  6
CONTINUOUS
 62
     7
100
AcDbLine
 10
225.442395
 20
72.153429
 30
0.0
 11
225.440228
 21
72.153261
 31
0.0
  0
LINE
  5
183
330
156
100
AcDbEntity
  8
0
  6
CONTINUOUS
 62
     7
100
AcDbLine
 10
225.440228
 20
72.153261
 30
0.0
 11
225.438028
 21
72.153091
 31
0.0
  0
LINE
  5
184
330
156
100
AcDbEntity
  8
0
  6
CONTINUOUS
 62
     7
100
AcDbLine
 10
225.438028
 20
72.153091
 30
0.0
 11
225.435794
 21
72.15292
 31
0.0
  0
LINE
  5
185
330
156
100
AcDbEntity
  8
0
  6
CONTINUOUS
 62
     7
100
AcDbLine
 10
225.435794
 20
72.15292
 30
0.0
 11
225.433527
 21
72.152746
 31
0.0
  0
LINE
  5
186
330
156
100
AcDbEntity
  8
0
  6
CONTINUOUS
 62
     7
100
AcDbLine
 10
225.433527
 20
72.152746
 30
0.0
 11
225.431227
 21
72.152571
 31
0.0
  0
LINE
  5
187
330
156
100
AcDbEntity
  8
0
  6
CONTINUOUS
 62
     7
100
AcDbLine
 10
225.431227
 20
72.152571
 30
0.0
 11
225.428894
 21
72.152394
 31
0.0
  0
LINE
  5
188
330
156
100
AcDbEntity
  8
0
  6
CONTINUOUS
 62
     7
100
AcDbLine
 10
225.428894
 20
72.152394
 30
0.0
 11
225.426529
 21
72.152214
 31
0.0
  0
LINE
  5
189
330
156
100
AcDbEntity
  8
0
  6
CONTINUOUS
 62
     7
100
AcDbLine
 10
225.426529
 20
72.152214
 30
0.0
 11
225.424131
 21
72.152033
 31
0.0
  0
LINE
  5
18A
330
156
100
AcDbEntity
  8
0
  6
CONTINUOUS
 62
     7
100
AcDbLine
 10
225.424131
 20
72.152033
 30
0.0
 11
225.421701
 21
72.15185
 31
0.0
  0
LINE
  5
18B
330
156
100
AcDbEntity
  8
0
  6
CONTINUOUS
 62
     7
100
AcDbLine
 10
225.421701
 20
72.15185
 30
0.0
 11
225.41924
 21
72.151666
 31
0.0
  0
LINE
  5
18C
330
156
100
AcDbEntity
  8
0
  6
CONTINUOUS
 62
     7
100
AcDbLine
 10
225.41924
 20
72.151666
 30
0.0
 11
225.416747
 21
72.151479
 31
0.0
  0
LINE
  5
18D
330
156
100
AcDbEntity
  8
0
  6
CONTINUOUS
 62
     7
100
AcDbLine
 10
225.416747
 20
72.151479
 30
0.0
 11
225.414223
 21
72.151291
 31
0.0
  0
LINE
  5
18E
330
156
100
AcDbEntity
  8
0
  6
CONTINUOUS
 62
     7
100
AcDbLine
 10
225.414223
 20
72.151291
 30
0.0
 11
225.411668
 21
72.151101
 31
0.0
  0
LINE
  5
18F
330
156
100
AcDbEntity
  8
0
  6
CONTINUOUS
 62
     7
100
AcDbLine
 10
225.411668
 20
72.151101
 30
0.0
 11
225.409082
 21
72.15091
 31
0.0
  0
LINE
  5
190
330
156
100
AcDbEntity
  8
0
  6
CONTINUOUS
 62
     7
100
AcDbLine
 10
225.409082
 20
72.15091
 30
0.0
 11
225.406466
 21
72.150717
 31
0.0
  0
LINE
  5
191
330
156
100
AcDbEntity
  8
0
  6
CONTINUOUS
 62
     7
100
AcDbLine
 10
225.406466
 20
72.150717
 30
0.0
 11
225.40382
 21
72.150522
 31
0.0
  0
LINE
  5
192
330
156
100
AcDbEntity
  8
0
  6
CONTINUOUS
 62
     7
100
AcDbLine
 10
225.40382
 20
72.150522
 30
0.0
 11
225.401144
 21
72.150326
 31
0.0
  0
LINE
  5
193
330
156
100
AcDbEntity
  8
0
  6
CONTINUOUS
 62
     7
100
AcDbLine
 10
225.401144
 20
72.150326
 30
0.0
 11
225.398438
 21
72.150128
 31
0.0
  0
LINE
  5
194
330
156
100
AcDbEntity
  8
0
  6
CONTINUOUS
 62
     7
100
AcDbLine
 10
225.398438
 20
72.150128
 30
0.0
 11
225.395703
 21
72.149928
 31
0.0
  0
LINE
  5
195
330
156
100
AcDbEntity
  8
0
  6
CONTINUOUS
 62
     7
100
AcDbLine
 10
225.395703
 20
72.149928
 30
0.0
 11
225.392939
 21
72.149728
 31
0.0
  0
LINE
  5
196
330
156
100
AcDbEntity
  8
0
  6
CONTINUOUS
 62
     7
100
AcDbLine
 10
225.392939
 20
72.149728
 30
0.0
 11
225.390147
 21
72.149525
 31
0.0
  0
LINE
  5
197
330
156
100
AcDbEntity
  8
0
  6
CONTINUOUS
 62
     7
100
AcDbLine
 10
225.390147
 20
72.149525
 30
0.0
 11
225.387325
 21
72.149322
 31
0.0
  0
LINE
  5
198
330
156
100
AcDbEntity
  8
0
  6
CONTINUOUS
 62
     7
100
AcDbLine
 10
225.387325
 20
72.149322
 30
0.0
 11
225.384476
 21
72.149117
 31
0.0
  0
LINE
  5
199
330
156
100
AcDbEntity
  8
0
  6
CONTINUOUS
 62
     7
100
AcDbLine
 10
225.384476
 20
72.149117
 30
0.0
 11
225.381598
 21
72.14891
 31
0.0
  0
LINE
  5
19A
330
156
100
AcDbEntity
  8
0
  6
CONTINUOUS
 62
     7
100
AcDbLine
 10
225.381598
 20
72.14891
 30
0.0
 11
225.378693
 21
72.148703
 31
0.0
  0
LINE
  5
19B
330
156
100
AcDbEntity
  8
0
  6
CONTINUOUS
 62
     7
100
AcDbLine
 10
225.378693
 20
72.148703
 30
0.0
 11
225.37576
 21
72.148494
 31
0.0
  0
LINE
  5
19C
330
156
100
AcDbEntity
  8
0
  6
CONTINUOUS
 62
     7
100
AcDbLine
 10
225.37576
 20
72.148494
 30
0.0
 11
225.3728
 21
72.148284
 31
0.0
  0
LINE
  5
19D
330
156
100
AcDbEntity
  8
0
  6
CONTINUOUS
 62
     7
100
AcDbLine
 10
225.3728
 20
72.148284
 30
0.0
 11
225.369813
 21
72.148072
 31
0.0
  0
LINE
  5
19E
330
156
100
AcDbEntity
  8
0
  6
CONTINUOUS
 62
     7
100
AcDbLine
 10
225.369813
 20
72.148072
 30
0.0
 11
225.3668
 21
72.14786
 31
0.0
  0
LINE
  5
19F
330
156
100
AcDbEntity
  8
0
  6
CONTINUOUS
 62
     7
100
AcDbLine
 10
225.3668
 20
72.14786
 30
0.0
 11
225.36376
 21
72.147646
 31
0.0
  0
LINE
  5
1A0
330
156
100
AcDbEntity
  8
0
  6
CONTINUOUS
 62
     7
100
AcDbLine
 10
225.36376
 20
72.147646
 30
0.0
 11
225.360694
 21
72.147431
 31
0.0
  0
LINE
  5
1A1
330
156
100
AcDbEntity
  8
0
  6
CONTINUOUS
 62
     7
100
AcDbLine
 10
225.360694
 20
72.147431
 30
0.0
 11
225.357602
 21
72.147215
 31
0.0
  0
LINE
  5
1A2
330
156
100
AcDbEntity
  8
0
  6
CONTINUOUS
 62
     7
100
AcDbLine
 10
225.357602
 20
72.147215
 30
0.0
 11
225.354484
 21
72.146998
 31
0.0
  0
LINE
  5
1A3
330
156
100
AcDbEntity
  8
0
  6
CONTINUOUS
 62
     7
100
AcDbLine
 10
225.354484
 20
72.146998
 30
0.0
 11
225.351342
 21
72.14678
 31
0.0
  0
LINE
  5
1A4
330
156
100
AcDbEntity
  8
0
  6
CONTINUOUS
 62
     7
100
AcDbLine
 10
225.351342
 20
72.14678
 30
0.0
 11
225.348174
 21
72.146561
 31
0.0
  0
LINE
  5
1A5
330
156
100
AcDbEntity
  8
0
  6
CONTINUOUS
 62
     7
100
AcDbLine
 10
225.348174
 20
72.146561
 30
0.0
 11
225.344981
 21
72.146341
 31
0.0
  0
LINE
  5
1A6
330
156
100
AcDbEntity
  8
0
  6
CONTINUOUS
 62
     7
100
AcDbLine
 10
225.344981
 20
72.146341
 30
0.0
 11
225.341764
 21
72.14612
 31
0.0
  0
LINE
  5
1A7
330
156
100
AcDbEntity
  8
0
  6
CONTINUOUS
 62
     7
100
AcDbLine
 10
225.341764
 20
72.14612
 30
0.0
 11
225.338522
 21
72.145898
 31
0.0
  0
LINE
  5
1A8
330
156
100
AcDbEntity
  8
0
  6
CONTINUOUS
 62
     7
100
AcDbLine
 10
225.338522
 20
72.145898
 30
0.0
 11
225.335257
 21
72.145675
 31
0.0
  0
LINE
  5
1A9
330
156
100
AcDbEntity
  8
0
  6
CONTINUOUS
 62
     7
100
AcDbLine
 10
225.335257
 20
72.145675
 30
0.0
 11
225.331968
 21
72.145452
 31
0.0
  0
LINE
  5
1AA
330
156
100
AcDbEntity
  8
0
  6
CONTINUOUS
 62
     7
100
AcDbLine
 10
225.331968
 20
72.145452
 30
0.0
 11
225.328655
 21
72.145227
 31
0.0
  0
LINE
  5
1AB
330
156
100
AcDbEntity
  8
0
  6
CONTINUOUS
 62
     7
100
AcDbLine
 10
225.328655
 20
72.145227
 30
0.0
 11
225.325319
 21
72.145002
 31
0.0
  0
LINE
  5
1AC
330
156
100
AcDbEntity
  8
0
  6
CONTINUOUS
 62
     7
100
AcDbLine
 10
225.325319
 20
72.145002
 30
0.0
 11
225.321961
 21
72.144776
 31
0.0
  0
LINE
  5
1AD
330
156
100
AcDbEntity
  8
0
  6
CONTINUOUS
 62
     7
100
AcDbLine
 10
225.321961
 20
72.144776
 30
0.0
 11
225.318579
 21
72.14455
 31
0.0
  0
LINE
  5
1AE
330
156
100
AcDbEntity
  8
0
  6
CONTINUOUS
 62
     7
100
AcDbLine
 10
225.318579
 20
72.14455
 30
0.0
 11
225.315175
 21
72.144322
 31
0.0
  0
LINE
  5
1AF
330
156
100
AcDbEntity
  8
0
  6
CONTINUOUS
 62
     7
100
AcDbLine
 10
225.315175
 20
72.144322
 30
0.0
 11
225.311749
 21
72.144094
 31
0.0
  0
LINE
  5
1B0
330
156
100
AcDbEntity
  8
0
  6
CONTINUOUS
 62
     7
100
AcDbLine
 10
225.311749
 20
72.144094
 30
0.0
 11
225.308302
 21
72.143866
 31
0.0
  0
LINE
  5
1B1
330
156
100
AcDbEntity
  8
0
  6
CONTINUOUS
 62
     7
100
AcDbLine
 10
225.308302
 20
72.143866
 30
0.0
 11
225.304832
 21
72.143636
 31
0.0
  0
LINE
  5
1B2
330
156
100
AcDbEntity
  8
0
  6
CONTINUOUS
 62
     7
100
AcDbLine
 10
225.304832
 20
72.143636
 30
0.0
 11
225.301341
 21
72.143407
 31
0.0
  0
LINE
  5
1B3
330
156
100
AcDbEntity
  8
0
  6
CONTINUOUS
 62
     7
100
AcDbLine
 10
225.301341
 20
72.143407
 30
0.0
 11
225.29783
 21
72.143176
 31
0.0
  0
LINE
  5
1B4
330
156
100
AcDbEntity
  8
0
  6
CONTINUOUS
 62
     7
100
AcDbLine
 10
225.29783
 20
72.143176
 30
0.0
 11
225.294297
 21
72.142946
 31
0.0
  0
LINE
  5
1B5
330
156
100
AcDbEntity
  8
0
  6
CONTINUOUS
 62
     7
100
AcDbLine
 10
225.294297
 20
72.142946
 30
0.0
 11
225.290744
 21
72.142714
 31
0.0
  0
LINE
  5
1B6
330
156
100
AcDbEntity
  8
0
  6
CONTINUOUS
 62
     7
100
AcDbLine
 10
225.290744
 20
72.142714
 30
0.0
 11
225.287171
 21
72.142483
 31
0.0
  0
LINE
  5
1B7
330
156
100
AcDbEntity
  8
0
  6
CONTINUOUS
 62
     7
100
AcDbLine
 10
225.287171
 20
72.142483
 30
0.0
 11
225.283577
 21
72.142251
 31
0.0
  0
LINE
  5
1B8
330
156
100
AcDbEntity
  8
0
  6
CONTINUOUS
 62
     7
100
AcDbLine
 10
225.283577
 20
72.142251
 30
0.0
 11
225.279964
 21
72.142018
 31
0.0
  0
LINE
  5
1B9
330
156
100
AcDbEntity
  8
0
  6
CONTINUOUS
 62
     7
100
AcDbLine
 10
225.279964
 20
72.142018
 30
0.0
 11
225.276332
 21
72.141785
 31
0.0
  0
LINE
  5
1BA
330
156
100
AcDbEntity
  8
0
  6
CONTINUOUS
 62
     7
100
AcDbLine
 10
225.276332
 20
72.141785
 30
0.0
 11
225.27268
 21
72.141552
 31
0.0
  0
LINE
  5
1BB
330
156
100
AcDbEntity
  8
0
  6
CONTINUOUS
 62
     7
100
AcDbLine
 10
225.27268
 20
72.141552
 30
0.0
 11
225.269009
 21
72.141319
 31
0.0
  0
LINE
  5
1BC
330
156
100
AcDbEntity
  8
0
  6
CONTINUOUS
 62
     7
100
AcDbLine
 10
225.269009
 20
72.141319
 30
0.0
 11
225.26532
 21
72.141085
 31
0.0
  0
LINE
  5
1BD
330
156
100
AcDbEntity
  8
0
  6
CONTINUOUS
 62
     7
100
AcDbLine
 10
225.26532
 20
72.141085
 30
0.0
 11
225.261624
 21
72.140852
 31
0.0
  0
LINE
  5
1BE
330
156
100
AcDbEntity
  8
0
  6
CONTINUOUS
 62
     7
100
AcDbLine
 10
225.261624
 20
72.140852
 30
0.0
 11
225.257911
 21
72.140619
 31
0.0
  0
LINE
  5
1BF
330
156
100
AcDbEntity
  8
0
  6
CONTINUOUS
 62
     7
100
AcDbLine
 10
225.257911
 20
72.140619
 30
0.0
 11
225.254179
 21
72.140385
 31
0.0
  0
LINE
  5
1C0
330
156
100
AcDbEntity
  8
0
  6
CONTINUOUS
 62
     7
100
AcDbLine
 10
225.254179
 20
72.140385
 30
0.0
 11
225.250429
 21
72.140152
 31
0.0
  0
LINE
  5
1C1
330
156
100
AcDbEntity
  8
0
  6
CONTINUOUS
 62
     7
100
AcDbLine
 10
225.250429
 20
72.140152
 30
0.0
 11
225.246661
 21
72.139918
 31
0.0
  0
LINE
  5
1C2
330
156
100
AcDbEntity
  8
0
  6
CONTINUOUS
 62
     7
100
AcDbLine
 10
225.246661
 20
72.139918
 30
0.0
 11
225.242875
 21
72.139685
 31
0.0
  0
LINE
  5
1C3
330
156
100
AcDbEntity
  8
0
  6
CONTINUOUS
 62
     7
100
AcDbLine
 10
225.242875
 20
72.139685
 30
0.0
 11
225.239071
 21
72.139451
 31
0.0
  0
LINE
  5
1C4
330
156
100
AcDbEntity
  8
0
  6
CONTINUOUS
 62
     7
100
AcDbLine
 10
225.239071
 20
72.139451
 30
0.0
 11
225.235249
 21
72.139218
 31
0.0
  0
LINE
  5
1C5
330
156
100
AcDbEntity
  8
0
  6
CONTINUOUS
 62
     7
100
AcDbLine
 10
225.235249
 20
72.139218
 30
0.0
 11
225.231409
 21
72.138984
 31
0.0
  0
LINE
  5
1C6
330
156
100
AcDbEntity
  8
0
  6
CONTINUOUS
 62
     7
100
AcDbLine
 10
225.231409
 20
72.138984
 30
0.0
 11
225.227551
 21
72.138751
 31
0.0
  0
LINE
  5
1C7
330
156
100
AcDbEntity
  8
0
  6
CONTINUOUS
 62
     7
100
AcDbLine
 10
225.227551
 20
72.138751
 30
0.0
 11
225.223676
 21
72.138518
 31
0.0
  0
LINE
  5
1C8
330
156
100
AcDbEntity
  8
0
  6
CONTINUOUS
 62
     7
100
AcDbLine
 10
225.223676
 20
72.138518
 30
0.0
 11
225.219783
 21
72.138285
 31
0.0
  0
LINE
  5
1C9
330
156
100
AcDbEntity
  8
0
  6
CONTINUOUS
 62
     7
100
AcDbLine
 10
225.219783
 20
72.138285
 30
0.0
 11
225.215872
 21
72.138052
 31
0.0
  0
LINE
  5
1CA
330
156
100
AcDbEntity
  8
0
  6
CONTINUOUS
 62
     7
100
AcDbLine
 10
225.215872
 20
72.138052
 30
0.0
 11
225.211944
 21
72.137819
 31
0.0
  0
LINE
  5
1CB
330
156
100
AcDbEntity
  8
0
  6
CONTINUOUS
 62
     7
100
AcDbLine
 10
225.211944
 20
72.137819
 30
0.0
 11
225.207998
 21
72.137587
 31
0.0
  0
LINE
  5
1CC
330
156
100
AcDbEntity
  8
0
  6
CONTINUOUS
 62
     7
100
AcDbLine
 10
225.207998
 20
72.137587
 30
0.0
 11
225.204035
 21
72.137355
 31
0.0
  0
LINE
  5
1CD
330
156
100
AcDbEntity
  8
0
  6
CONTINUOUS
 62
     7
100
AcDbLine
 10
225.204035
 20
72.137355
 30
0.0
 11
225.200054
 21
72.137124
 31
0.0
  0
LINE
  5
1CE
330
156
100
AcDbEntity
  8
0
  6
CONTINUOUS
 62
     7
100
AcDbLine
 10
225.200054
 20
72.137124
 30
0.0
 11
225.196056
 21
72.136892
 31
0.0
  0
LINE
  5
1CF
330
156
100
AcDbEntity
  8
0
  6
CONTINUOUS
 62
     7
100
AcDbLine
 10
225.196056
 20
72.136892
 30
0.0
 11
225.192041
 21
72.136662
 31
0.0
  0
LINE
  5
1D0
330
156
100
AcDbEntity
  8
0
  6
CONTINUOUS
 62
     7
100
AcDbLine
 10
225.192041
 20
72.136662
 30
0.0
 11
225.188008
 21
72.136432
 31
0.0
  0
LINE
  5
1D1
330
156
100
AcDbEntity
  8
0
  6
CONTINUOUS
 62
     7
100
AcDbLine
 10
225.188008
 20
72.136432
 30
0.0
 11
225.183958
 21
72.136202
 31
0.0
  0
LINE
  5
1D2
330
156
100
AcDbEntity
  8
0
  6
CONTINUOUS
 62
     7
100
AcDbLine
 10
225.183958
 20
72.136202
 30
0.0
 11
225.179891
 21
72.135973
 31
0.0
  0
LINE
  5
1D3
330
156
100
AcDbEntity
  8
0
  6
CONTINUOUS
 62
     7
100
AcDbLine
 10
225.179891
 20
72.135973
 30
0.0
 11
225.175807
 21
72.135744
 31
0.0
  0
LINE
  5
1D4
330
156
100
AcDbEntity
  8
0
  6
CONTINUOUS
 62
     7
100
AcDbLine
 10
225.175807
 20
72.135744
 30
0.0
 11
225.171706
 21
72.135516
 31
0.0
  0
LINE
  5
1D5
330
156
100
AcDbEntity
  8
0
  6
CONTINUOUS
 62
     7
100
AcDbLine
 10
225.171706
 20
72.135516
 30
0.0
 11
225.167588
 21
72.135289
 31
0.0
  0
LINE
  5
1D6
330
156
100
AcDbEntity
  8
0
  6
CONTINUOUS
 62
     7
100
AcDbLine
 10
225.167588
 20
72.135289
 30
0.0
 11
225.163452
 21
72.135063
 31
0.0
  0
LINE
  5
1D7
330
156
100
AcDbEntity
  8
0
  6
CONTINUOUS
 62
     7
100
AcDbLine
 10
225.163452
 20
72.135063
 30
0.0
 11
225.1593
 21
72.134837
 31
0.0
  0
LINE
  5
1D8
330
156
100
AcDbEntity
  8
0
  6
CONTINUOUS
 62
     7
100
AcDbLine
 10
225.1593
 20
72.134837
 30
0.0
 11
225.155131
 21
72.134612
 31
0.0
  0
LINE
  5
1D9
330
156
100
AcDbEntity
  8
0
  6
CONTINUOUS
 62
     7
100
AcDbLine
 10
225.155131
 20
72.134612
 30
0.0
 11
225.15304
 21
72.134499
 31
0.0
  0
LINE
  5
1DA
330
156
100
AcDbEntity
  8
0
  6
CONTINUOUS
 62
     7
100
AcDbLine
 10
225.15304
 20
72.134499
 30
0.0
 11
225.150945
 21
72.134387
 31
0.0
  0
LINE
  5
1DB
330
156
100
AcDbEntity
  8
0
  6
CONTINUOUS
 62
     7
100
AcDbLine
 10
225.150945
 20
72.134387
 30
0.0
 11
225.148846
 21
72.134276
 31
0.0
  0
LINE
  5
1DC
330
156
100
AcDbEntity
  8
0
  6
CONTINUOUS
 62
     7
100
AcDbLine
 10
225.148846
 20
72.134276
 30
0.0
 11
225.146743
 21
72.134164
 31
0.0
  0
LINE
  5
1DD
330
156
100
AcDbEntity
  8
0
  6
CONTINUOUS
 62
     7
100
AcDbLine
 10
225.146743
 20
72.134164
 30
0.0
 11
225.144635
 21
72.134053
 31
0.0
  0
LINE
  5
1DE
330
156
100
AcDbEntity
  8
0
  6
CONTINUOUS
 62
     7
100
AcDbLine
 10
225.144635
 20
72.134053
 30
0.0
 11
225.142524
 21
72.133942
 31
0.0
  0
LINE
  5
1DF
330
156
100
AcDbEntity
  8
0
  6
CONTINUOUS
 62
     7
100
AcDbLine
 10
225.142524
 20
72.133942
 30
0.0
 11
225.140408
 21
72.133831
 31
0.0
  0
LINE
  5
1E0
330
156
100
AcDbEntity
  8
0
  6
CONTINUOUS
 62
     7
100
AcDbLine
 10
225.140408
 20
72.133831
 30
0.0
 11
225.138288
 21
72.13372
 31
0.0
  0
LINE
  5
1E1
330
156
100
AcDbEntity
  8
0
  6
CONTINUOUS
 62
     7
100
AcDbLine
 10
225.138288
 20
72.13372
 30
0.0
 11
225.136164
 21
72.13361
 31
0.0
  0
LINE
  5
1E2
330
156
100
AcDbEntity
  8
0
  6
CONTINUOUS
 62
     7
100
AcDbLine
 10
225.136164
 20
72.13361
 30
0.0
 11
225.134035
 21
72.133499
 31
0.0
  0
LINE
  5
1E3
330
156
100
AcDbEntity
  8
0
  6
CONTINUOUS
 62
     7
100
AcDbLine
 10
225.134035
 20
72.133499
 30
0.0
 11
225.131903
 21
72.133389
 31
0.0
  0
LINE
  5
1E4
330
156
100
AcDbEntity
  8
0
  6
CONTINUOUS
 62
     7
100
AcDbLine
 10
225.131903
 20
72.133389
 30
0.0
 11
225.129766
 21
72.13328
 31
0.0
  0
LINE
  5
1E5
330
156
100
AcDbEntity
  8
0
  6
CONTINUOUS
 62
     7
100
AcDbLine
 10
225.129766
 20
72.13328
 30
0.0
 11
225.127626
 21
72.13317
 31
0.0
  0
LINE
  5
1E6
330
156
100
AcDbEntity
  8
0
  6
CONTINUOUS
 62
     7
100
AcDbLine
 10
225.127626
 20
72.13317
 30
0.0
 11
225.125481
 21
72.133061
 31
0.0
  0
LINE
  5
1E7
330
156
100
AcDbEntity
  8
0
  6
CONTINUOUS
 62
     7
100
AcDbLine
 10
225.125481
 20
72.133061
 30
0.0
 11
225.123332
 21
72.132952
 31
0.0
  0
LINE
  5
1E8
330
156
100
AcDbEntity
  8
0
  6
CONTINUOUS
 62
     7
100
AcDbLine
 10
225.123332
 20
72.132952
 30
0.0
 11
225.121179
 21
72.132844
 31
0.0
  0
LINE
  5
1E9
330
156
100
AcDbEntity
  8
0
  6
CONTINUOUS
 62
     7
100
AcDbLine
 10
225.121179
 20
72.132844
 30
0.0
 11
225.119022
 21
72.132735
 31
0.0
  0
LINE
  5
1EA
330
156
100
AcDbEntity
  8
0
  6
CONTINUOUS
 62
     7
100
AcDbLine
 10
225.119022
 20
72.132735
 30
0.0
 11
225.116861
 21
72.132627
 31
0.0
  0
LINE
  5
1EB
330
156
100
AcDbEntity
  8
0
  6
CONTINUOUS
 62
     7
100
AcDbLine
 10
225.116861
 20
72.132627
 30
0.0
 11
225.114695
 21
72.132519
 31
0.0
  0
LINE
  5
1EC
330
156
100
AcDbEntity
  8
0
  6
CONTINUOUS
 62
     7
100
AcDbLine
 10
225.114695
 20
72.132519
 30
0.0
 11
225.112526
 21
72.132412
 31
0.0
  0
LINE
  5
1ED
330
156
100
AcDbEntity
  8
0
  6
CONTINUOUS
 62
     7
100
AcDbLine
 10
225.112526
 20
72.132412
 30
0.0
 11
225.110353
 21
72.132305
 31
0.0
  0
LINE
  5
1EE
330
156
100
AcDbEntity
  8
0
  6
CONTINUOUS
 62
     7
100
AcDbLine
 10
225.110353
 20
72.132305
 30
0.0
 11
225.108175
 21
72.132198
 31
0.0
  0
LINE
  5
1EF
330
156
100
AcDbEntity
  8
0
  6
CONTINUOUS
 62
     7
100
AcDbLine
 10
225.108175
 20
72.132198
 30
0.0
 11
225.105994
 21
72.132091
 31
0.0
  0
LINE
  5
1F0
330
156
100
AcDbEntity
  8
0
  6
CONTINUOUS
 62
     7
100
AcDbLine
 10
225.105994
 20
72.132091
 30
0.0
 11
225.103808
 21
72.131985
 31
0.0
  0
LINE
  5
1F1
330
156
100
AcDbEntity
  8
0
  6
CONTINUOUS
 62
     7
100
AcDbLine
 10
225.103808
 20
72.131985
 30
0.0
 11
225.101618
 21
72.131879
 31
0.0
  0
LINE
  5
1F2
330
156
100
AcDbEntity
  8
0
  6
CONTINUOUS
 62
     7
100
AcDbLine
 10
225.101618
 20
72.131879
 30
0.0
 11
225.099425
 21
72.131773
 31
0.0
  0
LINE
  5
1F3
330
156
100
AcDbEntity
  8
0
  6
CONTINUOUS
 62
     7
100
AcDbLine
 10
225.099425
 20
72.131773
 30
0.0
 11
225.097227
 21
72.131668
 31
0.0
  0
LINE
  5
1F4
330
156
100
AcDbEntity
  8
0
  6
CONTINUOUS
 62
     7
100
AcDbLine
 10
225.097227
 20
72.131668
 30
0.0
 11
225.095025
 21
72.131563
 31
0.0
  0
LINE
  5
1F5
330
156
100
AcDbEntity
  8
0
  6
CONTINUOUS
 62
     7
100
AcDbLine
 10
225.095025
 20
72.131563
 30
0.0
 11
225.09282
 21
72.131458
 31
0.0
  0
LINE
  5
1F6
330
156
100
AcDbEntity
  8
0
  6
CONTINUOUS
 62
     7
100
AcDbLine
 10
225.09282
 20
72.131458
 30
0.0
 11
225.09061
 21
72.131354
 31
0.0
  0
LINE
  5
1F7
330
156
100
AcDbEntity
  8
0
  6
CONTINUOUS
 62
     7
100
AcDbLine
 10
225.09061
 20
72.131354
 30
0.0
 11
225.088396
 21
72.13125
 31
0.0
  0
LINE
  5
1F8
330
156
100
AcDbEntity
  8
0
  6
CONTINUOUS
 62
     7
100
AcDbLine
 10
225.088396
 20
72.13125
 30
0.0
 11
225.086178
 21
72.131146
 31
0.0
  0
LINE
  5
1F9
330
156
100
AcDbEntity
  8
0
  6
CONTINUOUS
 62
     7
100
AcDbLine
 10
225.086178
 20
72.131146
 30
0.0
 11
225.083957
 21
72.131043
 31
0.0
  0
LINE
  5
1FA
330
156
100
AcDbEntity
  8
0
  6
CONTINUOUS
 62
     7
100
AcDbLine
 10
225.083957
 20
72.131043
 30
0.0
 11
225.081731
 21
72.13094
 31
0.0
  0
LINE
  5
1FB
330
156
100
AcDbEntity
  8
0
  6
CONTINUOUS
 62
     7
100
AcDbLine
 10
225.081731
 20
72.13094
 30
0.0
 11
225.079501
 21
72.130837
 31
0.0
  0
LINE
  5
1FC
330
156
100
AcDbEntity
  8
0
  6
CONTINUOUS
 62
     7
100
AcDbLine
 10
225.079501
 20
72.130837
 30
0.0
 11
225.077268
 21
72.130735
 31
0.0
  0
LINE
  5
1FD
330
156
100
AcDbEntity
  8
0
  6
CONTINUOUS
 62
     7
100
AcDbLine
 10
225.077268
 20
72.130735
 30
0.0
 11
225.07503
 21
72.130633
 31
0.0
  0
LINE
  5
1FE
330
156
100
AcDbEntity
  8
0
  6
CONTINUOUS
 62
     7
100
AcDbLine
 10
225.07503
 20
72.130633
 30
0.0
 11
225.072788
 21
72.130532
 31
0.0
  0
LINE
  5
1FF
330
156
100
AcDbEntity
  8
0
  6
CONTINUOUS
 62
     7
100
AcDbLine
 10
225.072788
 20
72.130532
 30
0.0
 11
225.070543
 21
72.130431
 31
0.0
  0
LINE
  5
200
330
156
100
AcDbEntity
  8
0
  6
CONTINUOUS
 62
     7
100
AcDbLine
 10
225.070543
 20
72.130431
 30
0.0
 11
225.068293
 21
72.13033
 31
0.0
  0
LINE
  5
201
330
156
100
AcDbEntity
  8
0
  6
CONTINUOUS
 62
     7
100
AcDbLine
 10
225.068293
 20
72.13033
 30
0.0
 11
225.06604
 21
72.130229
 31
0.0
  0
LINE
  5
202
330
156
100
AcDbEntity
  8
0
  6
CONTINUOUS
 62
     7
100
AcDbLine
 10
225.06604
 20
72.130229
 30
0.0
 11
225.063783
 21
72.130129
 31
0.0
  0
LINE
  5
203
330
156
100
AcDbEntity
  8
0
  6
CONTINUOUS
 62
     7
100
AcDbLine
 10
225.063783
 20
72.130129
 30
0.0
 11
225.061521
 21
72.13003
 31
0.0
  0
LINE
  5
204
330
156
100
AcDbEntity
  8
0
  6
CONTINUOUS
 62
     7
100
AcDbLine
 10
225.061521
 20
72.13003
 30
0.0
 11
225.059256
 21
72.129931
 31
0.0
  0
LINE
  5
205
330
156
100
AcDbEntity
  8
0
  6
CONTINUOUS
 62
     7
100
AcDbLine
 10
225.059256
 20
72.129931
 30
0.0
 11
225.056987
 21
72.129832
 31
0.0
  0
LINE
  5
206
330
156
100
AcDbEntity
  8
0
  6
CONTINUOUS
 62
     7
100
AcDbLine
 10
225.056987
 20
72.129832
 30
0.0
 11
225.054714
 21
72.129734
 31
0.0
  0
LINE
  5
207
330
156
100
AcDbEntity
  8
0
  6
CONTINUOUS
 62
     7
100
AcDbLine
 10
225.054714
 20
72.129734
 30
0.0
 11
225.052437
 21
72.129636
 31
0.0
  0
LINE
  5
208
330
156
100
AcDbEntity
  8
0
  6
CONTINUOUS
 62
     7
100
AcDbLine
 10
225.052437
 20
72.129636
 30
0.0
 11
225.050156
 21
72.129538
 31
0.0
  0
LINE
  5
209
330
156
100
AcDbEntity
  8
0
  6
CONTINUOUS
 62
     7
100
AcDbLine
 10
225.050156
 20
72.129538
 30
0.0
 11
225.047872
 21
72.129441
 31
0.0
  0
LINE
  5
20A
330
156
100
AcDbEntity
  8
0
  6
CONTINUOUS
 62
     7
100
AcDbLine
 10
225.047872
 20
72.129441
 30
0.0
 11
225.045583
 21
72.129344
 31
0.0
  0
LINE
  5
20B
330
156
100
AcDbEntity
  8
0
  6
CONTINUOUS
 62
     7
100
AcDbLine
 10
225.045583
 20
72.129344
 30
0.0
 11
225.043291
 21
72.129248
 31
0.0
  0
LINE
  5
20C
330
156
100
AcDbEntity
  8
0
  6
CONTINUOUS
 62
     7
100
AcDbLine
 10
225.043291
 20
72.129248
 30
0.0
 11
225.040995
 21
72.129152
 31
0.0
  0
LINE
  5
20D
330
156
100
AcDbEntity
  8
0
  6
CONTINUOUS
 62
     7
100
AcDbLine
 10
225.040995
 20
72.129152
 30
0.0
 11
225.038694
 21
72.129057
 31
0.0
  0
LINE
  5
20E
330
156
100
AcDbEntity
  8
0
  6
CONTINUOUS
 62
     7
100
AcDbLine
 10
225.038694
 20
72.129057
 30
0.0
 11
225.03639
 21
72.128962
 31
0.0
  0
LINE
  5
20F
330
156
100
AcDbEntity
  8
0
  6
CONTINUOUS
 62
     7
100
AcDbLine
 10
225.03639
 20
72.128962
 30
0.0
 11
225.034083
 21
72.128867
 31
0.0
  0
LINE
  5
210
330
156
100
AcDbEntity
  8
0
  6
CONTINUOUS
 62
     7
100
AcDbLine
 10
225.034083
 20
72.128867
 30
0.0
 11
225.031771
 21
72.128773
 31
0.0
  0
LINE
  5
211
330
156
100
AcDbEntity
  8
0
  6
CONTINUOUS
 62
     7
100
AcDbLine
 10
225.031771
 20
72.128773
 30
0.0
 11
225.029455
 21
72.12868
 31
0.0
  0
LINE
  5
212
330
156
100
AcDbEntity
  8
0
  6
CONTINUOUS
 62
     7
100
AcDbLine
 10
225.029455
 20
72.12868
 30
0.0
 11
225.027136
 21
72.128587
 31
0.0
  0
LINE
  5
213
330
156
100
AcDbEntity
  8
0
  6
CONTINUOUS
 62
     7
100
AcDbLine
 10
225.027136
 20
72.128587
 30
0.0
 11
225.024813
 21
72.128494
 31
0.0
  0
LINE
  5
214
330
156
100
AcDbEntity
  8
0
  6
CONTINUOUS
 62
     7
100
AcDbLine
 10
225.024813
 20
72.128494
 30
0.0
 11
225.022486
 21
72.128402
 31
0.0
  0
LINE
  5
215
330
156
100
AcDbEntity
  8
0
  6
CONTINUOUS
 62
     7
100
AcDbLine
 10
225.022486
 20
72.128402
 30
0.0
 11
225.020155
 21
72.12831
 31
0.0
  0
LINE
  5
216
330
156
100
AcDbEntity
  8
0
  6
CONTINUOUS
 62
     7
100
AcDbLine
 10
225.020155
 20
72.12831
 30
0.0
 11
225.017821
 21
72.128219
 31
0.0
  0
LINE
  5
217
330
156
100
AcDbEntity
  8
0
  6
CONTINUOUS
 62
     7
100
AcDbLine
 10
225.017821
 20
72.128219
 30
0.0
 11
225.015482
 21
72.128128
 31
0.0
  0
LINE
  5
218
330
156
100
AcDbEntity
  8
0
  6
CONTINUOUS
 62
     7
100
AcDbLine
 10
225.015482
 20
72.128128
 30
0.0
 11
225.01314
 21
72.128038
 31
0.0
  0
LINE
  5
219
330
156
100
AcDbEntity
  8
0
  6
CONTINUOUS
 62
     7
100
AcDbLine
 10
225.01314
 20
72.128038
 30
0.0
 11
225.010794
 21
72.127948
 31
0.0
  0
LINE
  5
21A
330
156
100
AcDbEntity
  8
0
  6
CONTINUOUS
 62
     7
100
AcDbLine
 10
225.010794
 20
72.127948
 30
0.0
 11
225.008445
 21
72.127859
 31
0.0
  0
LINE
  5
21B
330
156
100
AcDbEntity
  8
0
  6
CONTINUOUS
 62
     7
100
AcDbLine
 10
225.008445
 20
72.127859
 30
0.0
 11
225.006091
 21
72.12777
 31
0.0
  0
LINE
  5
21C
330
156
100
AcDbEntity
  8
0
  6
CONTINUOUS
 62
     7
100
AcDbLine
 10
225.006091
 20
72.12777
 30
0.0
 11
225.003734
 21
72.127682
 31
0.0
  0
LINE
  5
21D
330
156
100
AcDbEntity
  8
0
  6
CONTINUOUS
 62
     7
100
AcDbLine
 10
225.003734
 20
72.127682
 30
0.0
 11
225.001373
 21
72.127594
 31
0.0
  0
LINE
  5
21E
330
156
100
AcDbEntity
  8
0
  6
CONTINUOUS
 62
     7
100
AcDbLine
 10
225.001373
 20
72.127594
 30
0.0
 11
224.999008
 21
72.127507
 31
0.0
  0
LINE
  5
21F
330
156
100
AcDbEntity
  8
0
  6
CONTINUOUS
 62
     7
100
AcDbLine
 10
224.999008
 20
72.127507
 30
0.0
 11
224.99664
 21
72.12742
 31
0.0
  0
LINE
  5
220
330
156
100
AcDbEntity
  8
0
  6
CONTINUOUS
 62
     7
100
AcDbLine
 10
224.99664
 20
72.12742
 30
0.0
 11
224.994268
 21
72.127334
 31
0.0
  0
LINE
  5
221
330
156
100
AcDbEntity
  8
0
  6
CONTINUOUS
 62
     7
100
AcDbLine
 10
224.994268
 20
72.127334
 30
0.0
 11
224.991991
 21
72.127252
 31
0.0
  0
LINE
  5
222
330
156
100
AcDbEntity
  8
0
  6
CONTINUOUS
 62
     7
100
AcDbLine
 10
224.991991
 20
72.127252
 30
0.0
 11
224.989712
 21
72.127171
 31
0.0
  0
LINE
  5
223
330
156
100
AcDbEntity
  8
0
  6
CONTINUOUS
 62
     7
100
AcDbLine
 10
224.989712
 20
72.127171
 30
0.0
 11
224.987429
 21
72.127089
 31
0.0
  0
LINE
  5
224
330
156
100
AcDbEntity
  8
0
  6
CONTINUOUS
 62
     7
100
AcDbLine
 10
224.987429
 20
72.127089
 30
0.0
 11
224.985142
 21
72.127009
 31
0.0
  0
LINE
  5
225
330
156
100
AcDbEntity
  8
0
  6
CONTINUOUS
 62
     7
100
AcDbLine
 10
224.985142
 20
72.127009
 30
0.0
 11
224.982853
 21
72.126929
 31
0.0
  0
LINE
  5
226
330
156
100
AcDbEntity
  8
0
  6
CONTINUOUS
 62
     7
100
AcDbLine
 10
224.982853
 20
72.126929
 30
0.0
 11
224.98056
 21
72.126849
 31
0.0
  0
LINE
  5
227
330
156
100
AcDbEntity
  8
0
  6
CONTINUOUS
 62
     7
100
AcDbLine
 10
224.98056
 20
72.126849
 30
0.0
 11
224.978264
 21
72.12677
 31
0.0
  0
LINE
  5
228
330
156
100
AcDbEntity
  8
0
  6
CONTINUOUS
 62
     7
100
AcDbLine
 10
224.978264
 20
72.12677
 30
0.0
 11
224.975964
 21
72.126692
 31
0.0
  0
LINE
  5
229
330
156
100
AcDbEntity
  8
0
  6
CONTINUOUS
 62
     7
100
AcDbLine
 10
224.975964
 20
72.126692
 30
0.0
 11
224.973662
 21
72.126614
 31
0.0
  0
LINE
  5
22A
330
156
100
AcDbEntity
  8
0
  6
CONTINUOUS
 62
     7
100
AcDbLine
 10
224.973662
 20
72.126614
 30
0.0
 11
224.971356
 21
72.126537
 31
0.0
  0
LINE
  5
22B
330
156
100
AcDbEntity
  8
0
  6
CONTINUOUS
 62
     7
100
AcDbLine
 10
224.971356
 20
72.126537
 30
0.0
 11
224.969047
 21
72.12646
 31
0.0
  0
LINE
  5
22C
330
156
100
AcDbEntity
  8
0
  6
CONTINUOUS
 62
     7
100
AcDbLine
 10
224.969047
 20
72.12646
 30
0.0
 11
224.966735
 21
72.126383
 31
0.0
  0
LINE
  5
22D
330
156
100
AcDbEntity
  8
0
  6
CONTINUOUS
 62
     7
100
AcDbLine
 10
224.966735
 20
72.126383
 30
0.0
 11
224.96442
 21
72.126308
 31
0.0
  0
LINE
  5
22E
330
156
100
AcDbEntity
  8
0
  6
CONTINUOUS
 62
     7
100
AcDbLine
 10
224.96442
 20
72.126308
 30
0.0
 11
224.962102
 21
72.126233
 31
0.0
  0
LINE
  5
22F
330
156
100
AcDbEntity
  8
0
  6
CONTINUOUS
 62
     7
100
AcDbLine
 10
224.962102
 20
72.126233
 30
0.0
 11
224.959781
 21
72.126158
 31
0.0
  0
LINE
  5
230
330
156
100
AcDbEntity
  8
0
  6
CONTINUOUS
 62
     7
100
AcDbLine
 10
224.959781
 20
72.126158
 30
0.0
 11
224.957457
 21
72.126084
 31
0.0
  0
LINE
  5
231
330
156
100
AcDbEntity
  8
0
  6
CONTINUOUS
 62
     7
100
AcDbLine
 10
224.957457
 20
72.126084
 30
0.0
 11
224.95513
 21
72.12601
 31
0.0
  0
LINE
  5
232
330
156
100
AcDbEntity
  8
0
  6
CONTINUOUS
 62
     7
100
AcDbLine
 10
224.95513
 20
72.12601
 30
0.0
 11
224.9528
 21
72.125937
 31
0.0
  0
LINE
  5
233
330
156
100
AcDbEntity
  8
0
  6
CONTINUOUS
 62
     7
100
AcDbLine
 10
224.9528
 20
72.125937
 30
0.0
 11
224.950468
 21
72.125865
 31
0.0
  0
LINE
  5
234
330
156
100
AcDbEntity
  8
0
  6
CONTINUOUS
 62
     7
100
AcDbLine
 10
224.950468
 20
72.125865
 30
0.0
 11
224.948132
 21
72.125793
 31
0.0
  0
LINE
  5
235
330
156
100
AcDbEntity
  8
0
  6
CONTINUOUS
 62
     7
100
AcDbLine
 10
224.948132
 20
72.125793
 30
0.0
 11
224.945794
 21
72.125722
 31
0.0
  0
LINE
  5
236
330
156
100
AcDbEntity
  8
0
  6
CONTINUOUS
 62
     7
100
AcDbLine
 10
224.945794
 20
72.125722
 30
0.0
 11
224.943453
 21
72.125652
 31
0.0
  0
LINE
  5
237
330
156
100
AcDbEntity
  8
0
  6
CONTINUOUS
 62
     7
100
AcDbLine
 10
224.943453
 20
72.125652
 30
0.0
 11
224.941109
 21
72.125582
 31
0.0
  0
LINE
  5
238
330
156
100
AcDbEntity
  8
0
  6
CONTINUOUS
 62
     7
100
AcDbLine
 10
224.941109
 20
72.125582
 30
0.0
 11
224.938762
 21
72.125513
 31
0.0
  0
LINE
  5
239
330
156
100
AcDbEntity
  8
0
  6
CONTINUOUS
 62
     7
100
AcDbLine
 10
224.938762
 20
72.125513
 30
0.0
 11
224.936413
 21
72.125444
 31
0.0
  0
LINE
  5
23A
330
156
100
AcDbEntity
  8
0
  6
CONTINUOUS
 62
     7
100
AcDbLine
 10
224.936413
 20
72.125444
 30
0.0
 11
224.93406
 21
72.125376
 31
0.0
  0
LINE
  5
23B
330
156
100
AcDbEntity
  8
0
  6
CONTINUOUS
 62
     7
100
AcDbLine
 10
224.93406
 20
72.125376
 30
0.0
 11
224.931706
 21
72.125309
 31
0.0
  0
LINE
  5
23C
330
156
100
AcDbEntity
  8
0
  6
CONTINUOUS
 62
     7
100
AcDbLine
 10
224.931706
 20
72.125309
 30
0.0
 11
224.929348
 21
72.125242
 31
0.0
  0
LINE
  5
23D
330
156
100
AcDbEntity
  8
0
  6
CONTINUOUS
 62
     7
100
AcDbLine
 10
224.929348
 20
72.125242
 30
0.0
 11
224.926989
 21
72.125176
 31
0.0
  0
LINE
  5
23E
330
156
100
AcDbEntity
  8
0
  6
CONTINUOUS
 62
     7
100
AcDbLine
 10
224.926989
 20
72.125176
 30
0.0
 11
224.924626
 21
72.12511
 31
0.0
  0
LINE
  5
23F
330
156
100
AcDbEntity
  8
0
  6
CONTINUOUS
 62
     7
100
AcDbLine
 10
224.924626
 20
72.12511
 30
0.0
 11
224.922261
 21
72.125046
 31
0.0
  0
LINE
  5
240
330
156
100
AcDbEntity
  8
0
  6
CONTINUOUS
 62
     7
100
AcDbLine
 10
224.922261
 20
72.125046
 30
0.0
 11
224.919894
 21
72.124981
 31
0.0
  0
LINE
  5
241
330
156
100
AcDbEntity
  8
0
  6
CONTINUOUS
 62
     7
100
AcDbLine
 10
224.919894
 20
72.124981
 30
0.0
 11
224.917524
 21
72.124918
 31
0.0
  0
LINE
  5
242
330
156
100
AcDbEntity
  8
0
  6
CONTINUOUS
 62
     7
100
AcDbLine
 10
224.917524
 20
72.124918
 30
0.0
 11
224.915151
 21
72.124855
 31
0.0
  0
LINE
  5
243
330
156
100
AcDbEntity
  8
0
  6
CONTINUOUS
 62
     7
100
AcDbLine
 10
224.915151
 20
72.124855
 30
0.0
 11
224.912777
 21
72.124793
 31
0.0
  0
LINE
  5
244
330
156
100
AcDbEntity
  8
0
  6
CONTINUOUS
 62
     7
100
AcDbLine
 10
224.912777
 20
72.124793
 30
0.0
 11
224.9104
 21
72.124732
 31
0.0
  0
LINE
  5
245
330
156
100
AcDbEntity
  8
0
  6
CONTINUOUS
 62
     7
100
AcDbLine
 10
224.9104
 20
72.124732
 30
0.0
 11
224.90802
 21
72.124671
 31
0.0
  0
LINE
  5
246
330
156
100
AcDbEntity
  8
0
  6
CONTINUOUS
 62
     7
100
AcDbLine
 10
224.90802
 20
72.124671
 30
0.0
 11
224.905638
 21
72.124611
 31
0.0
  0
LINE
  5
247
330
156
100
AcDbEntity
  8
0
  6
CONTINUOUS
 62
     7
100
AcDbLine
 10
224.905638
 20
72.124611
 30
0.0
 11
224.903254
 21
72.124552
 31
0.0
  0
LINE
  5
248
330
156
100
AcDbEntity
  8
0
  6
CONTINUOUS
 62
     7
100
AcDbLine
 10
224.903254
 20
72.124552
 30
0.0
 11
224.900868
 21
72.124493
 31
0.0
  0
LINE
  5
249
330
156
100
AcDbEntity
  8
0
  6
CONTINUOUS
 62
     7
100
AcDbLine
 10
224.900868
 20
72.124493
 30
0.0
 11
224.898479
 21
72.124435
 31
0.0
  0
LINE
  5
24A
330
156
100
AcDbEntity
  8
0
  6
CONTINUOUS
 62
     7
100
AcDbLine
 10
224.898479
 20
72.124435
 30
0.0
 11
224.896089
 21
72.124378
 31
0.0
  0
LINE
  5
24B
330
156
100
AcDbEntity
  8
0
  6
CONTINUOUS
 62
     7
100
AcDbLine
 10
224.896089
 20
72.124378
 30
0.0
 11
224.893696
 21
72.124321
 31
0.0
  0
LINE
  5
24C
330
156
100
AcDbEntity
  8
0
  6
CONTINUOUS
 62
     7
100
AcDbLine
 10
224.893696
 20
72.124321
 30
0.0
 11
224.891301
 21
72.124266
 31
0.0
  0
LINE
  5
24D
330
156
100
AcDbEntity
  8
0
  6
CONTINUOUS
 62
     7
100
AcDbLine
 10
224.891301
 20
72.124266
 30
0.0
 11
224.888904
 21
72.124211
 31
0.0
  0
LINE
  5
24E
330
156
100
AcDbEntity
  8
0
  6
CONTINUOUS
 62
     7
100
AcDbLine
 10
224.888904
 20
72.124211
 30
0.0
 11
224.886504
 21
72.124156
 31
0.0
  0
LINE
  5
24F
330
156
100
AcDbEntity
  8
0
  6
CONTINUOUS
 62
     7
100
AcDbLine
 10
224.886504
 20
72.124156
 30
0.0
 11
224.884103
 21
72.124103
 31
0.0
  0
LINE
  5
250
330
156
100
AcDbEntity
  8
0
  6
CONTINUOUS
 62
     7
100
AcDbLine
 10
224.884103
 20
72.124103
 30
0.0
 11
224.8817
 21
72.12405
 31
0.0
  0
LINE
  5
251
330
156
100
AcDbEntity
  8
0
  6
CONTINUOUS
 62
     7
100
AcDbLine
 10
224.8817
 20
72.12405
 30
0.0
 11
224.879295
 21
72.123998
 31
0.0
  0
LINE
  5
252
330
156
100
AcDbEntity
  8
0
  6
CONTINUOUS
 62
     7
100
AcDbLine
 10
224.879295
 20
72.123998
 30
0.0
 11
224.876887
 21
72.123947
 31
0.0
  0
LINE
  5
253
330
156
100
AcDbEntity
  8
0
  6
CONTINUOUS
 62
     7
100
AcDbLine
 10
224.876887
 20
72.123947
 30
0.0
 11
224.874478
 21
72.123896
 31
0.0
  0
LINE
  5
254
330
156
100
AcDbEntity
  8
0
  6
CONTINUOUS
 62
     7
100
AcDbLine
 10
224.874478
 20
72.123896
 30
0.0
 11
224.872067
 21
72.123847
 31
0.0
  0
LINE
  5
255
330
156
100
AcDbEntity
  8
0
  6
CONTINUOUS
 62
     7
100
AcDbLine
 10
224.872067
 20
72.123847
 30
0.0
 11
224.869654
 21
72.123798
 31
0.0
  0
LINE
  5
256
330
156
100
AcDbEntity
  8
0
  6
CONTINUOUS
 62
     7
100
AcDbLine
 10
224.869654
 20
72.123798
 30
0.0
 11
224.86724
 21
72.12375
 31
0.0
  0
LINE
  5
257
330
156
100
AcDbEntity
  8
0
  6
CONTINUOUS
 62
     7
100
AcDbLine
 10
224.86724
 20
72.12375
 30
0.0
 11
224.864823
 21
72.123702
 31
0.0
  0
LINE
  5
258
330
156
100
AcDbEntity
  8
0
  6
CONTINUOUS
 62
     7
100
AcDbLine
 10
224.864823
 20
72.123702
 30
0.0
 11
224.862405
 21
72.123656
 31
0.0
  0
LINE
  5
259
330
156
100
AcDbEntity
  8
0
  6
CONTINUOUS
 62
     7
100
AcDbLine
 10
224.862405
 20
72.123656
 30
0.0
 11
224.859985
 21
72.12361
 31
0.0
  0
LINE
  5
25A
330
156
100
AcDbEntity
  8
0
  6
CONTINUOUS
 62
     7
100
AcDbLine
 10
224.859985
 20
72.12361
 30
0.0
 11
224.857563
 21
72.123565
 31
0.0
  0
LINE
  5
25B
330
156
100
AcDbEntity
  8
0
  6
CONTINUOUS
 62
     7
100
AcDbLine
 10
224.857563
 20
72.123565
 30
0.0
 11
224.85514
 21
72.123521
 31
0.0
  0
LINE
  5
25C
330
156
100
AcDbEntity
  8
0
  6
CONTINUOUS
 62
     7
100
AcDbLine
 10
224.85514
 20
72.123521
 30
0.0
 11
224.852715
 21
72.123478
 31
0.0
  0
LINE
  5
25D
330
156
100
AcDbEntity
  8
0
  6
CONTINUOUS
 62
     7
100
AcDbLine
 10
224.852715
 20
72.123478
 30
0.0
 11
224.850288
 21
72.123435
 31
0.0
  0
LINE
  5
25E
330
156
100
AcDbEntity
  8
0
  6
CONTINUOUS
 62
     7
100
AcDbLine
 10
224.850288
 20
72.123435
 30
0.0
 11
224.84786
 21
72.123393
 31
0.0
  0
LINE
  5
25F
330
156
100
AcDbEntity
  8
0
  6
CONTINUOUS
 62
     7
100
AcDbLine
 10
224.84786
 20
72.123393
 30
0.0
 11
224.84543
 21
72.123353
 31
0.0
  0
LINE
  5
260
330
156
100
AcDbEntity
  8
0
  6
CONTINUOUS
 62
     7
100
AcDbLine
 10
224.84543
 20
72.123353
 30
0.0
 11
224.842998
 21
72.123313
 31
0.0
  0
LINE
  5
261
330
156
100
AcDbEntity
  8
0
  6
CONTINUOUS
 62
     7
100
AcDbLine
 10
224.842998
 20
72.123313
 30
0.0
 11
224.840504
 21
72.123273
 31
0.0
  0
LINE
  5
262
330
156
100
AcDbEntity
  8
0
  6
CONTINUOUS
 62
     7
100
AcDbLine
 10
224.840504
 20
72.123273
 30
0.0
 11
224.838007
 21
72.123233
 31
0.0
  0
LINE
  5
263
330
156
100
AcDbEntity
  8
0
  6
CONTINUOUS
 62
     7
100
AcDbLine
 10
224.838007
 20
72.123233
 30
0.0
 11
224.83551
 21
72.123195
 31
0.0
  0
LINE
  5
264
330
156
100
AcDbEntity
  8
0
  6
CONTINUOUS
 62
     7
100
AcDbLine
 10
224.83551
 20
72.123195
 30
0.0
 11
224.83301
 21
72.123157
 31
0.0
  0
LINE
  5
265
330
156
100
AcDbEntity
  8
0
  6
CONTINUOUS
 62
     7
100
AcDbLine
 10
224.83301
 20
72.123157
 30
0.0
 11
224.830509
 21
72.123121
 31
0.0
  0
LINE
  5
266
330
156
100
AcDbEntity
  8
0
  6
CONTINUOUS
 62
     7
100
AcDbLine
 10
224.830509
 20
72.123121
 30
0.0
 11
224.828007
 21
72.123085
 31
0.0
  0
LINE
  5
267
330
156
100
AcDbEntity
  8
0
  6
CONTINUOUS
 62
     7
100
AcDbLine
 10
224.828007
 20
72.123085
 30
0.0
 11
224.825503
 21
72.12305
 31
0.0
  0
LINE
  5
268
330
156
100
AcDbEntity
  8
0
  6
CONTINUOUS
 62
     7
100
AcDbLine
 10
224.825503
 20
72.12305
 30
0.0
 11
224.822998
 21
72.123016
 31
0.0
  0
LINE
  5
269
330
156
100
AcDbEntity
  8
0
  6
CONTINUOUS
 62
     7
100
AcDbLine
 10
224.822998
 20
72.123016
 30
0.0
 11
224.820492
 21
72.122982
 31
0.0
  0
LINE
  5
26A
330
156
100
AcDbEntity
  8
0
  6
CONTINUOUS
 62
     7
100
AcDbLine
 10
224.820492
 20
72.122982
 30
0.0
 11
224.817984
 21
72.122949
 31
0.0
  0
LINE
  5
26B
330
156
100
AcDbEntity
  8
0
  6
CONTINUOUS
 62
     7
100
AcDbLine
 10
224.817984
 20
72.122949
 30
0.0
 11
224.815474
 21
72.122917
 31
0.0
  0
LINE
  5
26C
330
156
100
AcDbEntity
  8
0
  6
CONTINUOUS
 62
     7
100
AcDbLine
 10
224.815474
 20
72.122917
 30
0.0
 11
224.812964
 21
72.122886
 31
0.0
  0
LINE
  5
26D
330
156
100
AcDbEntity
  8
0
  6
CONTINUOUS
 62
     7
100
AcDbLine
 10
224.812964
 20
72.122886
 30
0.0
 11
224.810452
 21
72.122856
 31
0.0
  0
LINE
  5
26E
330
156
100
AcDbEntity
  8
0
  6
CONTINUOUS
 62
     7
100
AcDbLine
 10
224.810452
 20
72.122856
 30
0.0
 11
224.807939
 21
72.122826
 31
0.0
  0
LINE
  5
26F
330
156
100
AcDbEntity
  8
0
  6
CONTINUOUS
 62
     7
100
AcDbLine
 10
224.807939
 20
72.122826
 30
0.0
 11
224.805425
 21
72.122797
 31
0.0
  0
LINE
  5
270
330
156
100
AcDbEntity
  8
0
  6
CONTINUOUS
 62
     7
100
AcDbLine
 10
224.805425
 20
72.122797
 30
0.0
 11
224.802909
 21
72.122768
 31
0.0
  0
LINE
  5
271
330
156
100
AcDbEntity
  8
0
  6
CONTINUOUS
 62
     7
100
AcDbLine
 10
224.802909
 20
72.122768
 30
0.0
 11
224.800392
 21
72.122741
 31
0.0
  0
LINE
  5
272
330
156
100
AcDbEntity
  8
0
  6
CONTINUOUS
 62
     7
100
AcDbLine
 10
224.800392
 20
72.122741
 30
0.0
 11
224.797875
 21
72.122714
 31
0.0
  0
LINE
  5
273
330
156
100
AcDbEntity
  8
0
  6
CONTINUOUS
 62
     7
100
AcDbLine
 10
224.797875
 20
72.122714
 30
0.0
 11
224.795355
 21
72.122687
 31
0.0
  0
LINE
  5
274
330
156
100
AcDbEntity
  8
0
  6
CONTINUOUS
 62
     7
100
AcDbLine
 10
224.795355
 20
72.122687
 30
0.0
 11
224.792835
 21
72.122661
 31
0.0
  0
LINE
  5
275
330
156
100
AcDbEntity
  8
0
  6
CONTINUOUS
 62
     7
100
AcDbLine
 10
224.792835
 20
72.122661
 30
0.0
 11
224.790314
 21
72.122636
 31
0.0
  0
LINE
  5
276
330
156
100
AcDbEntity
  8
0
  6
CONTINUOUS
 62
     7
100
AcDbLine
 10
224.790314
 20
72.122636
 30
0.0
 11
224.787792
 21
72.122612
 31
0.0
  0
LINE
  5
277
330
156
100
AcDbEntity
  8
0
  6
CONTINUOUS
 62
     7
100
AcDbLine
 10
224.787792
 20
72.122612
 30
0.0
 11
224.785269
 21
72.122588
 31
0.0
  0
LINE
  5
278
330
156
100
AcDbEntity
  8
0
  6
CONTINUOUS
 62
     7
100
AcDbLine
 10
224.785269
 20
72.122588
 30
0.0
 11
224.782744
 21
72.122564
 31
0.0
  0
LINE
  5
279
330
156
100
AcDbEntity
  8
0
  6
CONTINUOUS
 62
     7
100
AcDbLine
 10
224.782744
 20
72.122564
 30
0.0
 11
224.780219
 21
72.122541
 31
0.0
  0
LINE
  5
27A
330
156
100
AcDbEntity
  8
0
  6
CONTINUOUS
 62
     7
100
AcDbLine
 10
224.780219
 20
72.122541
 30
0.0
 11
224.777693
 21
72.122519
 31
0.0
  0
LINE
  5
27B
330
156
100
AcDbEntity
  8
0
  6
CONTINUOUS
 62
     7
100
AcDbLine
 10
224.777693
 20
72.122519
 30
0.0
 11
224.775165
 21
72.122497
 31
0.0
  0
LINE
  5
27C
330
156
100
AcDbEntity
  8
0
  6
CONTINUOUS
 62
     7
100
AcDbLine
 10
224.775165
 20
72.122497
 30
0.0
 11
224.772637
 21
72.122476
 31
0.0
  0
LINE
  5
27D
330
156
100
AcDbEntity
  8
0
  6
CONTINUOUS
 62
     7
100
AcDbLine
 10
224.772637
 20
72.122476
 30
0.0
 11
224.770108
 21
72.122455
 31
0.0
  0
LINE
  5
27E
330
156
100
AcDbEntity
  8
0
  6
CONTINUOUS
 62
     7
100
AcDbLine
 10
224.770108
 20
72.122455
 30
0.0
 11
224.767578
 21
72.122435
 31
0.0
  0
LINE
  5
27F
330
156
100
AcDbEntity
  8
0
  6
CONTINUOUS
 62
     7
100
AcDbLine
 10
224.767578
 20
72.122435
 30
0.0
 11
224.765048
 21
72.122415
 31
0.0
  0
LINE
  5
280
330
156
100
AcDbEntity
  8
0
  6
CONTINUOUS
 62
     7
100
AcDbLine
 10
224.765048
 20
72.122415
 30
0.0
 11
224.762516
 21
72.122395
 31
0.0
  0
LINE
  5
281
330
156
100
AcDbEntity
  8
0
  6
CONTINUOUS
 62
     7
100
AcDbLine
 10
224.762516
 20
72.122395
 30
0.0
 11
224.759984
 21
72.122376
 31
0.0
  0
LINE
  5
282
330
156
100
AcDbEntity
  8
0
  6
CONTINUOUS
 62
     7
100
AcDbLine
 10
224.759984
 20
72.122376
 30
0.0
 11
224.757451
 21
72.122358
 31
0.0
  0
LINE
  5
283
330
156
100
AcDbEntity
  8
0
  6
CONTINUOUS
 62
     7
100
AcDbLine
 10
224.757451
 20
72.122358
 30
0.0
 11
224.754917
 21
72.12234
 31
0.0
  0
LINE
  5
284
330
156
100
AcDbEntity
  8
0
  6
CONTINUOUS
 62
     7
100
AcDbLine
 10
224.754917
 20
72.12234
 30
0.0
 11
224.752382
 21
72.122322
 31
0.0
  0
LINE
  5
285
330
156
100
AcDbEntity
  8
0
  6
CONTINUOUS
 62
     7
100
AcDbLine
 10
224.752382
 20
72.122322
 30
0.0
 11
224.749847
 21
72.122305
 31
0.0
  0
LINE
  5
286
330
156
100
AcDbEntity
  8
0
  6
CONTINUOUS
 62
     7
100
AcDbLine
 10
224.749847
 20
72.122305
 30
0.0
 11
224.747311
 21
72.122288
 31
0.0
  0
LINE
  5
287
330
156
100
AcDbEntity
  8
0
  6
CONTINUOUS
 62
     7
100
AcDbLine
 10
224.747311
 20
72.122288
 30
0.0
 11
224.744775
 21
72.122271
 31
0.0
  0
LINE
  5
288
330
156
100
AcDbEntity
  8
0
  6
CONTINUOUS
 62
     7
100
AcDbLine
 10
224.744775
 20
72.122271
 30
0.0
 11
224.742237
 21
72.122255
 31
0.0
  0
LINE
  5
289
330
156
100
AcDbEntity
  8
0
  6
CONTINUOUS
 62
     7
100
AcDbLine
 10
224.742237
 20
72.122255
 30
0.0
 11
224.737161
 21
72.122224
 31
0.0
  0
LINE
  5
28A
330
156
100
AcDbEntity
  8
0
  6
CONTINUOUS
 62
     7
100
AcDbLine
 10
224.737161
 20
72.122224
 30
0.0
 11
224.732083
 21
72.122193
 31
0.0
  0
LINE
  5
28B
330
156
100
AcDbEntity
  8
0
  6
CONTINUOUS
 62
     7
100
AcDbLine
 10
224.732083
 20
72.122193
 30
0.0
 11
224.727003
 21
72.122164
 31
0.0
  0
LINE
  5
28C
330
156
100
AcDbEntity
  8
0
  6
CONTINUOUS
 62
     7
100
AcDbLine
 10
224.727003
 20
72.122164
 30
0.0
 11
224.721921
 21
72.122136
 31
0.0
  0
LINE
  5
28D
330
156
100
AcDbEntity
  8
0
  6
CONTINUOUS
 62
     7
100
AcDbLine
 10
224.721921
 20
72.122136
 30
0.0
 11
224.716837
 21
72.122109
 31
0.0
  0
LINE
  5
28E
330
156
100
AcDbEntity
  8
0
  6
CONTINUOUS
 62
     7
100
AcDbLine
 10
224.716837
 20
72.122109
 30
0.0
 11
224.711752
 21
72.122083
 31
0.0
  0
LINE
  5
28F
330
156
100
AcDbEntity
  8
0
  6
CONTINUOUS
 62
     7
100
AcDbLine
 10
224.711752
 20
72.122083
 30
0.0
 11
224.706666
 21
72.122057
 31
0.0
  0
LINE
  5
290
330
156
100
AcDbEntity
  8
0
  6
CONTINUOUS
 62
     7
100
AcDbLine
 10
224.706666
 20
72.122057
 30
0.0
 11
224.701579
 21
72.122032
 31
0.0
  0
LINE
  5
291
330
156
100
AcDbEntity
  8
0
  6
CONTINUOUS
 62
     7
100
AcDbLine
 10
224.701579
 20
72.122032
 30
0.0
 11
224.696491
 21
72.122007
 31
0.0
  0
LINE
  5
292
330
156
100
AcDbEntity
  8
0
  6
CONTINUOUS
 62
     7
100
AcDbLine
 10
224.696491
 20
72.122007
 30
0.0
 11
224.691402
 21
72.121983
 31
0.0
  0
LINE
  5
293
330
156
100
AcDbEntity
  8
0
  6
CONTINUOUS
 62
     7
100
AcDbLine
 10
224.691402
 20
72.121983
 30
0.0
 11
224.681224
 21
72.121934
 31
0.0
  0
ENDBLK
  5
158
330
156
100
AcDbEntity
  8
0
100
AcDbBlockEnd
  0
BLOCK
  5
295
330
294
100
AcDbEntity
  8
0
100
AcDbBlockBegin
  2
BLKF017
 70
     0
 71
     0
 10
0.0
 20
0.0
 30
0.0
  3
BLKF017
  1

  0
LINE
  5
298
330
294
100
AcDbEntity
  8
0
  6
CONTINUOUS
 62
     7
100
AcDbLine
 10
223.847355
 20
53.259546
 30
0.0
 11
223.847273
 21
53.259539
 31
0.0
  0
LINE
  5
299
330
294
100
AcDbEntity
  8
0
  6
CONTINUOUS
 62
     7
100
AcDbLine
 10
223.847273
 20
53.259539
 30
0.0
 11
223.862897
 21
53.26097
 31
0.0
  0
LINE
  5
29A
330
294
100
AcDbEntity
  8
0
  6
CONTINUOUS
 62
     7
100
AcDbLine
 10
223.862897
 20
53.26097
 30
0.0
 11
223.909783
 21
53.264869
 31
0.0
  0
LINE
  5
29B
330
294
100
AcDbEntity
  8
0
  6
CONTINUOUS
 62
     7
100
AcDbLine
 10
223.909783
 20
53.264869
 30
0.0
 11
224.097307
 21
53.278031
 31
0.0
  0
LINE
  5
29C
330
294
100
AcDbEntity
  8
0
  6
CONTINUOUS
 62
     7
100
AcDbLine
 10
224.097307
 20
53.278031
 30
0.0
 11
224.368046
 21
53.29173
 31
0.0
  0
LINE
  5
29D
330
294
100
AcDbEntity
  8
0
  6
CONTINUOUS
 62
     7
100
AcDbLine
 10
224.368046
 20
53.29173
 30
0.0
 11
224.519479
 21
53.295747
 31
0.0
  0
LINE
  5
29E
330
294
100
AcDbEntity
  8
0
  6
CONTINUOUS
 62
     7
100
AcDbLine
 10
224.519479
 20
53.295747
 30
0.0
 11
224.681619
 21
53.297143
 31
0.0
  0
LINE
  5
29F
330
294
100
AcDbEntity
  8
0
  6
CONTINUOUS
 62
     7
100
AcDbLine
 10
224.681619
 20
53.297143
 30
0.0
 11
224.843252
 21
53.295751
 31
0.0
  0
LINE
  5
2A0
330
294
100
AcDbEntity
  8
0
  6
CONTINUOUS
 62
     7
100
AcDbLine
 10
224.843252
 20
53.295751
 30
0.0
 11
224.994476
 21
53.291722
 31
0.0
  0
LINE
  5
2A1
330
294
100
AcDbEntity
  8
0
  6
CONTINUOUS
 62
     7
100
AcDbLine
 10
224.994476
 20
53.291722
 30
0.0
 11
225.265677
 21
53.277968
 31
0.0
  0
LINE
  5
2A2
330
294
100
AcDbEntity
  8
0
  6
CONTINUOUS
 62
     7
100
AcDbLine
 10
225.265677
 20
53.277968
 30
0.0
 11
225.452858
 21
53.264838
 31
0.0
  0
LINE
  5
2A3
330
294
100
AcDbEntity
  8
0
  6
CONTINUOUS
 62
     7
100
AcDbLine
 10
225.452858
 20
53.264838
 30
0.0
 11
225.499626
 21
53.260954
 31
0.0
  0
LINE
  5
2A4
330
294
100
AcDbEntity
  8
0
  6
CONTINUOUS
 62
     7
100
AcDbLine
 10
225.499626
 20
53.260954
 30
0.0
 11
225.515182
 21
53.259539
 31
0.0
  0
ENDBLK
  5
296
330
294
100
AcDbEntity
  8
0
100
AcDbBlockEnd
  0
BLOCK
  5
2AA
330
2A9
100
AcDbEntity
  8
0
100
AcDbBlockBegin
  2
BLKF018
 70
     0
 71
     0
 10
0.0
 20
0.0
 30
0.0
  3
BLKF018
  1

  0
LINE
  5
2AD
330
2A9
100
AcDbEntity
  8
0
  6
CONTINUOUS
 62
     7
100
AcDbLine
 10
146.257615
 20
72.142401
 30
0.0
 11
146.280329
 21
72.14104
 31
0.0
  0
LINE
  5
2AE
330
2A9
100
AcDbEntity
  8
0
  6
CONTINUOUS
 62
     7
100
AcDbLine
 10
146.280329
 20
72.14104
 30
0.0
 11
146.303224
 21
72.1397
 31
0.0
  0
LINE
  5
2AF
330
2A9
100
AcDbEntity
  8
0
  6
CONTINUOUS
 62
     7
100
AcDbLine
 10
146.303224
 20
72.1397
 30
0.0
 11
146.314796
 21
72.139044
 31
0.0
  0
LINE
  5
2B0
330
2A9
100
AcDbEntity
  8
0
  6
CONTINUOUS
 62
     7
100
AcDbLine
 10
146.314796
 20
72.139044
 30
0.0
 11
146.326481
 21
72.138401
 31
0.0
  0
LINE
  5
2B1
330
2A9
100
AcDbEntity
  8
0
  6
CONTINUOUS
 62
     7
100
AcDbLine
 10
146.326481
 20
72.138401
 30
0.0
 11
146.338301
 21
72.137773
 31
0.0
  0
LINE
  5
2B2
330
2A9
100
AcDbEntity
  8
0
  6
CONTINUOUS
 62
     7
100
AcDbLine
 10
146.338301
 20
72.137773
 30
0.0
 11
146.35028
 21
72.137164
 31
0.0
  0
LINE
  5
2B3
330
2A9
100
AcDbEntity
  8
0
  6
CONTINUOUS
 62
     7
100
AcDbLine
 10
146.35028
 20
72.137164
 30
0.0
 11
146.362439
 21
72.136576
 31
0.0
  0
LINE
  5
2B4
330
2A9
100
AcDbEntity
  8
0
  6
CONTINUOUS
 62
     7
100
AcDbLine
 10
146.362439
 20
72.136576
 30
0.0
 11
146.374802
 21
72.136011
 31
0.0
  0
LINE
  5
2B5
330
2A9
100
AcDbEntity
  8
0
  6
CONTINUOUS
 62
     7
100
AcDbLine
 10
146.374802
 20
72.136011
 30
0.0
 11
146.387391
 21
72.135472
 31
0.0
  0
LINE
  5
2B6
330
2A9
100
AcDbEntity
  8
0
  6
CONTINUOUS
 62
     7
100
AcDbLine
 10
146.387391
 20
72.135472
 30
0.0
 11
146.400229
 21
72.134961
 31
0.0
  0
LINE
  5
2B7
330
2A9
100
AcDbEntity
  8
0
  6
CONTINUOUS
 62
     7
100
AcDbLine
 10
146.400229
 20
72.134961
 30
0.0
 11
146.413338
 21
72.134482
 31
0.0
  0
LINE
  5
2B8
330
2A9
100
AcDbEntity
  8
0
  6
CONTINUOUS
 62
     7
100
AcDbLine
 10
146.413338
 20
72.134482
 30
0.0
 11
146.426741
 21
72.134036
 31
0.0
  0
LINE
  5
2B9
330
2A9
100
AcDbEntity
  8
0
  6
CONTINUOUS
 62
     7
100
AcDbLine
 10
146.426741
 20
72.134036
 30
0.0
 11
146.44046
 21
72.133627
 31
0.0
  0
LINE
  5
2BA
330
2A9
100
AcDbEntity
  8
0
  6
CONTINUOUS
 62
     7
100
AcDbLine
 10
146.44046
 20
72.133627
 30
0.0
 11
146.454519
 21
72.133256
 31
0.0
  0
LINE
  5
2BB
330
2A9
100
AcDbEntity
  8
0
  6
CONTINUOUS
 62
     7
100
AcDbLine
 10
146.454519
 20
72.133256
 30
0.0
 11
146.462696
 21
72.133061
 31
0.0
  0
ENDBLK
  5
2AB
330
2A9
100
AcDbEntity
  8
0
100
AcDbBlockEnd
  0
BLOCK
  5
2BD
330
2BC
100
AcDbEntity
  8
0
100
AcDbBlockBegin
  2
BLKF019
 70
     0
 71
     0
 10
0.0
 20
0.0
 30
0.0
  3
BLKF019
  1

  0
LINE
  5
2C0
330
2BC
100
AcDbEntity
  8
0
  6
CONTINUOUS
 62
     7
100
AcDbLine
 10
147.653419
 20
72.159319
 30
0.0
 11
147.656031
 21
72.159523
 31
0.0
  0
LINE
  5
2C1
330
2BC
100
AcDbEntity
  8
0
  6
CONTINUOUS
 62
     7
100
AcDbLine
 10
147.656031
 20
72.159523
 30
0.0
 11
147.657858
 21
72.159657
 31
0.0
  0
LINE
  5
2C2
330
2BC
100
AcDbEntity
  8
0
  6
CONTINUOUS
 62
     7
100
AcDbLine
 10
147.657858
 20
72.159657
 30
0.0
 11
147.648529
 21
72.158913
 31
0.0
  0
LINE
  5
2C3
330
2BC
100
AcDbEntity
  8
0
  6
CONTINUOUS
 62
     7
100
AcDbLine
 10
147.648529
 20
72.158913
 30
0.0
 11
147.63084
 21
72.15753
 31
0.0
  0
LINE
  5
2C4
330
2BC
100
AcDbEntity
  8
0
  6
CONTINUOUS
 62
     7
100
AcDbLine
 10
147.63084
 20
72.15753
 30
0.0
 11
147.619736
 21
72.156674
 31
0.0
  0
LINE
  5
2C5
330
2BC
100
AcDbEntity
  8
0
  6
CONTINUOUS
 62
     7
100
AcDbLine
 10
147.619736
 20
72.156674
 30
0.0
 11
147.607591
 21
72.155747
 31
0.0
  0
LINE
  5
2C6
330
2BC
100
AcDbEntity
  8
0
  6
CONTINUOUS
 62
     7
100
AcDbLine
 10
147.607591
 20
72.155747
 30
0.0
 11
147.594675
 21
72.154774
 31
0.0
  0
LINE
  5
2C7
330
2BC
100
AcDbEntity
  8
0
  6
CONTINUOUS
 62
     7
100
AcDbLine
 10
147.594675
 20
72.154774
 30
0.0
 11
147.58101
 21
72.153762
 31
0.0
  0
LINE
  5
2C8
330
2BC
100
AcDbEntity
  8
0
  6
CONTINUOUS
 62
     7
100
AcDbLine
 10
147.58101
 20
72.153762
 30
0.0
 11
147.566538
 21
72.15271
 31
0.0
  0
LINE
  5
2C9
330
2BC
100
AcDbEntity
  8
0
  6
CONTINUOUS
 62
     7
100
AcDbLine
 10
147.566538
 20
72.15271
 30
0.0
 11
147.551202
 21
72.15162
 31
0.0
  0
LINE
  5
2CA
330
2BC
100
AcDbEntity
  8
0
  6
CONTINUOUS
 62
     7
100
AcDbLine
 10
147.551202
 20
72.15162
 30
0.0
 11
147.543192
 21
72.151061
 31
0.0
  0
LINE
  5
2CB
330
2BC
100
AcDbEntity
  8
0
  6
CONTINUOUS
 62
     7
100
AcDbLine
 10
147.543192
 20
72.151061
 30
0.0
 11
147.534945
 21
72.150493
 31
0.0
  0
LINE
  5
2CC
330
2BC
100
AcDbEntity
  8
0
  6
CONTINUOUS
 62
     7
100
AcDbLine
 10
147.534945
 20
72.150493
 30
0.0
 11
147.526453
 21
72.149915
 31
0.0
  0
LINE
  5
2CD
330
2BC
100
AcDbEntity
  8
0
  6
CONTINUOUS
 62
     7
100
AcDbLine
 10
147.526453
 20
72.149915
 30
0.0
 11
147.51771
 21
72.149328
 31
0.0
  0
LINE
  5
2CE
330
2BC
100
AcDbEntity
  8
0
  6
CONTINUOUS
 62
     7
100
AcDbLine
 10
147.51771
 20
72.149328
 30
0.0
 11
147.508707
 21
72.148732
 31
0.0
  0
LINE
  5
2CF
330
2BC
100
AcDbEntity
  8
0
  6
CONTINUOUS
 62
     7
100
AcDbLine
 10
147.508707
 20
72.148732
 30
0.0
 11
147.499439
 21
72.148126
 31
0.0
  0
LINE
  5
2D0
330
2BC
100
AcDbEntity
  8
0
  6
CONTINUOUS
 62
     7
100
AcDbLine
 10
147.499439
 20
72.148126
 30
0.0
 11
147.489897
 21
72.147512
 31
0.0
  0
LINE
  5
2D1
330
2BC
100
AcDbEntity
  8
0
  6
CONTINUOUS
 62
     7
100
AcDbLine
 10
147.489897
 20
72.147512
 30
0.0
 11
147.480075
 21
72.146889
 31
0.0
  0
LINE
  5
2D2
330
2BC
100
AcDbEntity
  8
0
  6
CONTINUOUS
 62
     7
100
AcDbLine
 10
147.480075
 20
72.146889
 30
0.0
 11
147.469667
 21
72.146239
 31
0.0
  0
LINE
  5
2D3
330
2BC
100
AcDbEntity
  8
0
  6
CONTINUOUS
 62
     7
100
AcDbLine
 10
147.469667
 20
72.146239
 30
0.0
 11
147.458962
 21
72.14558
 31
0.0
  0
LINE
  5
2D4
330
2BC
100
AcDbEntity
  8
0
  6
CONTINUOUS
 62
     7
100
AcDbLine
 10
147.458962
 20
72.14558
 30
0.0
 11
147.447971
 21
72.144916
 31
0.0
  0
LINE
  5
2D5
330
2BC
100
AcDbEntity
  8
0
  6
CONTINUOUS
 62
     7
100
AcDbLine
 10
147.447971
 20
72.144916
 30
0.0
 11
147.436701
 21
72.144245
 31
0.0
  0
LINE
  5
2D6
330
2BC
100
AcDbEntity
  8
0
  6
CONTINUOUS
 62
     7
100
AcDbLine
 10
147.436701
 20
72.144245
 30
0.0
 11
147.425162
 21
72.143571
 31
0.0
  0
LINE
  5
2D7
330
2BC
100
AcDbEntity
  8
0
  6
CONTINUOUS
 62
     7
100
AcDbLine
 10
147.425162
 20
72.143571
 30
0.0
 11
147.413361
 21
72.142895
 31
0.0
  0
LINE
  5
2D8
330
2BC
100
AcDbEntity
  8
0
  6
CONTINUOUS
 62
     7
100
AcDbLine
 10
147.413361
 20
72.142895
 30
0.0
 11
147.401308
 21
72.142217
 31
0.0
  0
LINE
  5
2D9
330
2BC
100
AcDbEntity
  8
0
  6
CONTINUOUS
 62
     7
100
AcDbLine
 10
147.401308
 20
72.142217
 30
0.0
 11
147.389012
 21
72.14154
 31
0.0
  0
LINE
  5
2DA
330
2BC
100
AcDbEntity
  8
0
  6
CONTINUOUS
 62
     7
100
AcDbLine
 10
147.389012
 20
72.14154
 30
0.0
 11
147.376481
 21
72.140864
 31
0.0
  0
LINE
  5
2DB
330
2BC
100
AcDbEntity
  8
0
  6
CONTINUOUS
 62
     7
100
AcDbLine
 10
147.376481
 20
72.140864
 30
0.0
 11
147.363724
 21
72.140192
 31
0.0
  0
LINE
  5
2DC
330
2BC
100
AcDbEntity
  8
0
  6
CONTINUOUS
 62
     7
100
AcDbLine
 10
147.363724
 20
72.140192
 30
0.0
 11
147.35075
 21
72.139523
 31
0.0
  0
LINE
  5
2DD
330
2BC
100
AcDbEntity
  8
0
  6
CONTINUOUS
 62
     7
100
AcDbLine
 10
147.35075
 20
72.139523
 30
0.0
 11
147.337567
 21
72.138861
 31
0.0
  0
LINE
  5
2DE
330
2BC
100
AcDbEntity
  8
0
  6
CONTINUOUS
 62
     7
100
AcDbLine
 10
147.337567
 20
72.138861
 30
0.0
 11
147.324185
 21
72.138205
 31
0.0
  0
LINE
  5
2DF
330
2BC
100
AcDbEntity
  8
0
  6
CONTINUOUS
 62
     7
100
AcDbLine
 10
147.324185
 20
72.138205
 30
0.0
 11
147.310611
 21
72.137558
 31
0.0
  0
LINE
  5
2E0
330
2BC
100
AcDbEntity
  8
0
  6
CONTINUOUS
 62
     7
100
AcDbLine
 10
147.310611
 20
72.137558
 30
0.0
 11
147.296856
 21
72.136921
 31
0.0
  0
LINE
  5
2E1
330
2BC
100
AcDbEntity
  8
0
  6
CONTINUOUS
 62
     7
100
AcDbLine
 10
147.296856
 20
72.136921
 30
0.0
 11
147.282926
 21
72.136294
 31
0.0
  0
LINE
  5
2E2
330
2BC
100
AcDbEntity
  8
0
  6
CONTINUOUS
 62
     7
100
AcDbLine
 10
147.282926
 20
72.136294
 30
0.0
 11
147.268256
 21
72.135656
 31
0.0
  0
LINE
  5
2E3
330
2BC
100
AcDbEntity
  8
0
  6
CONTINUOUS
 62
     7
100
AcDbLine
 10
147.268256
 20
72.135656
 30
0.0
 11
147.253414
 21
72.135032
 31
0.0
  0
LINE
  5
2E4
330
2BC
100
AcDbEntity
  8
0
  6
CONTINUOUS
 62
     7
100
AcDbLine
 10
147.253414
 20
72.135032
 30
0.0
 11
147.238405
 21
72.134424
 31
0.0
  0
LINE
  5
2E5
330
2BC
100
AcDbEntity
  8
0
  6
CONTINUOUS
 62
     7
100
AcDbLine
 10
147.238405
 20
72.134424
 30
0.0
 11
147.223235
 21
72.133831
 31
0.0
  0
LINE
  5
2E6
330
2BC
100
AcDbEntity
  8
0
  6
CONTINUOUS
 62
     7
100
AcDbLine
 10
147.223235
 20
72.133831
 30
0.0
 11
147.20791
 21
72.133255
 31
0.0
  0
LINE
  5
2E7
330
2BC
100
AcDbEntity
  8
0
  6
CONTINUOUS
 62
     7
100
AcDbLine
 10
147.20791
 20
72.133255
 30
0.0
 11
147.192435
 21
72.132697
 31
0.0
  0
LINE
  5
2E8
330
2BC
100
AcDbEntity
  8
0
  6
CONTINUOUS
 62
     7
100
AcDbLine
 10
147.192435
 20
72.132697
 30
0.0
 11
147.176818
 21
72.132157
 31
0.0
  0
LINE
  5
2E9
330
2BC
100
AcDbEntity
  8
0
  6
CONTINUOUS
 62
     7
100
AcDbLine
 10
147.176818
 20
72.132157
 30
0.0
 11
147.161062
 21
72.131636
 31
0.0
  0
LINE
  5
2EA
330
2BC
100
AcDbEntity
  8
0
  6
CONTINUOUS
 62
     7
100
AcDbLine
 10
147.161062
 20
72.131636
 30
0.0
 11
147.145175
 21
72.131136
 31
0.0
  0
LINE
  5
2EB
330
2BC
100
AcDbEntity
  8
0
  6
CONTINUOUS
 62
     7
100
AcDbLine
 10
147.145175
 20
72.131136
 30
0.0
 11
147.129163
 21
72.130656
 31
0.0
  0
LINE
  5
2EC
330
2BC
100
AcDbEntity
  8
0
  6
CONTINUOUS
 62
     7
100
AcDbLine
 10
147.129163
 20
72.130656
 30
0.0
 11
147.11303
 21
72.130198
 31
0.0
  0
LINE
  5
2ED
330
2BC
100
AcDbEntity
  8
0
  6
CONTINUOUS
 62
     7
100
AcDbLine
 10
147.11303
 20
72.130198
 30
0.0
 11
147.096783
 21
72.129763
 31
0.0
  0
LINE
  5
2EE
330
2BC
100
AcDbEntity
  8
0
  6
CONTINUOUS
 62
     7
100
AcDbLine
 10
147.096783
 20
72.129763
 30
0.0
 11
147.080428
 21
72.12935
 31
0.0
  0
LINE
  5
2EF
330
2BC
100
AcDbEntity
  8
0
  6
CONTINUOUS
 62
     7
100
AcDbLine
 10
147.080428
 20
72.12935
 30
0.0
 11
147.06397
 21
72.128962
 31
0.0
  0
LINE
  5
2F0
330
2BC
100
AcDbEntity
  8
0
  6
CONTINUOUS
 62
     7
100
AcDbLine
 10
147.06397
 20
72.128962
 30
0.0
 11
147.055704
 21
72.128777
 31
0.0
  0
LINE
  5
2F1
330
2BC
100
AcDbEntity
  8
0
  6
CONTINUOUS
 62
     7
100
AcDbLine
 10
147.055704
 20
72.128777
 30
0.0
 11
147.047415
 21
72.128599
 31
0.0
  0
LINE
  5
2F2
330
2BC
100
AcDbEntity
  8
0
  6
CONTINUOUS
 62
     7
100
AcDbLine
 10
147.047415
 20
72.128599
 30
0.0
 11
147.039104
 21
72.128426
 31
0.0
  0
LINE
  5
2F3
330
2BC
100
AcDbEntity
  8
0
  6
CONTINUOUS
 62
     7
100
AcDbLine
 10
147.039104
 20
72.128426
 30
0.0
 11
147.03077
 21
72.128261
 31
0.0
  0
LINE
  5
2F4
330
2BC
100
AcDbEntity
  8
0
  6
CONTINUOUS
 62
     7
100
AcDbLine
 10
147.03077
 20
72.128261
 30
0.0
 11
147.02214
 21
72.128097
 31
0.0
  0
LINE
  5
2F5
330
2BC
100
AcDbEntity
  8
0
  6
CONTINUOUS
 62
     7
100
AcDbLine
 10
147.02214
 20
72.128097
 30
0.0
 11
147.013488
 21
72.12794
 31
0.0
  0
LINE
  5
2F6
330
2BC
100
AcDbEntity
  8
0
  6
CONTINUOUS
 62
     7
100
AcDbLine
 10
147.013488
 20
72.12794
 30
0.0
 11
147.004815
 21
72.12779
 31
0.0
  0
LINE
  5
2F7
330
2BC
100
AcDbEntity
  8
0
  6
CONTINUOUS
 62
     7
100
AcDbLine
 10
147.004815
 20
72.12779
 30
0.0
 11
146.996123
 21
72.127647
 31
0.0
  0
LINE
  5
2F8
330
2BC
100
AcDbEntity
  8
0
  6
CONTINUOUS
 62
     7
100
AcDbLine
 10
146.996123
 20
72.127647
 30
0.0
 11
146.987412
 21
72.127511
 31
0.0
  0
LINE
  5
2F9
330
2BC
100
AcDbEntity
  8
0
  6
CONTINUOUS
 62
     7
100
AcDbLine
 10
146.987412
 20
72.127511
 30
0.0
 11
146.978684
 21
72.127383
 31
0.0
  0
LINE
  5
2FA
330
2BC
100
AcDbEntity
  8
0
  6
CONTINUOUS
 62
     7
100
AcDbLine
 10
146.978684
 20
72.127383
 30
0.0
 11
146.969939
 21
72.127262
 31
0.0
  0
LINE
  5
2FB
330
2BC
100
AcDbEntity
  8
0
  6
CONTINUOUS
 62
     7
100
AcDbLine
 10
146.969939
 20
72.127262
 30
0.0
 11
146.961178
 21
72.127148
 31
0.0
  0
LINE
  5
2FC
330
2BC
100
AcDbEntity
  8
0
  6
CONTINUOUS
 62
     7
100
AcDbLine
 10
146.961178
 20
72.127148
 30
0.0
 11
146.952403
 21
72.127041
 31
0.0
  0
LINE
  5
2FD
330
2BC
100
AcDbEntity
  8
0
  6
CONTINUOUS
 62
     7
100
AcDbLine
 10
146.952403
 20
72.127041
 30
0.0
 11
146.943614
 21
72.126941
 31
0.0
  0
LINE
  5
2FE
330
2BC
100
AcDbEntity
  8
0
  6
CONTINUOUS
 62
     7
100
AcDbLine
 10
146.943614
 20
72.126941
 30
0.0
 11
146.934812
 21
72.126849
 31
0.0
  0
LINE
  5
2FF
330
2BC
100
AcDbEntity
  8
0
  6
CONTINUOUS
 62
     7
100
AcDbLine
 10
146.934812
 20
72.126849
 30
0.0
 11
146.925999
 21
72.126764
 31
0.0
  0
LINE
  5
300
330
2BC
100
AcDbEntity
  8
0
  6
CONTINUOUS
 62
     7
100
AcDbLine
 10
146.925999
 20
72.126764
 30
0.0
 11
146.917176
 21
72.126687
 31
0.0
  0
LINE
  5
301
330
2BC
100
AcDbEntity
  8
0
  6
CONTINUOUS
 62
     7
100
AcDbLine
 10
146.917176
 20
72.126687
 30
0.0
 11
146.908343
 21
72.126617
 31
0.0
  0
LINE
  5
302
330
2BC
100
AcDbEntity
  8
0
  6
CONTINUOUS
 62
     7
100
AcDbLine
 10
146.908343
 20
72.126617
 30
0.0
 11
146.899501
 21
72.126554
 31
0.0
  0
LINE
  5
303
330
2BC
100
AcDbEntity
  8
0
  6
CONTINUOUS
 62
     7
100
AcDbLine
 10
146.899501
 20
72.126554
 30
0.0
 11
146.890652
 21
72.126499
 31
0.0
  0
LINE
  5
304
330
2BC
100
AcDbEntity
  8
0
  6
CONTINUOUS
 62
     7
100
AcDbLine
 10
146.890652
 20
72.126499
 30
0.0
 11
146.881796
 21
72.126451
 31
0.0
  0
LINE
  5
305
330
2BC
100
AcDbEntity
  8
0
  6
CONTINUOUS
 62
     7
100
AcDbLine
 10
146.881796
 20
72.126451
 30
0.0
 11
146.872935
 21
72.12641
 31
0.0
  0
LINE
  5
306
330
2BC
100
AcDbEntity
  8
0
  6
CONTINUOUS
 62
     7
100
AcDbLine
 10
146.872935
 20
72.12641
 30
0.0
 11
146.864069
 21
72.126378
 31
0.0
  0
LINE
  5
307
330
2BC
100
AcDbEntity
  8
0
  6
CONTINUOUS
 62
     7
100
AcDbLine
 10
146.864069
 20
72.126378
 30
0.0
 11
146.855199
 21
72.126352
 31
0.0
  0
LINE
  5
308
330
2BC
100
AcDbEntity
  8
0
  6
CONTINUOUS
 62
     7
100
AcDbLine
 10
146.855199
 20
72.126352
 30
0.0
 11
146.846328
 21
72.126334
 31
0.0
  0
LINE
  5
309
330
2BC
100
AcDbEntity
  8
0
  6
CONTINUOUS
 62
     7
100
AcDbLine
 10
146.846328
 20
72.126334
 30
0.0
 11
146.837454
 21
72.126324
 31
0.0
  0
LINE
  5
30A
330
2BC
100
AcDbEntity
  8
0
  6
CONTINUOUS
 62
     7
100
AcDbLine
 10
146.837454
 20
72.126324
 30
0.0
 11
146.828581
 21
72.126321
 31
0.0
  0
LINE
  5
30B
330
2BC
100
AcDbEntity
  8
0
  6
CONTINUOUS
 62
     7
100
AcDbLine
 10
146.828581
 20
72.126321
 30
0.0
 11
146.819707
 21
72.126326
 31
0.0
  0
LINE
  5
30C
330
2BC
100
AcDbEntity
  8
0
  6
CONTINUOUS
 62
     7
100
AcDbLine
 10
146.819707
 20
72.126326
 30
0.0
 11
146.810836
 21
72.126339
 31
0.0
  0
LINE
  5
30D
330
2BC
100
AcDbEntity
  8
0
  6
CONTINUOUS
 62
     7
100
AcDbLine
 10
146.810836
 20
72.126339
 30
0.0
 11
146.801967
 21
72.126359
 31
0.0
  0
LINE
  5
30E
330
2BC
100
AcDbEntity
  8
0
  6
CONTINUOUS
 62
     7
100
AcDbLine
 10
146.801967
 20
72.126359
 30
0.0
 11
146.793101
 21
72.126387
 31
0.0
  0
LINE
  5
30F
330
2BC
100
AcDbEntity
  8
0
  6
CONTINUOUS
 62
     7
100
AcDbLine
 10
146.793101
 20
72.126387
 30
0.0
 11
146.78424
 21
72.126423
 31
0.0
  0
LINE
  5
310
330
2BC
100
AcDbEntity
  8
0
  6
CONTINUOUS
 62
     7
100
AcDbLine
 10
146.78424
 20
72.126423
 30
0.0
 11
146.775384
 21
72.126466
 31
0.0
  0
LINE
  5
311
330
2BC
100
AcDbEntity
  8
0
  6
CONTINUOUS
 62
     7
100
AcDbLine
 10
146.775384
 20
72.126466
 30
0.0
 11
146.766536
 21
72.126517
 31
0.0
  0
LINE
  5
312
330
2BC
100
AcDbEntity
  8
0
  6
CONTINUOUS
 62
     7
100
AcDbLine
 10
146.766536
 20
72.126517
 30
0.0
 11
146.757694
 21
72.126576
 31
0.0
  0
LINE
  5
313
330
2BC
100
AcDbEntity
  8
0
  6
CONTINUOUS
 62
     7
100
AcDbLine
 10
146.757694
 20
72.126576
 30
0.0
 11
146.748862
 21
72.126643
 31
0.0
  0
LINE
  5
314
330
2BC
100
AcDbEntity
  8
0
  6
CONTINUOUS
 62
     7
100
AcDbLine
 10
146.748862
 20
72.126643
 30
0.0
 11
146.739906
 21
72.126719
 31
0.0
  0
LINE
  5
315
330
2BC
100
AcDbEntity
  8
0
  6
CONTINUOUS
 62
     7
100
AcDbLine
 10
146.739906
 20
72.126719
 30
0.0
 11
146.730961
 21
72.126803
 31
0.0
  0
LINE
  5
316
330
2BC
100
AcDbEntity
  8
0
  6
CONTINUOUS
 62
     7
100
AcDbLine
 10
146.730961
 20
72.126803
 30
0.0
 11
146.722028
 21
72.126894
 31
0.0
  0
LINE
  5
317
330
2BC
100
AcDbEntity
  8
0
  6
CONTINUOUS
 62
     7
100
AcDbLine
 10
146.722028
 20
72.126894
 30
0.0
 11
146.713107
 21
72.126994
 31
0.0
  0
LINE
  5
318
330
2BC
100
AcDbEntity
  8
0
  6
CONTINUOUS
 62
     7
100
AcDbLine
 10
146.713107
 20
72.126994
 30
0.0
 11
146.7042
 21
72.127101
 31
0.0
  0
LINE
  5
319
330
2BC
100
AcDbEntity
  8
0
  6
CONTINUOUS
 62
     7
100
AcDbLine
 10
146.7042
 20
72.127101
 30
0.0
 11
146.695307
 21
72.127216
 31
0.0
  0
LINE
  5
31A
330
2BC
100
AcDbEntity
  8
0
  6
CONTINUOUS
 62
     7
100
AcDbLine
 10
146.695307
 20
72.127216
 30
0.0
 11
146.68643
 21
72.127338
 31
0.0
  0
LINE
  5
31B
330
2BC
100
AcDbEntity
  8
0
  6
CONTINUOUS
 62
     7
100
AcDbLine
 10
146.68643
 20
72.127338
 30
0.0
 11
146.677568
 21
72.127468
 31
0.0
  0
LINE
  5
31C
330
2BC
100
AcDbEntity
  8
0
  6
CONTINUOUS
 62
     7
100
AcDbLine
 10
146.677568
 20
72.127468
 30
0.0
 11
146.668724
 21
72.127605
 31
0.0
  0
LINE
  5
31D
330
2BC
100
AcDbEntity
  8
0
  6
CONTINUOUS
 62
     7
100
AcDbLine
 10
146.668724
 20
72.127605
 30
0.0
 11
146.659898
 21
72.12775
 31
0.0
  0
LINE
  5
31E
330
2BC
100
AcDbEntity
  8
0
  6
CONTINUOUS
 62
     7
100
AcDbLine
 10
146.659898
 20
72.12775
 30
0.0
 11
146.651091
 21
72.127902
 31
0.0
  0
LINE
  5
31F
330
2BC
100
AcDbEntity
  8
0
  6
CONTINUOUS
 62
     7
100
AcDbLine
 10
146.651091
 20
72.127902
 30
0.0
 11
146.642303
 21
72.128061
 31
0.0
  0
LINE
  5
320
330
2BC
100
AcDbEntity
  8
0
  6
CONTINUOUS
 62
     7
100
AcDbLine
 10
146.642303
 20
72.128061
 30
0.0
 11
146.633536
 21
72.128227
 31
0.0
  0
LINE
  5
321
330
2BC
100
AcDbEntity
  8
0
  6
CONTINUOUS
 62
     7
100
AcDbLine
 10
146.633536
 20
72.128227
 30
0.0
 11
146.624791
 21
72.128401
 31
0.0
  0
LINE
  5
322
330
2BC
100
AcDbEntity
  8
0
  6
CONTINUOUS
 62
     7
100
AcDbLine
 10
146.624791
 20
72.128401
 30
0.0
 11
146.616068
 21
72.128581
 31
0.0
  0
LINE
  5
323
330
2BC
100
AcDbEntity
  8
0
  6
CONTINUOUS
 62
     7
100
AcDbLine
 10
146.616068
 20
72.128581
 30
0.0
 11
146.607369
 21
72.128768
 31
0.0
  0
LINE
  5
324
330
2BC
100
AcDbEntity
  8
0
  6
CONTINUOUS
 62
     7
100
AcDbLine
 10
146.607369
 20
72.128768
 30
0.0
 11
146.598693
 21
72.128961
 31
0.0
  0
LINE
  5
325
330
2BC
100
AcDbEntity
  8
0
  6
CONTINUOUS
 62
     7
100
AcDbLine
 10
146.598693
 20
72.128961
 30
0.0
 11
146.590043
 21
72.129162
 31
0.0
  0
LINE
  5
326
330
2BC
100
AcDbEntity
  8
0
  6
CONTINUOUS
 62
     7
100
AcDbLine
 10
146.590043
 20
72.129162
 30
0.0
 11
146.58142
 21
72.129369
 31
0.0
  0
LINE
  5
327
330
2BC
100
AcDbEntity
  8
0
  6
CONTINUOUS
 62
     7
100
AcDbLine
 10
146.58142
 20
72.129369
 30
0.0
 11
146.572823
 21
72.129582
 31
0.0
  0
LINE
  5
328
330
2BC
100
AcDbEntity
  8
0
  6
CONTINUOUS
 62
     7
100
AcDbLine
 10
146.572823
 20
72.129582
 30
0.0
 11
146.564253
 21
72.129802
 31
0.0
  0
LINE
  5
329
330
2BC
100
AcDbEntity
  8
0
  6
CONTINUOUS
 62
     7
100
AcDbLine
 10
146.564253
 20
72.129802
 30
0.0
 11
146.555713
 21
72.130029
 31
0.0
  0
LINE
  5
32A
330
2BC
100
AcDbEntity
  8
0
  6
CONTINUOUS
 62
     7
100
AcDbLine
 10
146.555713
 20
72.130029
 30
0.0
 11
146.547202
 21
72.130261
 31
0.0
  0
LINE
  5
32B
330
2BC
100
AcDbEntity
  8
0
  6
CONTINUOUS
 62
     7
100
AcDbLine
 10
146.547202
 20
72.130261
 30
0.0
 11
146.538722
 21
72.1305
 31
0.0
  0
LINE
  5
32C
330
2BC
100
AcDbEntity
  8
0
  6
CONTINUOUS
 62
     7
100
AcDbLine
 10
146.538722
 20
72.1305
 30
0.0
 11
146.530274
 21
72.130745
 31
0.0
  0
LINE
  5
32D
330
2BC
100
AcDbEntity
  8
0
  6
CONTINUOUS
 62
     7
100
AcDbLine
 10
146.530274
 20
72.130745
 30
0.0
 11
146.521857
 21
72.130996
 31
0.0
  0
LINE
  5
32E
330
2BC
100
AcDbEntity
  8
0
  6
CONTINUOUS
 62
     7
100
AcDbLine
 10
146.521857
 20
72.130996
 30
0.0
 11
146.513474
 21
72.131253
 31
0.0
  0
LINE
  5
32F
330
2BC
100
AcDbEntity
  8
0
  6
CONTINUOUS
 62
     7
100
AcDbLine
 10
146.513474
 20
72.131253
 30
0.0
 11
146.505126
 21
72.131516
 31
0.0
  0
LINE
  5
330
330
2BC
100
AcDbEntity
  8
0
  6
CONTINUOUS
 62
     7
100
AcDbLine
 10
146.505126
 20
72.131516
 30
0.0
 11
146.496812
 21
72.131784
 31
0.0
  0
LINE
  5
331
330
2BC
100
AcDbEntity
  8
0
  6
CONTINUOUS
 62
     7
100
AcDbLine
 10
146.496812
 20
72.131784
 30
0.0
 11
146.488534
 21
72.132059
 31
0.0
  0
LINE
  5
332
330
2BC
100
AcDbEntity
  8
0
  6
CONTINUOUS
 62
     7
100
AcDbLine
 10
146.488534
 20
72.132059
 30
0.0
 11
146.480293
 21
72.132339
 31
0.0
  0
LINE
  5
333
330
2BC
100
AcDbEntity
  8
0
  6
CONTINUOUS
 62
     7
100
AcDbLine
 10
146.480293
 20
72.132339
 30
0.0
 11
146.47209
 21
72.132624
 31
0.0
  0
LINE
  5
334
330
2BC
100
AcDbEntity
  8
0
  6
CONTINUOUS
 62
     7
100
AcDbLine
 10
146.47209
 20
72.132624
 30
0.0
 11
146.45589
 21
72.133208
 31
0.0
  0
LINE
  5
335
330
2BC
100
AcDbEntity
  8
0
  6
CONTINUOUS
 62
     7
100
AcDbLine
 10
146.45589
 20
72.133208
 30
0.0
 11
146.439854
 21
72.133812
 31
0.0
  0
LINE
  5
336
330
2BC
100
AcDbEntity
  8
0
  6
CONTINUOUS
 62
     7
100
AcDbLine
 10
146.439854
 20
72.133812
 30
0.0
 11
146.42399
 21
72.134434
 31
0.0
  0
LINE
  5
337
330
2BC
100
AcDbEntity
  8
0
  6
CONTINUOUS
 62
     7
100
AcDbLine
 10
146.42399
 20
72.134434
 30
0.0
 11
146.408309
 21
72.135073
 31
0.0
  0
LINE
  5
338
330
2BC
100
AcDbEntity
  8
0
  6
CONTINUOUS
 62
     7
100
AcDbLine
 10
146.408309
 20
72.135073
 30
0.0
 11
146.392821
 21
72.135728
 31
0.0
  0
LINE
  5
339
330
2BC
100
AcDbEntity
  8
0
  6
CONTINUOUS
 62
     7
100
AcDbLine
 10
146.392821
 20
72.135728
 30
0.0
 11
146.377536
 21
72.136397
 31
0.0
  0
LINE
  5
33A
330
2BC
100
AcDbEntity
  8
0
  6
CONTINUOUS
 62
     7
100
AcDbLine
 10
146.377536
 20
72.136397
 30
0.0
 11
146.362463
 21
72.137078
 31
0.0
  0
LINE
  5
33B
330
2BC
100
AcDbEntity
  8
0
  6
CONTINUOUS
 62
     7
100
AcDbLine
 10
146.362463
 20
72.137078
 30
0.0
 11
146.347612
 21
72.13777
 31
0.0
  0
LINE
  5
33C
330
2BC
100
AcDbEntity
  8
0
  6
CONTINUOUS
 62
     7
100
AcDbLine
 10
146.347612
 20
72.13777
 30
0.0
 11
146.332995
 21
72.138472
 31
0.0
  0
LINE
  5
33D
330
2BC
100
AcDbEntity
  8
0
  6
CONTINUOUS
 62
     7
100
AcDbLine
 10
146.332995
 20
72.138472
 30
0.0
 11
146.318619
 21
72.139181
 31
0.0
  0
LINE
  5
33E
330
2BC
100
AcDbEntity
  8
0
  6
CONTINUOUS
 62
     7
100
AcDbLine
 10
146.318619
 20
72.139181
 30
0.0
 11
146.304497
 21
72.139897
 31
0.0
  0
LINE
  5
33F
330
2BC
100
AcDbEntity
  8
0
  6
CONTINUOUS
 62
     7
100
AcDbLine
 10
146.304497
 20
72.139897
 30
0.0
 11
146.290636
 21
72.140617
 31
0.0
  0
LINE
  5
340
330
2BC
100
AcDbEntity
  8
0
  6
CONTINUOUS
 62
     7
100
AcDbLine
 10
146.290636
 20
72.140617
 30
0.0
 11
146.277048
 21
72.141341
 31
0.0
  0
LINE
  5
341
330
2BC
100
AcDbEntity
  8
0
  6
CONTINUOUS
 62
     7
100
AcDbLine
 10
146.277048
 20
72.141341
 30
0.0
 11
146.263742
 21
72.142067
 31
0.0
  0
LINE
  5
342
330
2BC
100
AcDbEntity
  8
0
  6
CONTINUOUS
 62
     7
100
AcDbLine
 10
146.263742
 20
72.142067
 30
0.0
 11
146.250728
 21
72.142792
 31
0.0
  0
LINE
  5
343
330
2BC
100
AcDbEntity
  8
0
  6
CONTINUOUS
 62
     7
100
AcDbLine
 10
146.250728
 20
72.142792
 30
0.0
 11
146.238017
 21
72.143517
 31
0.0
  0
LINE
  5
344
330
2BC
100
AcDbEntity
  8
0
  6
CONTINUOUS
 62
     7
100
AcDbLine
 10
146.238017
 20
72.143517
 30
0.0
 11
146.225939
 21
72.14422
 31
0.0
  0
LINE
  5
345
330
2BC
100
AcDbEntity
  8
0
  6
CONTINUOUS
 62
     7
100
AcDbLine
 10
146.225939
 20
72.14422
 30
0.0
 11
146.214153
 21
72.144919
 31
0.0
  0
LINE
  5
346
330
2BC
100
AcDbEntity
  8
0
  6
CONTINUOUS
 62
     7
100
AcDbLine
 10
146.214153
 20
72.144919
 30
0.0
 11
146.202657
 21
72.145614
 31
0.0
  0
LINE
  5
347
330
2BC
100
AcDbEntity
  8
0
  6
CONTINUOUS
 62
     7
100
AcDbLine
 10
146.202657
 20
72.145614
 30
0.0
 11
146.191448
 21
72.146305
 31
0.0
  0
LINE
  5
348
330
2BC
100
AcDbEntity
  8
0
  6
CONTINUOUS
 62
     7
100
AcDbLine
 10
146.191448
 20
72.146305
 30
0.0
 11
146.180522
 21
72.146991
 31
0.0
  0
LINE
  5
349
330
2BC
100
AcDbEntity
  8
0
  6
CONTINUOUS
 62
     7
100
AcDbLine
 10
146.180522
 20
72.146991
 30
0.0
 11
146.169877
 21
72.147671
 31
0.0
  0
LINE
  5
34A
330
2BC
100
AcDbEntity
  8
0
  6
CONTINUOUS
 62
     7
100
AcDbLine
 10
146.169877
 20
72.147671
 30
0.0
 11
146.159509
 21
72.148344
 31
0.0
  0
LINE
  5
34B
330
2BC
100
AcDbEntity
  8
0
  6
CONTINUOUS
 62
     7
100
AcDbLine
 10
146.159509
 20
72.148344
 30
0.0
 11
146.149415
 21
72.14901
 31
0.0
  0
LINE
  5
34C
330
2BC
100
AcDbEntity
  8
0
  6
CONTINUOUS
 62
     7
100
AcDbLine
 10
146.149415
 20
72.14901
 30
0.0
 11
146.139593
 21
72.149669
 31
0.0
  0
LINE
  5
34D
330
2BC
100
AcDbEntity
  8
0
  6
CONTINUOUS
 62
     7
100
AcDbLine
 10
146.139593
 20
72.149669
 30
0.0
 11
146.130038
 21
72.150319
 31
0.0
  0
LINE
  5
34E
330
2BC
100
AcDbEntity
  8
0
  6
CONTINUOUS
 62
     7
100
AcDbLine
 10
146.130038
 20
72.150319
 30
0.0
 11
146.120749
 21
72.150961
 31
0.0
  0
LINE
  5
34F
330
2BC
100
AcDbEntity
  8
0
  6
CONTINUOUS
 62
     7
100
AcDbLine
 10
146.120749
 20
72.150961
 30
0.0
 11
146.111721
 21
72.151592
 31
0.0
  0
LINE
  5
350
330
2BC
100
AcDbEntity
  8
0
  6
CONTINUOUS
 62
     7
100
AcDbLine
 10
146.111721
 20
72.151592
 30
0.0
 11
146.102952
 21
72.152214
 31
0.0
  0
LINE
  5
351
330
2BC
100
AcDbEntity
  8
0
  6
CONTINUOUS
 62
     7
100
AcDbLine
 10
146.102952
 20
72.152214
 30
0.0
 11
146.094439
 21
72.152825
 31
0.0
  0
LINE
  5
352
330
2BC
100
AcDbEntity
  8
0
  6
CONTINUOUS
 62
     7
100
AcDbLine
 10
146.094439
 20
72.152825
 30
0.0
 11
146.078167
 21
72.154011
 31
0.0
  0
LINE
  5
353
330
2BC
100
AcDbEntity
  8
0
  6
CONTINUOUS
 62
     7
100
AcDbLine
 10
146.078167
 20
72.154011
 30
0.0
 11
146.063534
 21
72.155098
 31
0.0
  0
LINE
  5
354
330
2BC
100
AcDbEntity
  8
0
  6
CONTINUOUS
 62
     7
100
AcDbLine
 10
146.063534
 20
72.155098
 30
0.0
 11
146.050077
 21
72.156113
 31
0.0
  0
LINE
  5
355
330
2BC
100
AcDbEntity
  8
0
  6
CONTINUOUS
 62
     7
100
AcDbLine
 10
146.050077
 20
72.156113
 30
0.0
 11
146.038064
 21
72.157032
 31
0.0
  0
LINE
  5
356
330
2BC
100
AcDbEntity
  8
0
  6
CONTINUOUS
 62
     7
100
AcDbLine
 10
146.038064
 20
72.157032
 30
0.0
 11
146.027766
 21
72.157829
 31
0.0
  0
LINE
  5
357
330
2BC
100
AcDbEntity
  8
0
  6
CONTINUOUS
 62
     7
100
AcDbLine
 10
146.027766
 20
72.157829
 30
0.0
 11
146.013388
 21
72.158961
 31
0.0
  0
LINE
  5
358
330
2BC
100
AcDbEntity
  8
0
  6
CONTINUOUS
 62
     7
100
AcDbLine
 10
146.013388
 20
72.158961
 30
0.0
 11
146.009094
 21
72.159308
 31
0.0
  0
LINE
  5
359
330
2BC
100
AcDbEntity
  8
0
  6
CONTINUOUS
 62
     7
100
AcDbLine
 10
146.009094
 20
72.159308
 30
0.0
 11
146.014575
 21
72.158875
 31
0.0
  0
ENDBLK
  5
2BE
330
2BC
100
AcDbEntity
  8
0
100
AcDbBlockEnd
  0
BLOCK
  5
35B
330
35A
100
AcDbEntity
  8
0
100
AcDbBlockBegin
  2
BLKF020
 70
     0
 71
     0
 10
0.0
 20
0.0
 30
0.0
  3
BLKF020
  1

  0
LINE
  5
35E
330
35A
100
AcDbEntity
  8
0
  6
CONTINUOUS
 62
     7
100
AcDbLine
 10
146.257615
 20
53.276676
 30
0.0
 11
146.235061
 21
53.275305
 31
0.0
  0
LINE
  5
35F
330
35A
100
AcDbEntity
  8
0
  6
CONTINUOUS
 62
     7
100
AcDbLine
 10
146.235061
 20
53.275305
 30
0.0
 11
146.212882
 21
53.273953
 31
0.0
  0
LINE
  5
360
330
35A
100
AcDbEntity
  8
0
  6
CONTINUOUS
 62
     7
100
AcDbLine
 10
146.212882
 20
53.273953
 30
0.0
 11
146.191451
 21
53.272638
 31
0.0
  0
LINE
  5
361
330
35A
100
AcDbEntity
  8
0
  6
CONTINUOUS
 62
     7
100
AcDbLine
 10
146.191451
 20
53.272638
 30
0.0
 11
146.171144
 21
53.271377
 31
0.0
  0
LINE
  5
362
330
35A
100
AcDbEntity
  8
0
  6
CONTINUOUS
 62
     7
100
AcDbLine
 10
146.171144
 20
53.271377
 30
0.0
 11
146.152334
 21
53.270191
 31
0.0
  0
LINE
  5
363
330
35A
100
AcDbEntity
  8
0
  6
CONTINUOUS
 62
     7
100
AcDbLine
 10
146.152334
 20
53.270191
 30
0.0
 11
146.135396
 21
53.269096
 31
0.0
  0
LINE
  5
364
330
35A
100
AcDbEntity
  8
0
  6
CONTINUOUS
 62
     7
100
AcDbLine
 10
146.135396
 20
53.269096
 30
0.0
 11
146.120705
 21
53.268112
 31
0.0
  0
LINE
  5
365
330
35A
100
AcDbEntity
  8
0
  6
CONTINUOUS
 62
     7
100
AcDbLine
 10
146.120705
 20
53.268112
 30
0.0
 11
146.114319
 21
53.267667
 31
0.0
  0
LINE
  5
366
330
35A
100
AcDbEntity
  8
0
  6
CONTINUOUS
 62
     7
100
AcDbLine
 10
146.114319
 20
53.267667
 30
0.0
 11
146.108635
 21
53.267257
 31
0.0
  0
LINE
  5
367
330
35A
100
AcDbEntity
  8
0
  6
CONTINUOUS
 62
     7
100
AcDbLine
 10
146.108635
 20
53.267257
 30
0.0
 11
146.103935
 21
53.266905
 31
0.0
  0
ENDBLK
  5
35C
330
35A
100
AcDbEntity
  8
0
100
AcDbBlockEnd
  0
BLOCK
  5
369
330
368
100
AcDbEntity
  8
0
100
AcDbBlockBegin
  2
BLKF021
 70
     0
 71
     0
 10
0.0
 20
0.0
 30
0.0
  3
BLKF021
  1

  0
LINE
  5
36C
330
368
100
AcDbEntity
  8
0
  6
CONTINUOUS
 62
     7
100
AcDbLine
 10
146.017322
 20
53.260424
 30
0.0
 11
146.017269
 21
53.26042
 31
0.0
  0
LINE
  5
36D
330
368
100
AcDbEntity
  8
0
  6
CONTINUOUS
 62
     7
100
AcDbLine
 10
146.017269
 20
53.26042
 30
0.0
 11
146.02794
 21
53.261259
 31
0.0
  0
LINE
  5
36E
330
368
100
AcDbEntity
  8
0
  6
CONTINUOUS
 62
     7
100
AcDbLine
 10
146.02794
 20
53.261259
 30
0.0
 11
146.046468
 21
53.262688
 31
0.0
  0
LINE
  5
36F
330
368
100
AcDbEntity
  8
0
  6
CONTINUOUS
 62
     7
100
AcDbLine
 10
146.046468
 20
53.262688
 30
0.0
 11
146.058229
 21
53.263579
 31
0.0
  0
LINE
  5
370
330
368
100
AcDbEntity
  8
0
  6
CONTINUOUS
 62
     7
100
AcDbLine
 10
146.058229
 20
53.263579
 30
0.0
 11
146.071416
 21
53.264564
 31
0.0
  0
LINE
  5
371
330
368
100
AcDbEntity
  8
0
  6
CONTINUOUS
 62
     7
100
AcDbLine
 10
146.071416
 20
53.264564
 30
0.0
 11
146.085848
 21
53.265624
 31
0.0
  0
LINE
  5
372
330
368
100
AcDbEntity
  8
0
  6
CONTINUOUS
 62
     7
100
AcDbLine
 10
146.085848
 20
53.265624
 30
0.0
 11
146.101346
 21
53.266741
 31
0.0
  0
LINE
  5
373
330
368
100
AcDbEntity
  8
0
  6
CONTINUOUS
 62
     7
100
AcDbLine
 10
146.101346
 20
53.266741
 30
0.0
 11
146.11801
 21
53.267917
 31
0.0
  0
LINE
  5
374
330
368
100
AcDbEntity
  8
0
  6
CONTINUOUS
 62
     7
100
AcDbLine
 10
146.11801
 20
53.267917
 30
0.0
 11
146.135591
 21
53.269128
 31
0.0
  0
LINE
  5
375
330
368
100
AcDbEntity
  8
0
  6
CONTINUOUS
 62
     7
100
AcDbLine
 10
146.135591
 20
53.269128
 30
0.0
 11
146.154093
 21
53.270369
 31
0.0
  0
LINE
  5
376
330
368
100
AcDbEntity
  8
0
  6
CONTINUOUS
 62
     7
100
AcDbLine
 10
146.154093
 20
53.270369
 30
0.0
 11
146.173521
 21
53.271635
 31
0.0
  0
LINE
  5
377
330
368
100
AcDbEntity
  8
0
  6
CONTINUOUS
 62
     7
100
AcDbLine
 10
146.173521
 20
53.271635
 30
0.0
 11
146.19388
 21
53.272921
 31
0.0
  0
LINE
  5
378
330
368
100
AcDbEntity
  8
0
  6
CONTINUOUS
 62
     7
100
AcDbLine
 10
146.19388
 20
53.272921
 30
0.0
 11
146.215172
 21
53.27422
 31
0.0
  0
LINE
  5
379
330
368
100
AcDbEntity
  8
0
  6
CONTINUOUS
 62
     7
100
AcDbLine
 10
146.215172
 20
53.27422
 30
0.0
 11
146.226171
 21
53.274874
 31
0.0
  0
LINE
  5
37A
330
368
100
AcDbEntity
  8
0
  6
CONTINUOUS
 62
     7
100
AcDbLine
 10
146.226171
 20
53.274874
 30
0.0
 11
146.237404
 21
53.275529
 31
0.0
  0
LINE
  5
37B
330
368
100
AcDbEntity
  8
0
  6
CONTINUOUS
 62
     7
100
AcDbLine
 10
146.237404
 20
53.275529
 30
0.0
 11
146.248873
 21
53.276185
 31
0.0
  0
LINE
  5
37C
330
368
100
AcDbEntity
  8
0
  6
CONTINUOUS
 62
     7
100
AcDbLine
 10
146.248873
 20
53.276185
 30
0.0
 11
146.260579
 21
53.276842
 31
0.0
  0
LINE
  5
37D
330
368
100
AcDbEntity
  8
0
  6
CONTINUOUS
 62
     7
100
AcDbLine
 10
146.260579
 20
53.276842
 30
0.0
 11
146.272964
 21
53.277522
 31
0.0
  0
LINE
  5
37E
330
368
100
AcDbEntity
  8
0
  6
CONTINUOUS
 62
     7
100
AcDbLine
 10
146.272964
 20
53.277522
 30
0.0
 11
146.285596
 21
53.278201
 31
0.0
  0
LINE
  5
37F
330
368
100
AcDbEntity
  8
0
  6
CONTINUOUS
 62
     7
100
AcDbLine
 10
146.285596
 20
53.278201
 30
0.0
 11
146.298468
 21
53.278876
 31
0.0
  0
LINE
  5
380
330
368
100
AcDbEntity
  8
0
  6
CONTINUOUS
 62
     7
100
AcDbLine
 10
146.298468
 20
53.278876
 30
0.0
 11
146.311571
 21
53.279548
 31
0.0
  0
LINE
  5
381
330
368
100
AcDbEntity
  8
0
  6
CONTINUOUS
 62
     7
100
AcDbLine
 10
146.311571
 20
53.279548
 30
0.0
 11
146.324898
 21
53.280215
 31
0.0
  0
LINE
  5
382
330
368
100
AcDbEntity
  8
0
  6
CONTINUOUS
 62
     7
100
AcDbLine
 10
146.324898
 20
53.280215
 30
0.0
 11
146.338442
 21
53.280875
 31
0.0
  0
LINE
  5
383
330
368
100
AcDbEntity
  8
0
  6
CONTINUOUS
 62
     7
100
AcDbLine
 10
146.338442
 20
53.280875
 30
0.0
 11
146.352195
 21
53.281528
 31
0.0
  0
LINE
  5
384
330
368
100
AcDbEntity
  8
0
  6
CONTINUOUS
 62
     7
100
AcDbLine
 10
146.352195
 20
53.281528
 30
0.0
 11
146.366149
 21
53.282172
 31
0.0
  0
LINE
  5
385
330
368
100
AcDbEntity
  8
0
  6
CONTINUOUS
 62
     7
100
AcDbLine
 10
146.366149
 20
53.282172
 30
0.0
 11
146.380296
 21
53.282806
 31
0.0
  0
LINE
  5
386
330
368
100
AcDbEntity
  8
0
  6
CONTINUOUS
 62
     7
100
AcDbLine
 10
146.380296
 20
53.282806
 30
0.0
 11
146.394629
 21
53.28343
 31
0.0
  0
LINE
  5
387
330
368
100
AcDbEntity
  8
0
  6
CONTINUOUS
 62
     7
100
AcDbLine
 10
146.394629
 20
53.28343
 30
0.0
 11
146.40914
 21
53.28404
 31
0.0
  0
LINE
  5
388
330
368
100
AcDbEntity
  8
0
  6
CONTINUOUS
 62
     7
100
AcDbLine
 10
146.40914
 20
53.28404
 30
0.0
 11
146.423822
 21
53.284638
 31
0.0
  0
LINE
  5
389
330
368
100
AcDbEntity
  8
0
  6
CONTINUOUS
 62
     7
100
AcDbLine
 10
146.423822
 20
53.284638
 30
0.0
 11
146.438667
 21
53.28522
 31
0.0
  0
LINE
  5
38A
330
368
100
AcDbEntity
  8
0
  6
CONTINUOUS
 62
     7
100
AcDbLine
 10
146.438667
 20
53.28522
 30
0.0
 11
146.453668
 21
53.285787
 31
0.0
  0
LINE
  5
38B
330
368
100
AcDbEntity
  8
0
  6
CONTINUOUS
 62
     7
100
AcDbLine
 10
146.453668
 20
53.285787
 30
0.0
 11
146.468816
 21
53.286337
 31
0.0
  0
LINE
  5
38C
330
368
100
AcDbEntity
  8
0
  6
CONTINUOUS
 62
     7
100
AcDbLine
 10
146.468816
 20
53.286337
 30
0.0
 11
146.484103
 21
53.286868
 31
0.0
  0
LINE
  5
38D
330
368
100
AcDbEntity
  8
0
  6
CONTINUOUS
 62
     7
100
AcDbLine
 10
146.484103
 20
53.286868
 30
0.0
 11
146.500131
 21
53.2874
 31
0.0
  0
LINE
  5
38E
330
368
100
AcDbEntity
  8
0
  6
CONTINUOUS
 62
     7
100
AcDbLine
 10
146.500131
 20
53.2874
 30
0.0
 11
146.516294
 21
53.287911
 31
0.0
  0
LINE
  5
38F
330
368
100
AcDbEntity
  8
0
  6
CONTINUOUS
 62
     7
100
AcDbLine
 10
146.516294
 20
53.287911
 30
0.0
 11
146.532587
 21
53.288399
 31
0.0
  0
LINE
  5
390
330
368
100
AcDbEntity
  8
0
  6
CONTINUOUS
 62
     7
100
AcDbLine
 10
146.532587
 20
53.288399
 30
0.0
 11
146.549002
 21
53.288864
 31
0.0
  0
LINE
  5
391
330
368
100
AcDbEntity
  8
0
  6
CONTINUOUS
 62
     7
100
AcDbLine
 10
146.549002
 20
53.288864
 30
0.0
 11
146.565532
 21
53.289306
 31
0.0
  0
LINE
  5
392
330
368
100
AcDbEntity
  8
0
  6
CONTINUOUS
 62
     7
100
AcDbLine
 10
146.565532
 20
53.289306
 30
0.0
 11
146.582172
 21
53.289725
 31
0.0
  0
LINE
  5
393
330
368
100
AcDbEntity
  8
0
  6
CONTINUOUS
 62
     7
100
AcDbLine
 10
146.582172
 20
53.289725
 30
0.0
 11
146.598913
 21
53.290118
 31
0.0
  0
LINE
  5
394
330
368
100
AcDbEntity
  8
0
  6
CONTINUOUS
 62
     7
100
AcDbLine
 10
146.598913
 20
53.290118
 30
0.0
 11
146.615749
 21
53.290487
 31
0.0
  0
LINE
  5
395
330
368
100
AcDbEntity
  8
0
  6
CONTINUOUS
 62
     7
100
AcDbLine
 10
146.615749
 20
53.290487
 30
0.0
 11
146.632674
 21
53.29083
 31
0.0
  0
LINE
  5
396
330
368
100
AcDbEntity
  8
0
  6
CONTINUOUS
 62
     7
100
AcDbLine
 10
146.632674
 20
53.29083
 30
0.0
 11
146.64968
 21
53.291147
 31
0.0
  0
LINE
  5
397
330
368
100
AcDbEntity
  8
0
  6
CONTINUOUS
 62
     7
100
AcDbLine
 10
146.64968
 20
53.291147
 30
0.0
 11
146.66676
 21
53.291437
 31
0.0
  0
LINE
  5
398
330
368
100
AcDbEntity
  8
0
  6
CONTINUOUS
 62
     7
100
AcDbLine
 10
146.66676
 20
53.291437
 30
0.0
 11
146.683909
 21
53.2917
 31
0.0
  0
LINE
  5
399
330
368
100
AcDbEntity
  8
0
  6
CONTINUOUS
 62
     7
100
AcDbLine
 10
146.683909
 20
53.2917
 30
0.0
 11
146.701118
 21
53.291935
 31
0.0
  0
LINE
  5
39A
330
368
100
AcDbEntity
  8
0
  6
CONTINUOUS
 62
     7
100
AcDbLine
 10
146.701118
 20
53.291935
 30
0.0
 11
146.718381
 21
53.292142
 31
0.0
  0
LINE
  5
39B
330
368
100
AcDbEntity
  8
0
  6
CONTINUOUS
 62
     7
100
AcDbLine
 10
146.718381
 20
53.292142
 30
0.0
 11
146.735691
 21
53.292319
 31
0.0
  0
LINE
  5
39C
330
368
100
AcDbEntity
  8
0
  6
CONTINUOUS
 62
     7
100
AcDbLine
 10
146.735691
 20
53.292319
 30
0.0
 11
146.753042
 21
53.292467
 31
0.0
  0
LINE
  5
39D
330
368
100
AcDbEntity
  8
0
  6
CONTINUOUS
 62
     7
100
AcDbLine
 10
146.753042
 20
53.292467
 30
0.0
 11
146.770875
 21
53.292587
 31
0.0
  0
LINE
  5
39E
330
368
100
AcDbEntity
  8
0
  6
CONTINUOUS
 62
     7
100
AcDbLine
 10
146.770875
 20
53.292587
 30
0.0
 11
146.788735
 21
53.292675
 31
0.0
  0
LINE
  5
39F
330
368
100
AcDbEntity
  8
0
  6
CONTINUOUS
 62
     7
100
AcDbLine
 10
146.788735
 20
53.292675
 30
0.0
 11
146.806615
 21
53.292732
 31
0.0
  0
LINE
  5
3A0
330
368
100
AcDbEntity
  8
0
  6
CONTINUOUS
 62
     7
100
AcDbLine
 10
146.806615
 20
53.292732
 30
0.0
 11
146.824507
 21
53.292758
 31
0.0
  0
LINE
  5
3A1
330
368
100
AcDbEntity
  8
0
  6
CONTINUOUS
 62
     7
100
AcDbLine
 10
146.824507
 20
53.292758
 30
0.0
 11
146.842404
 21
53.292753
 31
0.0
  0
LINE
  5
3A2
330
368
100
AcDbEntity
  8
0
  6
CONTINUOUS
 62
     7
100
AcDbLine
 10
146.842404
 20
53.292753
 30
0.0
 11
146.860297
 21
53.292716
 31
0.0
  0
LINE
  5
3A3
330
368
100
AcDbEntity
  8
0
  6
CONTINUOUS
 62
     7
100
AcDbLine
 10
146.860297
 20
53.292716
 30
0.0
 11
146.878179
 21
53.292649
 31
0.0
  0
LINE
  5
3A4
330
368
100
AcDbEntity
  8
0
  6
CONTINUOUS
 62
     7
100
AcDbLine
 10
146.878179
 20
53.292649
 30
0.0
 11
146.896043
 21
53.292551
 31
0.0
  0
LINE
  5
3A5
330
368
100
AcDbEntity
  8
0
  6
CONTINUOUS
 62
     7
100
AcDbLine
 10
146.896043
 20
53.292551
 30
0.0
 11
146.91388
 21
53.292423
 31
0.0
  0
LINE
  5
3A6
330
368
100
AcDbEntity
  8
0
  6
CONTINUOUS
 62
     7
100
AcDbLine
 10
146.91388
 20
53.292423
 30
0.0
 11
146.931682
 21
53.292264
 31
0.0
  0
LINE
  5
3A7
330
368
100
AcDbEntity
  8
0
  6
CONTINUOUS
 62
     7
100
AcDbLine
 10
146.931682
 20
53.292264
 30
0.0
 11
146.949443
 21
53.292076
 31
0.0
  0
LINE
  5
3A8
330
368
100
AcDbEntity
  8
0
  6
CONTINUOUS
 62
     7
100
AcDbLine
 10
146.949443
 20
53.292076
 30
0.0
 11
146.967154
 21
53.291857
 31
0.0
  0
LINE
  5
3A9
330
368
100
AcDbEntity
  8
0
  6
CONTINUOUS
 62
     7
100
AcDbLine
 10
146.967154
 20
53.291857
 30
0.0
 11
146.984808
 21
53.291608
 31
0.0
  0
LINE
  5
3AA
330
368
100
AcDbEntity
  8
0
  6
CONTINUOUS
 62
     7
100
AcDbLine
 10
146.984808
 20
53.291608
 30
0.0
 11
147.002397
 21
53.29133
 31
0.0
  0
LINE
  5
3AB
330
368
100
AcDbEntity
  8
0
  6
CONTINUOUS
 62
     7
100
AcDbLine
 10
147.002397
 20
53.29133
 30
0.0
 11
147.019913
 21
53.291023
 31
0.0
  0
LINE
  5
3AC
330
368
100
AcDbEntity
  8
0
  6
CONTINUOUS
 62
     7
100
AcDbLine
 10
147.019913
 20
53.291023
 30
0.0
 11
147.037348
 21
53.290686
 31
0.0
  0
LINE
  5
3AD
330
368
100
AcDbEntity
  8
0
  6
CONTINUOUS
 62
     7
100
AcDbLine
 10
147.037348
 20
53.290686
 30
0.0
 11
147.054802
 21
53.290318
 31
0.0
  0
LINE
  5
3AE
330
368
100
AcDbEntity
  8
0
  6
CONTINUOUS
 62
     7
100
AcDbLine
 10
147.054802
 20
53.290318
 30
0.0
 11
147.072158
 21
53.289921
 31
0.0
  0
LINE
  5
3AF
330
368
100
AcDbEntity
  8
0
  6
CONTINUOUS
 62
     7
100
AcDbLine
 10
147.072158
 20
53.289921
 30
0.0
 11
147.089407
 21
53.289498
 31
0.0
  0
LINE
  5
3B0
330
368
100
AcDbEntity
  8
0
  6
CONTINUOUS
 62
     7
100
AcDbLine
 10
147.089407
 20
53.289498
 30
0.0
 11
147.10654
 21
53.289048
 31
0.0
  0
LINE
  5
3B1
330
368
100
AcDbEntity
  8
0
  6
CONTINUOUS
 62
     7
100
AcDbLine
 10
147.10654
 20
53.289048
 30
0.0
 11
147.123549
 21
53.288573
 31
0.0
  0
LINE
  5
3B2
330
368
100
AcDbEntity
  8
0
  6
CONTINUOUS
 62
     7
100
AcDbLine
 10
147.123549
 20
53.288573
 30
0.0
 11
147.140425
 21
53.288074
 31
0.0
  0
LINE
  5
3B3
330
368
100
AcDbEntity
  8
0
  6
CONTINUOUS
 62
     7
100
AcDbLine
 10
147.140425
 20
53.288074
 30
0.0
 11
147.15716
 21
53.287553
 31
0.0
  0
LINE
  5
3B4
330
368
100
AcDbEntity
  8
0
  6
CONTINUOUS
 62
     7
100
AcDbLine
 10
147.15716
 20
53.287553
 30
0.0
 11
147.173744
 21
53.287009
 31
0.0
  0
LINE
  5
3B5
330
368
100
AcDbEntity
  8
0
  6
CONTINUOUS
 62
     7
100
AcDbLine
 10
147.173744
 20
53.287009
 30
0.0
 11
147.190168
 21
53.286446
 31
0.0
  0
LINE
  5
3B6
330
368
100
AcDbEntity
  8
0
  6
CONTINUOUS
 62
     7
100
AcDbLine
 10
147.190168
 20
53.286446
 30
0.0
 11
147.206425
 21
53.285862
 31
0.0
  0
LINE
  5
3B7
330
368
100
AcDbEntity
  8
0
  6
CONTINUOUS
 62
     7
100
AcDbLine
 10
147.206425
 20
53.285862
 30
0.0
 11
147.222504
 21
53.285261
 31
0.0
  0
LINE
  5
3B8
330
368
100
AcDbEntity
  8
0
  6
CONTINUOUS
 62
     7
100
AcDbLine
 10
147.222504
 20
53.285261
 30
0.0
 11
147.238399
 21
53.284642
 31
0.0
  0
LINE
  5
3B9
330
368
100
AcDbEntity
  8
0
  6
CONTINUOUS
 62
     7
100
AcDbLine
 10
147.238399
 20
53.284642
 30
0.0
 11
147.254099
 21
53.284007
 31
0.0
  0
LINE
  5
3BA
330
368
100
AcDbEntity
  8
0
  6
CONTINUOUS
 62
     7
100
AcDbLine
 10
147.254099
 20
53.284007
 30
0.0
 11
147.269596
 21
53.283357
 31
0.0
  0
LINE
  5
3BB
330
368
100
AcDbEntity
  8
0
  6
CONTINUOUS
 62
     7
100
AcDbLine
 10
147.269596
 20
53.283357
 30
0.0
 11
147.284881
 21
53.282694
 31
0.0
  0
LINE
  5
3BC
330
368
100
AcDbEntity
  8
0
  6
CONTINUOUS
 62
     7
100
AcDbLine
 10
147.284881
 20
53.282694
 30
0.0
 11
147.299946
 21
53.282017
 31
0.0
  0
LINE
  5
3BD
330
368
100
AcDbEntity
  8
0
  6
CONTINUOUS
 62
     7
100
AcDbLine
 10
147.299946
 20
53.282017
 30
0.0
 11
147.314566
 21
53.281339
 31
0.0
  0
LINE
  5
3BE
330
368
100
AcDbEntity
  8
0
  6
CONTINUOUS
 62
     7
100
AcDbLine
 10
147.314566
 20
53.281339
 30
0.0
 11
147.328959
 21
53.280651
 31
0.0
  0
LINE
  5
3BF
330
368
100
AcDbEntity
  8
0
  6
CONTINUOUS
 62
     7
100
AcDbLine
 10
147.328959
 20
53.280651
 30
0.0
 11
147.343123
 21
53.279954
 31
0.0
  0
LINE
  5
3C0
330
368
100
AcDbEntity
  8
0
  6
CONTINUOUS
 62
     7
100
AcDbLine
 10
147.343123
 20
53.279954
 30
0.0
 11
147.357053
 21
53.279249
 31
0.0
  0
LINE
  5
3C1
330
368
100
AcDbEntity
  8
0
  6
CONTINUOUS
 62
     7
100
AcDbLine
 10
147.357053
 20
53.279249
 30
0.0
 11
147.370748
 21
53.278538
 31
0.0
  0
LINE
  5
3C2
330
368
100
AcDbEntity
  8
0
  6
CONTINUOUS
 62
     7
100
AcDbLine
 10
147.370748
 20
53.278538
 30
0.0
 11
147.384202
 21
53.27782
 31
0.0
  0
LINE
  5
3C3
330
368
100
AcDbEntity
  8
0
  6
CONTINUOUS
 62
     7
100
AcDbLine
 10
147.384202
 20
53.27782
 30
0.0
 11
147.397413
 21
53.277099
 31
0.0
  0
LINE
  5
3C4
330
368
100
AcDbEntity
  8
0
  6
CONTINUOUS
 62
     7
100
AcDbLine
 10
147.397413
 20
53.277099
 30
0.0
 11
147.410377
 21
53.276374
 31
0.0
  0
LINE
  5
3C5
330
368
100
AcDbEntity
  8
0
  6
CONTINUOUS
 62
     7
100
AcDbLine
 10
147.410377
 20
53.276374
 30
0.0
 11
147.423091
 21
53.275647
 31
0.0
  0
LINE
  5
3C6
330
368
100
AcDbEntity
  8
0
  6
CONTINUOUS
 62
     7
100
AcDbLine
 10
147.423091
 20
53.275647
 30
0.0
 11
147.435551
 21
53.274919
 31
0.0
  0
LINE
  5
3C7
330
368
100
AcDbEntity
  8
0
  6
CONTINUOUS
 62
     7
100
AcDbLine
 10
147.435551
 20
53.274919
 30
0.0
 11
147.447753
 21
53.274191
 31
0.0
  0
LINE
  5
3C8
330
368
100
AcDbEntity
  8
0
  6
CONTINUOUS
 62
     7
100
AcDbLine
 10
147.447753
 20
53.274191
 30
0.0
 11
147.459695
 21
53.273464
 31
0.0
  0
LINE
  5
3C9
330
368
100
AcDbEntity
  8
0
  6
CONTINUOUS
 62
     7
100
AcDbLine
 10
147.459695
 20
53.273464
 30
0.0
 11
147.471372
 21
53.27274
 31
0.0
  0
LINE
  5
3CA
330
368
100
AcDbEntity
  8
0
  6
CONTINUOUS
 62
     7
100
AcDbLine
 10
147.471372
 20
53.27274
 30
0.0
 11
147.482781
 21
53.27202
 31
0.0
  0
LINE
  5
3CB
330
368
100
AcDbEntity
  8
0
  6
CONTINUOUS
 62
     7
100
AcDbLine
 10
147.482781
 20
53.27202
 30
0.0
 11
147.493919
 21
53.271304
 31
0.0
  0
LINE
  5
3CC
330
368
100
AcDbEntity
  8
0
  6
CONTINUOUS
 62
     7
100
AcDbLine
 10
147.493919
 20
53.271304
 30
0.0
 11
147.504782
 21
53.270595
 31
0.0
  0
LINE
  5
3CD
330
368
100
AcDbEntity
  8
0
  6
CONTINUOUS
 62
     7
100
AcDbLine
 10
147.504782
 20
53.270595
 30
0.0
 11
147.524955
 21
53.269246
 31
0.0
  0
LINE
  5
3CE
330
368
100
AcDbEntity
  8
0
  6
CONTINUOUS
 62
     7
100
AcDbLine
 10
147.524955
 20
53.269246
 30
0.0
 11
147.543957
 21
53.26794
 31
0.0
  0
LINE
  5
3CF
330
368
100
AcDbEntity
  8
0
  6
CONTINUOUS
 62
     7
100
AcDbLine
 10
147.543957
 20
53.26794
 30
0.0
 11
147.561654
 21
53.266694
 31
0.0
  0
LINE
  5
3D0
330
368
100
AcDbEntity
  8
0
  6
CONTINUOUS
 62
     7
100
AcDbLine
 10
147.561654
 20
53.266694
 30
0.0
 11
147.577914
 21
53.265523
 31
0.0
  0
LINE
  5
3D1
330
368
100
AcDbEntity
  8
0
  6
CONTINUOUS
 62
     7
100
AcDbLine
 10
147.577914
 20
53.265523
 30
0.0
 11
147.592603
 21
53.264444
 31
0.0
  0
LINE
  5
3D2
330
368
100
AcDbEntity
  8
0
  6
CONTINUOUS
 62
     7
100
AcDbLine
 10
147.592603
 20
53.264444
 30
0.0
 11
147.605588
 21
53.263475
 31
0.0
  0
LINE
  5
3D3
330
368
100
AcDbEntity
  8
0
  6
CONTINUOUS
 62
     7
100
AcDbLine
 10
147.605588
 20
53.263475
 30
0.0
 11
147.625916
 21
53.261928
 31
0.0
  0
LINE
  5
3D4
330
368
100
AcDbEntity
  8
0
  6
CONTINUOUS
 62
     7
100
AcDbLine
 10
147.625916
 20
53.261928
 30
0.0
 11
147.642851
 21
53.260612
 31
0.0
  0
LINE
  5
3D5
330
368
100
AcDbEntity
  8
0
  6
CONTINUOUS
 62
     7
100
AcDbLine
 10
147.642851
 20
53.260612
 30
0.0
 11
147.649466
 21
53.260073
 31
0.0
  0
ENDBLK
  5
36A
330
368
100
AcDbEntity
  8
0
100
AcDbBlockEnd
  0
BLOCK
  5
3DA
330
3D9
100
AcDbEntity
  8
0
100
AcDbBlockBegin
  2
BLKF022
 70
     0
 71
     0
 10
0.0
 20
0.0
 30
0.0
  3
BLKF022
  1

  0
LINE
  5
3DD
330
3D9
100
AcDbEntity
  8
0
  6
CONTINUOUS
 62
     7
100
AcDbLine
 10
146.257615
 20
72.142401
 30
0.0
 11
146.280329
 21
72.14104
 31
0.0
  0
LINE
  5
3DE
330
3D9
100
AcDbEntity
  8
0
  6
CONTINUOUS
 62
     7
100
AcDbLine
 10
146.280329
 20
72.14104
 30
0.0
 11
146.303224
 21
72.1397
 31
0.0
  0
LINE
  5
3DF
330
3D9
100
AcDbEntity
  8
0
  6
CONTINUOUS
 62
     7
100
AcDbLine
 10
146.303224
 20
72.1397
 30
0.0
 11
146.314796
 21
72.139044
 31
0.0
  0
LINE
  5
3E0
330
3D9
100
AcDbEntity
  8
0
  6
CONTINUOUS
 62
     7
100
AcDbLine
 10
146.314796
 20
72.139044
 30
0.0
 11
146.326481
 21
72.138401
 31
0.0
  0
LINE
  5
3E1
330
3D9
100
AcDbEntity
  8
0
  6
CONTINUOUS
 62
     7
100
AcDbLine
 10
146.326481
 20
72.138401
 30
0.0
 11
146.338301
 21
72.137773
 31
0.0
  0
LINE
  5
3E2
330
3D9
100
AcDbEntity
  8
0
  6
CONTINUOUS
 62
     7
100
AcDbLine
 10
146.338301
 20
72.137773
 30
0.0
 11
146.35028
 21
72.137164
 31
0.0
  0
LINE
  5
3E3
330
3D9
100
AcDbEntity
  8
0
  6
CONTINUOUS
 62
     7
100
AcDbLine
 10
146.35028
 20
72.137164
 30
0.0
 11
146.362439
 21
72.136576
 31
0.0
  0
LINE
  5
3E4
330
3D9
100
AcDbEntity
  8
0
  6
CONTINUOUS
 62
     7
100
AcDbLine
 10
146.362439
 20
72.136576
 30
0.0
 11
146.374802
 21
72.136011
 31
0.0
  0
LINE
  5
3E5
330
3D9
100
AcDbEntity
  8
0
  6
CONTINUOUS
 62
     7
100
AcDbLine
 10
146.374802
 20
72.136011
 30
0.0
 11
146.387391
 21
72.135472
 31
0.0
  0
LINE
  5
3E6
330
3D9
100
AcDbEntity
  8
0
  6
CONTINUOUS
 62
     7
100
AcDbLine
 10
146.387391
 20
72.135472
 30
0.0
 11
146.400229
 21
72.134961
 31
0.0
  0
LINE
  5
3E7
330
3D9
100
AcDbEntity
  8
0
  6
CONTINUOUS
 62
     7
100
AcDbLine
 10
146.400229
 20
72.134961
 30
0.0
 11
146.413338
 21
72.134482
 31
0.0
  0
LINE
  5
3E8
330
3D9
100
AcDbEntity
  8
0
  6
CONTINUOUS
 62
     7
100
AcDbLine
 10
146.413338
 20
72.134482
 30
0.0
 11
146.426741
 21
72.134036
 31
0.0
  0
LINE
  5
3E9
330
3D9
100
AcDbEntity
  8
0
  6
CONTINUOUS
 62
     7
100
AcDbLine
 10
146.426741
 20
72.134036
 30
0.0
 11
146.44046
 21
72.133627
 31
0.0
  0
LINE
  5
3EA
330
3D9
100
AcDbEntity
  8
0
  6
CONTINUOUS
 62
     7
100
AcDbLine
 10
146.44046
 20
72.133627
 30
0.0
 11
146.454519
 21
72.133256
 31
0.0
  0
LINE
  5
3EB
330
3D9
100
AcDbEntity
  8
0
  6
CONTINUOUS
 62
     7
100
AcDbLine
 10
146.454519
 20
72.133256
 30
0.0
 11
146.462696
 21
72.133061
 31
0.0
  0
ENDBLK
  5
3DB
330
3D9
100
AcDbEntity
  8
0
100
AcDbBlockEnd
  0
BLOCK
  5
3ED
330
3EC
100
AcDbEntity
  8
0
100
AcDbBlockBegin
  2
BLKF023
 70
     0
 71
     0
 10
0.0
 20
0.0
 30
0.0
  3
BLKF023
  1

  0
LINE
  5
3F0
330
3EC
100
AcDbEntity
  8
0
  6
CONTINUOUS
 62
     7
100
AcDbLine
 10
147.653419
 20
72.159319
 30
0.0
 11
147.656031
 21
72.159523
 31
0.0
  0
LINE
  5
3F1
330
3EC
100
AcDbEntity
  8
0
  6
CONTINUOUS
 62
     7
100
AcDbLine
 10
147.656031
 20
72.159523
 30
0.0
 11
147.657858
 21
72.159657
 31
0.0
  0
LINE
  5
3F2
330
3EC
100
AcDbEntity
  8
0
  6
CONTINUOUS
 62
     7
100
AcDbLine
 10
147.657858
 20
72.159657
 30
0.0
 11
147.648529
 21
72.158913
 31
0.0
  0
LINE
  5
3F3
330
3EC
100
AcDbEntity
  8
0
  6
CONTINUOUS
 62
     7
100
AcDbLine
 10
147.648529
 20
72.158913
 30
0.0
 11
147.63084
 21
72.15753
 31
0.0
  0
LINE
  5
3F4
330
3EC
100
AcDbEntity
  8
0
  6
CONTINUOUS
 62
     7
100
AcDbLine
 10
147.63084
 20
72.15753
 30
0.0
 11
147.619736
 21
72.156674
 31
0.0
  0
LINE
  5
3F5
330
3EC
100
AcDbEntity
  8
0
  6
CONTINUOUS
 62
     7
100
AcDbLine
 10
147.619736
 20
72.156674
 30
0.0
 11
147.607591
 21
72.155747
 31
0.0
  0
LINE
  5
3F6
330
3EC
100
AcDbEntity
  8
0
  6
CONTINUOUS
 62
     7
100
AcDbLine
 10
147.607591
 20
72.155747
 30
0.0
 11
147.594675
 21
72.154774
 31
0.0
  0
LINE
  5
3F7
330
3EC
100
AcDbEntity
  8
0
  6
CONTINUOUS
 62
     7
100
AcDbLine
 10
147.594675
 20
72.154774
 30
0.0
 11
147.58101
 21
72.153762
 31
0.0
  0
LINE
  5
3F8
330
3EC
100
AcDbEntity
  8
0
  6
CONTINUOUS
 62
     7
100
AcDbLine
 10
147.58101
 20
72.153762
 30
0.0
 11
147.566538
 21
72.15271
 31
0.0
  0
LINE
  5
3F9
330
3EC
100
AcDbEntity
  8
0
  6
CONTINUOUS
 62
     7
100
AcDbLine
 10
147.566538
 20
72.15271
 30
0.0
 11
147.551202
 21
72.15162
 31
0.0
  0
LINE
  5
3FA
330
3EC
100
AcDbEntity
  8
0
  6
CONTINUOUS
 62
     7
100
AcDbLine
 10
147.551202
 20
72.15162
 30
0.0
 11
147.543192
 21
72.151061
 31
0.0
  0
LINE
  5
3FB
330
3EC
100
AcDbEntity
  8
0
  6
CONTINUOUS
 62
     7
100
AcDbLine
 10
147.543192
 20
72.151061
 30
0.0
 11
147.534945
 21
72.150493
 31
0.0
  0
LINE
  5
3FC
330
3EC
100
AcDbEntity
  8
0
  6
CONTINUOUS
 62
     7
100
AcDbLine
 10
147.534945
 20
72.150493
 30
0.0
 11
147.526453
 21
72.149915
 31
0.0
  0
LINE
  5
3FD
330
3EC
100
AcDbEntity
  8
0
  6
CONTINUOUS
 62
     7
100
AcDbLine
 10
147.526453
 20
72.149915
 30
0.0
 11
147.51771
 21
72.149328
 31
0.0
  0
LINE
  5
3FE
330
3EC
100
AcDbEntity
  8
0
  6
CONTINUOUS
 62
     7
100
AcDbLine
 10
147.51771
 20
72.149328
 30
0.0
 11
147.508707
 21
72.148732
 31
0.0
  0
LINE
  5
3FF
330
3EC
100
AcDbEntity
  8
0
  6
CONTINUOUS
 62
     7
100
AcDbLine
 10
147.508707
 20
72.148732
 30
0.0
 11
147.499439
 21
72.148126
 31
0.0
  0
LINE
  5
400
330
3EC
100
AcDbEntity
  8
0
  6
CONTINUOUS
 62
     7
100
AcDbLine
 10
147.499439
 20
72.148126
 30
0.0
 11
147.489897
 21
72.147512
 31
0.0
  0
LINE
  5
401
330
3EC
100
AcDbEntity
  8
0
  6
CONTINUOUS
 62
     7
100
AcDbLine
 10
147.489897
 20
72.147512
 30
0.0
 11
147.480075
 21
72.146889
 31
0.0
  0
LINE
  5
402
330
3EC
100
AcDbEntity
  8
0
  6
CONTINUOUS
 62
     7
100
AcDbLine
 10
147.480075
 20
72.146889
 30
0.0
 11
147.469667
 21
72.146239
 31
0.0
  0
LINE
  5
403
330
3EC
100
AcDbEntity
  8
0
  6
CONTINUOUS
 62
     7
100
AcDbLine
 10
147.469667
 20
72.146239
 30
0.0
 11
147.458962
 21
72.14558
 31
0.0
  0
LINE
  5
404
330
3EC
100
AcDbEntity
  8
0
  6
CONTINUOUS
 62
     7
100
AcDbLine
 10
147.458962
 20
72.14558
 30
0.0
 11
147.447971
 21
72.144916
 31
0.0
  0
LINE
  5
405
330
3EC
100
AcDbEntity
  8
0
  6
CONTINUOUS
 62
     7
100
AcDbLine
 10
147.447971
 20
72.144916
 30
0.0
 11
147.436701
 21
72.144245
 31
0.0
  0
LINE
  5
406
330
3EC
100
AcDbEntity
  8
0
  6
CONTINUOUS
 62
     7
100
AcDbLine
 10
147.436701
 20
72.144245
 30
0.0
 11
147.425162
 21
72.143571
 31
0.0
  0
LINE
  5
407
330
3EC
100
AcDbEntity
  8
0
  6
CONTINUOUS
 62
     7
100
AcDbLine
 10
147.425162
 20
72.143571
 30
0.0
 11
147.413361
 21
72.142895
 31
0.0
  0
LINE
  5
408
330
3EC
100
AcDbEntity
  8
0
  6
CONTINUOUS
 62
     7
100
AcDbLine
 10
147.413361
 20
72.142895
 30
0.0
 11
147.401308
 21
72.142217
 31
0.0
  0
LINE
  5
409
330
3EC
100
AcDbEntity
  8
0
  6
CONTINUOUS
 62
     7
100
AcDbLine
 10
147.401308
 20
72.142217
 30
0.0
 11
147.389012
 21
72.14154
 31
0.0
  0
LINE
  5
40A
330
3EC
100
AcDbEntity
  8
0
  6
CONTINUOUS
 62
     7
100
AcDbLine
 10
147.389012
 20
72.14154
 30
0.0
 11
147.376481
 21
72.140864
 31
0.0
  0
LINE
  5
40B
330
3EC
100
AcDbEntity
  8
0
  6
CONTINUOUS
 62
     7
100
AcDbLine
 10
147.376481
 20
72.140864
 30
0.0
 11
147.363724
 21
72.140192
 31
0.0
  0
LINE
  5
40C
330
3EC
100
AcDbEntity
  8
0
  6
CONTINUOUS
 62
     7
100
AcDbLine
 10
147.363724
 20
72.140192
 30
0.0
 11
147.35075
 21
72.139523
 31
0.0
  0
LINE
  5
40D
330
3EC
100
AcDbEntity
  8
0
  6
CONTINUOUS
 62
     7
100
AcDbLine
 10
147.35075
 20
72.139523
 30
0.0
 11
147.337567
 21
72.138861
 31
0.0
  0
LINE
  5
40E
330
3EC
100
AcDbEntity
  8
0
  6
CONTINUOUS
 62
     7
100
AcDbLine
 10
147.337567
 20
72.138861
 30
0.0
 11
147.324185
 21
72.138205
 31
0.0
  0
LINE
  5
40F
330
3EC
100
AcDbEntity
  8
0
  6
CONTINUOUS
 62
     7
100
AcDbLine
 10
147.324185
 20
72.138205
 30
0.0
 11
147.310611
 21
72.137558
 31
0.0
  0
LINE
  5
410
330
3EC
100
AcDbEntity
  8
0
  6
CONTINUOUS
 62
     7
100
AcDbLine
 10
147.310611
 20
72.137558
 30
0.0
 11
147.296856
 21
72.136921
 31
0.0
  0
LINE
  5
411
330
3EC
100
AcDbEntity
  8
0
  6
CONTINUOUS
 62
     7
100
AcDbLine
 10
147.296856
 20
72.136921
 30
0.0
 11
147.282926
 21
72.136294
 31
0.0
  0
LINE
  5
412
330
3EC
100
AcDbEntity
  8
0
  6
CONTINUOUS
 62
     7
100
AcDbLine
 10
147.282926
 20
72.136294
 30
0.0
 11
147.268256
 21
72.135656
 31
0.0
  0
LINE
  5
413
330
3EC
100
AcDbEntity
  8
0
  6
CONTINUOUS
 62
     7
100
AcDbLine
 10
147.268256
 20
72.135656
 30
0.0
 11
147.253414
 21
72.135032
 31
0.0
  0
LINE
  5
414
330
3EC
100
AcDbEntity
  8
0
  6
CONTINUOUS
 62
     7
100
AcDbLine
 10
147.253414
 20
72.135032
 30
0.0
 11
147.238405
 21
72.134424
 31
0.0
  0
LINE
  5
415
330
3EC
100
AcDbEntity
  8
0
  6
CONTINUOUS
 62
     7
100
AcDbLine
 10
147.238405
 20
72.134424
 30
0.0
 11
147.223235
 21
72.133831
 31
0.0
  0
LINE
  5
416
330
3EC
100
AcDbEntity
  8
0
  6
CONTINUOUS
 62
     7
100
AcDbLine
 10
147.223235
 20
72.133831
 30
0.0
 11
147.20791
 21
72.133255
 31
0.0
  0
LINE
  5
417
330
3EC
100
AcDbEntity
  8
0
  6
CONTINUOUS
 62
     7
100
AcDbLine
 10
147.20791
 20
72.133255
 30
0.0
 11
147.192435
 21
72.132697
 31
0.0
  0
LINE
  5
418
330
3EC
100
AcDbEntity
  8
0
  6
CONTINUOUS
 62
     7
100
AcDbLine
 10
147.192435
 20
72.132697
 30
0.0
 11
147.176818
 21
72.132157
 31
0.0
  0
LINE
  5
419
330
3EC
100
AcDbEntity
  8
0
  6
CONTINUOUS
 62
     7
100
AcDbLine
 10
147.176818
 20
72.132157
 30
0.0
 11
147.161062
 21
72.131636
 31
0.0
  0
LINE
  5
41A
330
3EC
100
AcDbEntity
  8
0
  6
CONTINUOUS
 62
     7
100
AcDbLine
 10
147.161062
 20
72.131636
 30
0.0
 11
147.145175
 21
72.131136
 31
0.0
  0
LINE
  5
41B
330
3EC
100
AcDbEntity
  8
0
  6
CONTINUOUS
 62
     7
100
AcDbLine
 10
147.145175
 20
72.131136
 30
0.0
 11
147.129163
 21
72.130656
 31
0.0
  0
LINE
  5
41C
330
3EC
100
AcDbEntity
  8
0
  6
CONTINUOUS
 62
     7
100
AcDbLine
 10
147.129163
 20
72.130656
 30
0.0
 11
147.11303
 21
72.130198
 31
0.0
  0
LINE
  5
41D
330
3EC
100
AcDbEntity
  8
0
  6
CONTINUOUS
 62
     7
100
AcDbLine
 10
147.11303
 20
72.130198
 30
0.0
 11
147.096783
 21
72.129763
 31
0.0
  0
LINE
  5
41E
330
3EC
100
AcDbEntity
  8
0
  6
CONTINUOUS
 62
     7
100
AcDbLine
 10
147.096783
 20
72.129763
 30
0.0
 11
147.080428
 21
72.12935
 31
0.0
  0
LINE
  5
41F
330
3EC
100
AcDbEntity
  8
0
  6
CONTINUOUS
 62
     7
100
AcDbLine
 10
147.080428
 20
72.12935
 30
0.0
 11
147.06397
 21
72.128962
 31
0.0
  0
LINE
  5
420
330
3EC
100
AcDbEntity
  8
0
  6
CONTINUOUS
 62
     7
100
AcDbLine
 10
147.06397
 20
72.128962
 30
0.0
 11
147.055704
 21
72.128777
 31
0.0
  0
LINE
  5
421
330
3EC
100
AcDbEntity
  8
0
  6
CONTINUOUS
 62
     7
100
AcDbLine
 10
147.055704
 20
72.128777
 30
0.0
 11
147.047415
 21
72.128599
 31
0.0
  0
LINE
  5
422
330
3EC
100
AcDbEntity
  8
0
  6
CONTINUOUS
 62
     7
100
AcDbLine
 10
147.047415
 20
72.128599
 30
0.0
 11
147.039104
 21
72.128426
 31
0.0
  0
LINE
  5
423
330
3EC
100
AcDbEntity
  8
0
  6
CONTINUOUS
 62
     7
100
AcDbLine
 10
147.039104
 20
72.128426
 30
0.0
 11
147.03077
 21
72.128261
 31
0.0
  0
LINE
  5
424
330
3EC
100
AcDbEntity
  8
0
  6
CONTINUOUS
 62
     7
100
AcDbLine
 10
147.03077
 20
72.128261
 30
0.0
 11
147.02214
 21
72.128097
 31
0.0
  0
LINE
  5
425
330
3EC
100
AcDbEntity
  8
0
  6
CONTINUOUS
 62
     7
100
AcDbLine
 10
147.02214
 20
72.128097
 30
0.0
 11
147.013488
 21
72.12794
 31
0.0
  0
LINE
  5
426
330
3EC
100
AcDbEntity
  8
0
  6
CONTINUOUS
 62
     7
100
AcDbLine
 10
147.013488
 20
72.12794
 30
0.0
 11
147.004815
 21
72.12779
 31
0.0
  0
LINE
  5
427
330
3EC
100
AcDbEntity
  8
0
  6
CONTINUOUS
 62
     7
100
AcDbLine
 10
147.004815
 20
72.12779
 30
0.0
 11
146.996123
 21
72.127647
 31
0.0
  0
LINE
  5
428
330
3EC
100
AcDbEntity
  8
0
  6
CONTINUOUS
 62
     7
100
AcDbLine
 10
146.996123
 20
72.127647
 30
0.0
 11
146.987412
 21
72.127511
 31
0.0
  0
LINE
  5
429
330
3EC
100
AcDbEntity
  8
0
  6
CONTINUOUS
 62
     7
100
AcDbLine
 10
146.987412
 20
72.127511
 30
0.0
 11
146.978684
 21
72.127383
 31
0.0
  0
LINE
  5
42A
330
3EC
100
AcDbEntity
  8
0
  6
CONTINUOUS
 62
     7
100
AcDbLine
 10
146.978684
 20
72.127383
 30
0.0
 11
146.969939
 21
72.127262
 31
0.0
  0
LINE
  5
42B
330
3EC
100
AcDbEntity
  8
0
  6
CONTINUOUS
 62
     7
100
AcDbLine
 10
146.969939
 20
72.127262
 30
0.0
 11
146.961178
 21
72.127148
 31
0.0
  0
LINE
  5
42C
330
3EC
100
AcDbEntity
  8
0
  6
CONTINUOUS
 62
     7
100
AcDbLine
 10
146.961178
 20
72.127148
 30
0.0
 11
146.952403
 21
72.127041
 31
0.0
  0
LINE
  5
42D
330
3EC
100
AcDbEntity
  8
0
  6
CONTINUOUS
 62
     7
100
AcDbLine
 10
146.952403
 20
72.127041
 30
0.0
 11
146.943614
 21
72.126941
 31
0.0
  0
LINE
  5
42E
330
3EC
100
AcDbEntity
  8
0
  6
CONTINUOUS
 62
     7
100
AcDbLine
 10
146.943614
 20
72.126941
 30
0.0
 11
146.934812
 21
72.126849
 31
0.0
  0
LINE
  5
42F
330
3EC
100
AcDbEntity
  8
0
  6
CONTINUOUS
 62
     7
100
AcDbLine
 10
146.934812
 20
72.126849
 30
0.0
 11
146.925999
 21
72.126764
 31
0.0
  0
LINE
  5
430
330
3EC
100
AcDbEntity
  8
0
  6
CONTINUOUS
 62
     7
100
AcDbLine
 10
146.925999
 20
72.126764
 30
0.0
 11
146.917176
 21
72.126687
 31
0.0
  0
LINE
  5
431
330
3EC
100
AcDbEntity
  8
0
  6
CONTINUOUS
 62
     7
100
AcDbLine
 10
146.917176
 20
72.126687
 30
0.0
 11
146.908343
 21
72.126617
 31
0.0
  0
LINE
  5
432
330
3EC
100
AcDbEntity
  8
0
  6
CONTINUOUS
 62
     7
100
AcDbLine
 10
146.908343
 20
72.126617
 30
0.0
 11
146.899501
 21
72.126554
 31
0.0
  0
LINE
  5
433
330
3EC
100
AcDbEntity
  8
0
  6
CONTINUOUS
 62
     7
100
AcDbLine
 10
146.899501
 20
72.126554
 30
0.0
 11
146.890652
 21
72.126499
 31
0.0
  0
LINE
  5
434
330
3EC
100
AcDbEntity
  8
0
  6
CONTINUOUS
 62
     7
100
AcDbLine
 10
146.890652
 20
72.126499
 30
0.0
 11
146.881796
 21
72.126451
 31
0.0
  0
LINE
  5
435
330
3EC
100
AcDbEntity
  8
0
  6
CONTINUOUS
 62
     7
100
AcDbLine
 10
146.881796
 20
72.126451
 30
0.0
 11
146.872935
 21
72.12641
 31
0.0
  0
LINE
  5
436
330
3EC
100
AcDbEntity
  8
0
  6
CONTINUOUS
 62
     7
100
AcDbLine
 10
146.872935
 20
72.12641
 30
0.0
 11
146.864069
 21
72.126378
 31
0.0
  0
LINE
  5
437
330
3EC
100
AcDbEntity
  8
0
  6
CONTINUOUS
 62
     7
100
AcDbLine
 10
146.864069
 20
72.126378
 30
0.0
 11
146.855199
 21
72.126352
 31
0.0
  0
LINE
  5
438
330
3EC
100
AcDbEntity
  8
0
  6
CONTINUOUS
 62
     7
100
AcDbLine
 10
146.855199
 20
72.126352
 30
0.0
 11
146.846328
 21
72.126334
 31
0.0
  0
LINE
  5
439
330
3EC
100
AcDbEntity
  8
0
  6
CONTINUOUS
 62
     7
100
AcDbLine
 10
146.846328
 20
72.126334
 30
0.0
 11
146.837454
 21
72.126324
 31
0.0
  0
LINE
  5
43A
330
3EC
100
AcDbEntity
  8
0
  6
CONTINUOUS
 62
     7
100
AcDbLine
 10
146.837454
 20
72.126324
 30
0.0
 11
146.828581
 21
72.126321
 31
0.0
  0
LINE
  5
43B
330
3EC
100
AcDbEntity
  8
0
  6
CONTINUOUS
 62
     7
100
AcDbLine
 10
146.828581
 20
72.126321
 30
0.0
 11
146.819707
 21
72.126326
 31
0.0
  0
LINE
  5
43C
330
3EC
100
AcDbEntity
  8
0
  6
CONTINUOUS
 62
     7
100
AcDbLine
 10
146.819707
 20
72.126326
 30
0.0
 11
146.810836
 21
72.126339
 31
0.0
  0
LINE
  5
43D
330
3EC
100
AcDbEntity
  8
0
  6
CONTINUOUS
 62
     7
100
AcDbLine
 10
146.810836
 20
72.126339
 30
0.0
 11
146.801967
 21
72.126359
 31
0.0
  0
LINE
  5
43E
330
3EC
100
AcDbEntity
  8
0
  6
CONTINUOUS
 62
     7
100
AcDbLine
 10
146.801967
 20
72.126359
 30
0.0
 11
146.793101
 21
72.126387
 31
0.0
  0
LINE
  5
43F
330
3EC
100
AcDbEntity
  8
0
  6
CONTINUOUS
 62
     7
100
AcDbLine
 10
146.793101
 20
72.126387
 30
0.0
 11
146.78424
 21
72.126423
 31
0.0
  0
LINE
  5
440
330
3EC
100
AcDbEntity
  8
0
  6
CONTINUOUS
 62
     7
100
AcDbLine
 10
146.78424
 20
72.126423
 30
0.0
 11
146.775384
 21
72.126466
 31
0.0
  0
LINE
  5
441
330
3EC
100
AcDbEntity
  8
0
  6
CONTINUOUS
 62
     7
100
AcDbLine
 10
146.775384
 20
72.126466
 30
0.0
 11
146.766536
 21
72.126517
 31
0.0
  0
LINE
  5
442
330
3EC
100
AcDbEntity
  8
0
  6
CONTINUOUS
 62
     7
100
AcDbLine
 10
146.766536
 20
72.126517
 30
0.0
 11
146.757694
 21
72.126576
 31
0.0
  0
LINE
  5
443
330
3EC
100
AcDbEntity
  8
0
  6
CONTINUOUS
 62
     7
100
AcDbLine
 10
146.757694
 20
72.126576
 30
0.0
 11
146.748862
 21
72.126643
 31
0.0
  0
LINE
  5
444
330
3EC
100
AcDbEntity
  8
0
  6
CONTINUOUS
 62
     7
100
AcDbLine
 10
146.748862
 20
72.126643
 30
0.0
 11
146.739906
 21
72.126719
 31
0.0
  0
LINE
  5
445
330
3EC
100
AcDbEntity
  8
0
  6
CONTINUOUS
 62
     7
100
AcDbLine
 10
146.739906
 20
72.126719
 30
0.0
 11
146.730961
 21
72.126803
 31
0.0
  0
LINE
  5
446
330
3EC
100
AcDbEntity
  8
0
  6
CONTINUOUS
 62
     7
100
AcDbLine
 10
146.730961
 20
72.126803
 30
0.0
 11
146.722028
 21
72.126894
 31
0.0
  0
LINE
  5
447
330
3EC
100
AcDbEntity
  8
0
  6
CONTINUOUS
 62
     7
100
AcDbLine
 10
146.722028
 20
72.126894
 30
0.0
 11
146.713107
 21
72.126994
 31
0.0
  0
LINE
  5
448
330
3EC
100
AcDbEntity
  8
0
  6
CONTINUOUS
 62
     7
100
AcDbLine
 10
146.713107
 20
72.126994
 30
0.0
 11
146.7042
 21
72.127101
 31
0.0
  0
LINE
  5
449
330
3EC
100
AcDbEntity
  8
0
  6
CONTINUOUS
 62
     7
100
AcDbLine
 10
146.7042
 20
72.127101
 30
0.0
 11
146.695307
 21
72.127216
 31
0.0
  0
LINE
  5
44A
330
3EC
100
AcDbEntity
  8
0
  6
CONTINUOUS
 62
     7
100
AcDbLine
 10
146.695307
 20
72.127216
 30
0.0
 11
146.68643
 21
72.127338
 31
0.0
  0
LINE
  5
44B
330
3EC
100
AcDbEntity
  8
0
  6
CONTINUOUS
 62
     7
100
AcDbLine
 10
146.68643
 20
72.127338
 30
0.0
 11
146.677568
 21
72.127468
 31
0.0
  0
LINE
  5
44C
330
3EC
100
AcDbEntity
  8
0
  6
CONTINUOUS
 62
     7
100
AcDbLine
 10
146.677568
 20
72.127468
 30
0.0
 11
146.668724
 21
72.127605
 31
0.0
  0
LINE
  5
44D
330
3EC
100
AcDbEntity
  8
0
  6
CONTINUOUS
 62
     7
100
AcDbLine
 10
146.668724
 20
72.127605
 30
0.0
 11
146.659898
 21
72.12775
 31
0.0
  0
LINE
  5
44E
330
3EC
100
AcDbEntity
  8
0
  6
CONTINUOUS
 62
     7
100
AcDbLine
 10
146.659898
 20
72.12775
 30
0.0
 11
146.651091
 21
72.127902
 31
0.0
  0
LINE
  5
44F
330
3EC
100
AcDbEntity
  8
0
  6
CONTINUOUS
 62
     7
100
AcDbLine
 10
146.651091
 20
72.127902
 30
0.0
 11
146.642303
 21
72.128061
 31
0.0
  0
LINE
  5
450
330
3EC
100
AcDbEntity
  8
0
  6
CONTINUOUS
 62
     7
100
AcDbLine
 10
146.642303
 20
72.128061
 30
0.0
 11
146.633536
 21
72.128227
 31
0.0
  0
LINE
  5
451
330
3EC
100
AcDbEntity
  8
0
  6
CONTINUOUS
 62
     7
100
AcDbLine
 10
146.633536
 20
72.128227
 30
0.0
 11
146.624791
 21
72.128401
 31
0.0
  0
LINE
  5
452
330
3EC
100
AcDbEntity
  8
0
  6
CONTINUOUS
 62
     7
100
AcDbLine
 10
146.624791
 20
72.128401
 30
0.0
 11
146.616068
 21
72.128581
 31
0.0
  0
LINE
  5
453
330
3EC
100
AcDbEntity
  8
0
  6
CONTINUOUS
 62
     7
100
AcDbLine
 10
146.616068
 20
72.128581
 30
0.0
 11
146.607369
 21
72.128768
 31
0.0
  0
LINE
  5
454
330
3EC
100
AcDbEntity
  8
0
  6
CONTINUOUS
 62
     7
100
AcDbLine
 10
146.607369
 20
72.128768
 30
0.0
 11
146.598693
 21
72.128961
 31
0.0
  0
LINE
  5
455
330
3EC
100
AcDbEntity
  8
0
  6
CONTINUOUS
 62
     7
100
AcDbLine
 10
146.598693
 20
72.128961
 30
0.0
 11
146.590043
 21
72.129162
 31
0.0
  0
LINE
  5
456
330
3EC
100
AcDbEntity
  8
0
  6
CONTINUOUS
 62
     7
100
AcDbLine
 10
146.590043
 20
72.129162
 30
0.0
 11
146.58142
 21
72.129369
 31
0.0
  0
LINE
  5
457
330
3EC
100
AcDbEntity
  8
0
  6
CONTINUOUS
 62
     7
100
AcDbLine
 10
146.58142
 20
72.129369
 30
0.0
 11
146.572823
 21
72.129582
 31
0.0
  0
LINE
  5
458
330
3EC
100
AcDbEntity
  8
0
  6
CONTINUOUS
 62
     7
100
AcDbLine
 10
146.572823
 20
72.129582
 30
0.0
 11
146.564253
 21
72.129802
 31
0.0
  0
LINE
  5
459
330
3EC
100
AcDbEntity
  8
0
  6
CONTINUOUS
 62
     7
100
AcDbLine
 10
146.564253
 20
72.129802
 30
0.0
 11
146.555713
 21
72.130029
 31
0.0
  0
LINE
  5
45A
330
3EC
100
AcDbEntity
  8
0
  6
CONTINUOUS
 62
     7
100
AcDbLine
 10
146.555713
 20
72.130029
 30
0.0
 11
146.547202
 21
72.130261
 31
0.0
  0
LINE
  5
45B
330
3EC
100
AcDbEntity
  8
0
  6
CONTINUOUS
 62
     7
100
AcDbLine
 10
146.547202
 20
72.130261
 30
0.0
 11
146.538722
 21
72.1305
 31
0.0
  0
LINE
  5
45C
330
3EC
100
AcDbEntity
  8
0
  6
CONTINUOUS
 62
     7
100
AcDbLine
 10
146.538722
 20
72.1305
 30
0.0
 11
146.530274
 21
72.130745
 31
0.0
  0
LINE
  5
45D
330
3EC
100
AcDbEntity
  8
0
  6
CONTINUOUS
 62
     7
100
AcDbLine
 10
146.530274
 20
72.130745
 30
0.0
 11
146.521857
 21
72.130996
 31
0.0
  0
LINE
  5
45E
330
3EC
100
AcDbEntity
  8
0
  6
CONTINUOUS
 62
     7
100
AcDbLine
 10
146.521857
 20
72.130996
 30
0.0
 11
146.513474
 21
72.131253
 31
0.0
  0
LINE
  5
45F
330
3EC
100
AcDbEntity
  8
0
  6
CONTINUOUS
 62
     7
100
AcDbLine
 10
146.513474
 20
72.131253
 30
0.0
 11
146.505126
 21
72.131516
 31
0.0
  0
LINE
  5
460
330
3EC
100
AcDbEntity
  8
0
  6
CONTINUOUS
 62
     7
100
AcDbLine
 10
146.505126
 20
72.131516
 30
0.0
 11
146.496812
 21
72.131784
 31
0.0
  0
LINE
  5
461
330
3EC
100
AcDbEntity
  8
0
  6
CONTINUOUS
 62
     7
100
AcDbLine
 10
146.496812
 20
72.131784
 30
0.0
 11
146.488534
 21
72.132059
 31
0.0
  0
LINE
  5
462
330
3EC
100
AcDbEntity
  8
0
  6
CONTINUOUS
 62
     7
100
AcDbLine
 10
146.488534
 20
72.132059
 30
0.0
 11
146.480293
 21
72.132339
 31
0.0
  0
LINE
  5
463
330
3EC
100
AcDbEntity
  8
0
  6
CONTINUOUS
 62
     7
100
AcDbLine
 10
146.480293
 20
72.132339
 30
0.0
 11
146.47209
 21
72.132624
 31
0.0
  0
LINE
  5
464
330
3EC
100
AcDbEntity
  8
0
  6
CONTINUOUS
 62
     7
100
AcDbLine
 10
146.47209
 20
72.132624
 30
0.0
 11
146.45589
 21
72.133208
 31
0.0
  0
LINE
  5
465
330
3EC
100
AcDbEntity
  8
0
  6
CONTINUOUS
 62
     7
100
AcDbLine
 10
146.45589
 20
72.133208
 30
0.0
 11
146.439854
 21
72.133812
 31
0.0
  0
LINE
  5
466
330
3EC
100
AcDbEntity
  8
0
  6
CONTINUOUS
 62
     7
100
AcDbLine
 10
146.439854
 20
72.133812
 30
0.0
 11
146.42399
 21
72.134434
 31
0.0
  0
LINE
  5
467
330
3EC
100
AcDbEntity
  8
0
  6
CONTINUOUS
 62
     7
100
AcDbLine
 10
146.42399
 20
72.134434
 30
0.0
 11
146.408309
 21
72.135073
 31
0.0
  0
LINE
  5
468
330
3EC
100
AcDbEntity
  8
0
  6
CONTINUOUS
 62
     7
100
AcDbLine
 10
146.408309
 20
72.135073
 30
0.0
 11
146.392821
 21
72.135728
 31
0.0
  0
LINE
  5
469
330
3EC
100
AcDbEntity
  8
0
  6
CONTINUOUS
 62
     7
100
AcDbLine
 10
146.392821
 20
72.135728
 30
0.0
 11
146.377536
 21
72.136397
 31
0.0
  0
LINE
  5
46A
330
3EC
100
AcDbEntity
  8
0
  6
CONTINUOUS
 62
     7
100
AcDbLine
 10
146.377536
 20
72.136397
 30
0.0
 11
146.362463
 21
72.137078
 31
0.0
  0
LINE
  5
46B
330
3EC
100
AcDbEntity
  8
0
  6
CONTINUOUS
 62
     7
100
AcDbLine
 10
146.362463
 20
72.137078
 30
0.0
 11
146.347612
 21
72.13777
 31
0.0
  0
LINE
  5
46C
330
3EC
100
AcDbEntity
  8
0
  6
CONTINUOUS
 62
     7
100
AcDbLine
 10
146.347612
 20
72.13777
 30
0.0
 11
146.332995
 21
72.138472
 31
0.0
  0
LINE
  5
46D
330
3EC
100
AcDbEntity
  8
0
  6
CONTINUOUS
 62
     7
100
AcDbLine
 10
146.332995
 20
72.138472
 30
0.0
 11
146.318619
 21
72.139181
 31
0.0
  0
LINE
  5
46E
330
3EC
100
AcDbEntity
  8
0
  6
CONTINUOUS
 62
     7
100
AcDbLine
 10
146.318619
 20
72.139181
 30
0.0
 11
146.304497
 21
72.139897
 31
0.0
  0
LINE
  5
46F
330
3EC
100
AcDbEntity
  8
0
  6
CONTINUOUS
 62
     7
100
AcDbLine
 10
146.304497
 20
72.139897
 30
0.0
 11
146.290636
 21
72.140617
 31
0.0
  0
LINE
  5
470
330
3EC
100
AcDbEntity
  8
0
  6
CONTINUOUS
 62
     7
100
AcDbLine
 10
146.290636
 20
72.140617
 30
0.0
 11
146.277048
 21
72.141341
 31
0.0
  0
LINE
  5
471
330
3EC
100
AcDbEntity
  8
0
  6
CONTINUOUS
 62
     7
100
AcDbLine
 10
146.277048
 20
72.141341
 30
0.0
 11
146.263742
 21
72.142067
 31
0.0
  0
LINE
  5
472
330
3EC
100
AcDbEntity
  8
0
  6
CONTINUOUS
 62
     7
100
AcDbLine
 10
146.263742
 20
72.142067
 30
0.0
 11
146.250728
 21
72.142792
 31
0.0
  0
LINE
  5
473
330
3EC
100
AcDbEntity
  8
0
  6
CONTINUOUS
 62
     7
100
AcDbLine
 10
146.250728
 20
72.142792
 30
0.0
 11
146.238017
 21
72.143517
 31
0.0
  0
LINE
  5
474
330
3EC
100
AcDbEntity
  8
0
  6
CONTINUOUS
 62
     7
100
AcDbLine
 10
146.238017
 20
72.143517
 30
0.0
 11
146.225939
 21
72.14422
 31
0.0
  0
LINE
  5
475
330
3EC
100
AcDbEntity
  8
0
  6
CONTINUOUS
 62
     7
100
AcDbLine
 10
146.225939
 20
72.14422
 30
0.0
 11
146.214153
 21
72.144919
 31
0.0
  0
LINE
  5
476
330
3EC
100
AcDbEntity
  8
0
  6
CONTINUOUS
 62
     7
100
AcDbLine
 10
146.214153
 20
72.144919
 30
0.0
 11
146.202657
 21
72.145614
 31
0.0
  0
LINE
  5
477
330
3EC
100
AcDbEntity
  8
0
  6
CONTINUOUS
 62
     7
100
AcDbLine
 10
146.202657
 20
72.145614
 30
0.0
 11
146.191448
 21
72.146305
 31
0.0
  0
LINE
  5
478
330
3EC
100
AcDbEntity
  8
0
  6
CONTINUOUS
 62
     7
100
AcDbLine
 10
146.191448
 20
72.146305
 30
0.0
 11
146.180522
 21
72.146991
 31
0.0
  0
LINE
  5
479
330
3EC
100
AcDbEntity
  8
0
  6
CONTINUOUS
 62
     7
100
AcDbLine
 10
146.180522
 20
72.146991
 30
0.0
 11
146.169877
 21
72.147671
 31
0.0
  0
LINE
  5
47A
330
3EC
100
AcDbEntity
  8
0
  6
CONTINUOUS
 62
     7
100
AcDbLine
 10
146.169877
 20
72.147671
 30
0.0
 11
146.159509
 21
72.148344
 31
0.0
  0
LINE
  5
47B
330
3EC
100
AcDbEntity
  8
0
  6
CONTINUOUS
 62
     7
100
AcDbLine
 10
146.159509
 20
72.148344
 30
0.0
 11
146.149415
 21
72.14901
 31
0.0
  0
LINE
  5
47C
330
3EC
100
AcDbEntity
  8
0
  6
CONTINUOUS
 62
     7
100
AcDbLine
 10
146.149415
 20
72.14901
 30
0.0
 11
146.139593
 21
72.149669
 31
0.0
  0
LINE
  5
47D
330
3EC
100
AcDbEntity
  8
0
  6
CONTINUOUS
 62
     7
100
AcDbLine
 10
146.139593
 20
72.149669
 30
0.0
 11
146.130038
 21
72.150319
 31
0.0
  0
LINE
  5
47E
330
3EC
100
AcDbEntity
  8
0
  6
CONTINUOUS
 62
     7
100
AcDbLine
 10
146.130038
 20
72.150319
 30
0.0
 11
146.120749
 21
72.150961
 31
0.0
  0
LINE
  5
47F
330
3EC
100
AcDbEntity
  8
0
  6
CONTINUOUS
 62
     7
100
AcDbLine
 10
146.120749
 20
72.150961
 30
0.0
 11
146.111721
 21
72.151592
 31
0.0
  0
LINE
  5
480
330
3EC
100
AcDbEntity
  8
0
  6
CONTINUOUS
 62
     7
100
AcDbLine
 10
146.111721
 20
72.151592
 30
0.0
 11
146.102952
 21
72.152214
 31
0.0
  0
LINE
  5
481
330
3EC
100
AcDbEntity
  8
0
  6
CONTINUOUS
 62
     7
100
AcDbLine
 10
146.102952
 20
72.152214
 30
0.0
 11
146.094439
 21
72.152825
 31
0.0
  0
LINE
  5
482
330
3EC
100
AcDbEntity
  8
0
  6
CONTINUOUS
 62
     7
100
AcDbLine
 10
146.094439
 20
72.152825
 30
0.0
 11
146.078167
 21
72.154011
 31
0.0
  0
LINE
  5
483
330
3EC
100
AcDbEntity
  8
0
  6
CONTINUOUS
 62
     7
100
AcDbLine
 10
146.078167
 20
72.154011
 30
0.0
 11
146.063534
 21
72.155098
 31
0.0
  0
LINE
  5
484
330
3EC
100
AcDbEntity
  8
0
  6
CONTINUOUS
 62
     7
100
AcDbLine
 10
146.063534
 20
72.155098
 30
0.0
 11
146.050077
 21
72.156113
 31
0.0
  0
LINE
  5
485
330
3EC
100
AcDbEntity
  8
0
  6
CONTINUOUS
 62
     7
100
AcDbLine
 10
146.050077
 20
72.156113
 30
0.0
 11
146.038064
 21
72.157032
 31
0.0
  0
LINE
  5
486
330
3EC
100
AcDbEntity
  8
0
  6
CONTINUOUS
 62
     7
100
AcDbLine
 10
146.038064
 20
72.157032
 30
0.0
 11
146.027766
 21
72.157829
 31
0.0
  0
LINE
  5
487
330
3EC
100
AcDbEntity
  8
0
  6
CONTINUOUS
 62
     7
100
AcDbLine
 10
146.027766
 20
72.157829
 30
0.0
 11
146.013388
 21
72.158961
 31
0.0
  0
LINE
  5
488
330
3EC
100
AcDbEntity
  8
0
  6
CONTINUOUS
 62
     7
100
AcDbLine
 10
146.013388
 20
72.158961
 30
0.0
 11
146.009094
 21
72.159308
 31
0.0
  0
LINE
  5
489
330
3EC
100
AcDbEntity
  8
0
  6
CONTINUOUS
 62
     7
100
AcDbLine
 10
146.009094
 20
72.159308
 30
0.0
 11
146.014575
 21
72.158875
 31
0.0
  0
ENDBLK
  5
3EE
330
3EC
100
AcDbEntity
  8
0
100
AcDbBlockEnd
  0
BLOCK
  5
48B
330
48A
100
AcDbEntity
  8
0
100
AcDbBlockBegin
  2
BLKF024
 70
     0
 71
     0
 10
0.0
 20
0.0
 30
0.0
  3
BLKF024
  1

  0
LINE
  5
48E
330
48A
100
AcDbEntity
  8
0
  6
CONTINUOUS
 62
     7
100
AcDbLine
 10
146.257615
 20
53.276676
 30
0.0
 11
146.235061
 21
53.275305
 31
0.0
  0
LINE
  5
48F
330
48A
100
AcDbEntity
  8
0
  6
CONTINUOUS
 62
     7
100
AcDbLine
 10
146.235061
 20
53.275305
 30
0.0
 11
146.212882
 21
53.273953
 31
0.0
  0
LINE
  5
490
330
48A
100
AcDbEntity
  8
0
  6
CONTINUOUS
 62
     7
100
AcDbLine
 10
146.212882
 20
53.273953
 30
0.0
 11
146.191451
 21
53.272638
 31
0.0
  0
LINE
  5
491
330
48A
100
AcDbEntity
  8
0
  6
CONTINUOUS
 62
     7
100
AcDbLine
 10
146.191451
 20
53.272638
 30
0.0
 11
146.171144
 21
53.271377
 31
0.0
  0
LINE
  5
492
330
48A
100
AcDbEntity
  8
0
  6
CONTINUOUS
 62
     7
100
AcDbLine
 10
146.171144
 20
53.271377
 30
0.0
 11
146.152334
 21
53.270191
 31
0.0
  0
LINE
  5
493
330
48A
100
AcDbEntity
  8
0
  6
CONTINUOUS
 62
     7
100
AcDbLine
 10
146.152334
 20
53.270191
 30
0.0
 11
146.135396
 21
53.269096
 31
0.0
  0
LINE
  5
494
330
48A
100
AcDbEntity
  8
0
  6
CONTINUOUS
 62
     7
100
AcDbLine
 10
146.135396
 20
53.269096
 30
0.0
 11
146.120705
 21
53.268112
 31
0.0
  0
LINE
  5
495
330
48A
100
AcDbEntity
  8
0
  6
CONTINUOUS
 62
     7
100
AcDbLine
 10
146.120705
 20
53.268112
 30
0.0
 11
146.114319
 21
53.267667
 31
0.0
  0
LINE
  5
496
330
48A
100
AcDbEntity
  8
0
  6
CONTINUOUS
 62
     7
100
AcDbLine
 10
146.114319
 20
53.267667
 30
0.0
 11
146.108635
 21
53.267257
 31
0.0
  0
LINE
  5
497
330
48A
100
AcDbEntity
  8
0
  6
CONTINUOUS
 62
     7
100
AcDbLine
 10
146.108635
 20
53.267257
 30
0.0
 11
146.103935
 21
53.266905
 31
0.0
  0
ENDBLK
  5
48C
330
48A
100
AcDbEntity
  8
0
100
AcDbBlockEnd
  0
BLOCK
  5
499
330
498
100
AcDbEntity
  8
0
100
AcDbBlockBegin
  2
BLKF025
 70
     0
 71
     0
 10
0.0
 20
0.0
 30
0.0
  3
BLKF025
  1

  0
LINE
  5
49C
330
498
100
AcDbEntity
  8
0
  6
CONTINUOUS
 62
     7
100
AcDbLine
 10
146.017322
 20
53.260424
 30
0.0
 11
146.017269
 21
53.26042
 31
0.0
  0
LINE
  5
49D
330
498
100
AcDbEntity
  8
0
  6
CONTINUOUS
 62
     7
100
AcDbLine
 10
146.017269
 20
53.26042
 30
0.0
 11
146.02794
 21
53.261259
 31
0.0
  0
LINE
  5
49E
330
498
100
AcDbEntity
  8
0
  6
CONTINUOUS
 62
     7
100
AcDbLine
 10
146.02794
 20
53.261259
 30
0.0
 11
146.046468
 21
53.262688
 31
0.0
  0
LINE
  5
49F
330
498
100
AcDbEntity
  8
0
  6
CONTINUOUS
 62
     7
100
AcDbLine
 10
146.046468
 20
53.262688
 30
0.0
 11
146.058229
 21
53.263579
 31
0.0
  0
LINE
  5
4A0
330
498
100
AcDbEntity
  8
0
  6
CONTINUOUS
 62
     7
100
AcDbLine
 10
146.058229
 20
53.263579
 30
0.0
 11
146.071416
 21
53.264564
 31
0.0
  0
LINE
  5
4A1
330
498
100
AcDbEntity
  8
0
  6
CONTINUOUS
 62
     7
100
AcDbLine
 10
146.071416
 20
53.264564
 30
0.0
 11
146.085848
 21
53.265624
 31
0.0
  0
LINE
  5
4A2
330
498
100
AcDbEntity
  8
0
  6
CONTINUOUS
 62
     7
100
AcDbLine
 10
146.085848
 20
53.265624
 30
0.0
 11
146.101346
 21
53.266741
 31
0.0
  0
LINE
  5
4A3
330
498
100
AcDbEntity
  8
0
  6
CONTINUOUS
 62
     7
100
AcDbLine
 10
146.101346
 20
53.266741
 30
0.0
 11
146.11801
 21
53.267917
 31
0.0
  0
LINE
  5
4A4
330
498
100
AcDbEntity
  8
0
  6
CONTINUOUS
 62
     7
100
AcDbLine
 10
146.11801
 20
53.267917
 30
0.0
 11
146.135591
 21
53.269128
 31
0.0
  0
LINE
  5
4A5
330
498
100
AcDbEntity
  8
0
  6
CONTINUOUS
 62
     7
100
AcDbLine
 10
146.135591
 20
53.269128
 30
0.0
 11
146.154093
 21
53.270369
 31
0.0
  0
LINE
  5
4A6
330
498
100
AcDbEntity
  8
0
  6
CONTINUOUS
 62
     7
100
AcDbLine
 10
146.154093
 20
53.270369
 30
0.0
 11
146.173521
 21
53.271635
 31
0.0
  0
LINE
  5
4A7
330
498
100
AcDbEntity
  8
0
  6
CONTINUOUS
 62
     7
100
AcDbLine
 10
146.173521
 20
53.271635
 30
0.0
 11
146.19388
 21
53.272921
 31
0.0
  0
LINE
  5
4A8
330
498
100
AcDbEntity
  8
0
  6
CONTINUOUS
 62
     7
100
AcDbLine
 10
146.19388
 20
53.272921
 30
0.0
 11
146.215172
 21
53.27422
 31
0.0
  0
LINE
  5
4A9
330
498
100
AcDbEntity
  8
0
  6
CONTINUOUS
 62
     7
100
AcDbLine
 10
146.215172
 20
53.27422
 30
0.0
 11
146.226171
 21
53.274874
 31
0.0
  0
LINE
  5
4AA
330
498
100
AcDbEntity
  8
0
  6
CONTINUOUS
 62
     7
100
AcDbLine
 10
146.226171
 20
53.274874
 30
0.0
 11
146.237404
 21
53.275529
 31
0.0
  0
LINE
  5
4AB
330
498
100
AcDbEntity
  8
0
  6
CONTINUOUS
 62
     7
100
AcDbLine
 10
146.237404
 20
53.275529
 30
0.0
 11
146.248873
 21
53.276185
 31
0.0
  0
LINE
  5
4AC
330
498
100
AcDbEntity
  8
0
  6
CONTINUOUS
 62
     7
100
AcDbLine
 10
146.248873
 20
53.276185
 30
0.0
 11
146.260579
 21
53.276842
 31
0.0
  0
LINE
  5
4AD
330
498
100
AcDbEntity
  8
0
  6
CONTINUOUS
 62
     7
100
AcDbLine
 10
146.260579
 20
53.276842
 30
0.0
 11
146.272964
 21
53.277522
 31
0.0
  0
LINE
  5
4AE
330
498
100
AcDbEntity
  8
0
  6
CONTINUOUS
 62
     7
100
AcDbLine
 10
146.272964
 20
53.277522
 30
0.0
 11
146.285596
 21
53.278201
 31
0.0
  0
LINE
  5
4AF
330
498
100
AcDbEntity
  8
0
  6
CONTINUOUS
 62
     7
100
AcDbLine
 10
146.285596
 20
53.278201
 30
0.0
 11
146.298468
 21
53.278876
 31
0.0
  0
LINE
  5
4B0
330
498
100
AcDbEntity
  8
0
  6
CONTINUOUS
 62
     7
100
AcDbLine
 10
146.298468
 20
53.278876
 30
0.0
 11
146.311571
 21
53.279548
 31
0.0
  0
LINE
  5
4B1
330
498
100
AcDbEntity
  8
0
  6
CONTINUOUS
 62
     7
100
AcDbLine
 10
146.311571
 20
53.279548
 30
0.0
 11
146.324898
 21
53.280215
 31
0.0
  0
LINE
  5
4B2
330
498
100
AcDbEntity
  8
0
  6
CONTINUOUS
 62
     7
100
AcDbLine
 10
146.324898
 20
53.280215
 30
0.0
 11
146.338442
 21
53.280875
 31
0.0
  0
LINE
  5
4B3
330
498
100
AcDbEntity
  8
0
  6
CONTINUOUS
 62
     7
100
AcDbLine
 10
146.338442
 20
53.280875
 30
0.0
 11
146.352195
 21
53.281528
 31
0.0
  0
LINE
  5
4B4
330
498
100
AcDbEntity
  8
0
  6
CONTINUOUS
 62
     7
100
AcDbLine
 10
146.352195
 20
53.281528
 30
0.0
 11
146.366149
 21
53.282172
 31
0.0
  0
LINE
  5
4B5
330
498
100
AcDbEntity
  8
0
  6
CONTINUOUS
 62
     7
100
AcDbLine
 10
146.366149
 20
53.282172
 30
0.0
 11
146.380296
 21
53.282806
 31
0.0
  0
LINE
  5
4B6
330
498
100
AcDbEntity
  8
0
  6
CONTINUOUS
 62
     7
100
AcDbLine
 10
146.380296
 20
53.282806
 30
0.0
 11
146.394629
 21
53.28343
 31
0.0
  0
LINE
  5
4B7
330
498
100
AcDbEntity
  8
0
  6
CONTINUOUS
 62
     7
100
AcDbLine
 10
146.394629
 20
53.28343
 30
0.0
 11
146.40914
 21
53.28404
 31
0.0
  0
LINE
  5
4B8
330
498
100
AcDbEntity
  8
0
  6
CONTINUOUS
 62
     7
100
AcDbLine
 10
146.40914
 20
53.28404
 30
0.0
 11
146.423822
 21
53.284638
 31
0.0
  0
LINE
  5
4B9
330
498
100
AcDbEntity
  8
0
  6
CONTINUOUS
 62
     7
100
AcDbLine
 10
146.423822
 20
53.284638
 30
0.0
 11
146.438667
 21
53.28522
 31
0.0
  0
LINE
  5
4BA
330
498
100
AcDbEntity
  8
0
  6
CONTINUOUS
 62
     7
100
AcDbLine
 10
146.438667
 20
53.28522
 30
0.0
 11
146.453668
 21
53.285787
 31
0.0
  0
LINE
  5
4BB
330
498
100
AcDbEntity
  8
0
  6
CONTINUOUS
 62
     7
100
AcDbLine
 10
146.453668
 20
53.285787
 30
0.0
 11
146.468816
 21
53.286337
 31
0.0
  0
LINE
  5
4BC
330
498
100
AcDbEntity
  8
0
  6
CONTINUOUS
 62
     7
100
AcDbLine
 10
146.468816
 20
53.286337
 30
0.0
 11
146.484103
 21
53.286868
 31
0.0
  0
LINE
  5
4BD
330
498
100
AcDbEntity
  8
0
  6
CONTINUOUS
 62
     7
100
AcDbLine
 10
146.484103
 20
53.286868
 30
0.0
 11
146.500131
 21
53.2874
 31
0.0
  0
LINE
  5
4BE
330
498
100
AcDbEntity
  8
0
  6
CONTINUOUS
 62
     7
100
AcDbLine
 10
146.500131
 20
53.2874
 30
0.0
 11
146.516294
 21
53.287911
 31
0.0
  0
LINE
  5
4BF
330
498
100
AcDbEntity
  8
0
  6
CONTINUOUS
 62
     7
100
AcDbLine
 10
146.516294
 20
53.287911
 30
0.0
 11
146.532587
 21
53.288399
 31
0.0
  0
LINE
  5
4C0
330
498
100
AcDbEntity
  8
0
  6
CONTINUOUS
 62
     7
100
AcDbLine
 10
146.532587
 20
53.288399
 30
0.0
 11
146.549002
 21
53.288864
 31
0.0
  0
LINE
  5
4C1
330
498
100
AcDbEntity
  8
0
  6
CONTINUOUS
 62
     7
100
AcDbLine
 10
146.549002
 20
53.288864
 30
0.0
 11
146.565532
 21
53.289306
 31
0.0
  0
LINE
  5
4C2
330
498
100
AcDbEntity
  8
0
  6
CONTINUOUS
 62
     7
100
AcDbLine
 10
146.565532
 20
53.289306
 30
0.0
 11
146.582172
 21
53.289725
 31
0.0
  0
LINE
  5
4C3
330
498
100
AcDbEntity
  8
0
  6
CONTINUOUS
 62
     7
100
AcDbLine
 10
146.582172
 20
53.289725
 30
0.0
 11
146.598913
 21
53.290118
 31
0.0
  0
LINE
  5
4C4
330
498
100
AcDbEntity
  8
0
  6
CONTINUOUS
 62
     7
100
AcDbLine
 10
146.598913
 20
53.290118
 30
0.0
 11
146.615749
 21
53.290487
 31
0.0
  0
LINE
  5
4C5
330
498
100
AcDbEntity
  8
0
  6
CONTINUOUS
 62
     7
100
AcDbLine
 10
146.615749
 20
53.290487
 30
0.0
 11
146.632674
 21
53.29083
 31
0.0
  0
LINE
  5
4C6
330
498
100
AcDbEntity
  8
0
  6
CONTINUOUS
 62
     7
100
AcDbLine
 10
146.632674
 20
53.29083
 30
0.0
 11
146.64968
 21
53.291147
 31
0.0
  0
LINE
  5
4C7
330
498
100
AcDbEntity
  8
0
  6
CONTINUOUS
 62
     7
100
AcDbLine
 10
146.64968
 20
53.291147
 30
0.0
 11
146.66676
 21
53.291437
 31
0.0
  0
LINE
  5
4C8
330
498
100
AcDbEntity
  8
0
  6
CONTINUOUS
 62
     7
100
AcDbLine
 10
146.66676
 20
53.291437
 30
0.0
 11
146.683909
 21
53.2917
 31
0.0
  0
LINE
  5
4C9
330
498
100
AcDbEntity
  8
0
  6
CONTINUOUS
 62
     7
100
AcDbLine
 10
146.683909
 20
53.2917
 30
0.0
 11
146.701118
 21
53.291935
 31
0.0
  0
LINE
  5
4CA
330
498
100
AcDbEntity
  8
0
  6
CONTINUOUS
 62
     7
100
AcDbLine
 10
146.701118
 20
53.291935
 30
0.0
 11
146.718381
 21
53.292142
 31
0.0
  0
LINE
  5
4CB
330
498
100
AcDbEntity
  8
0
  6
CONTINUOUS
 62
     7
100
AcDbLine
 10
146.718381
 20
53.292142
 30
0.0
 11
146.735691
 21
53.292319
 31
0.0
  0
LINE
  5
4CC
330
498
100
AcDbEntity
  8
0
  6
CONTINUOUS
 62
     7
100
AcDbLine
 10
146.735691
 20
53.292319
 30
0.0
 11
146.753042
 21
53.292467
 31
0.0
  0
LINE
  5
4CD
330
498
100
AcDbEntity
  8
0
  6
CONTINUOUS
 62
     7
100
AcDbLine
 10
146.753042
 20
53.292467
 30
0.0
 11
146.770875
 21
53.292587
 31
0.0
  0
LINE
  5
4CE
330
498
100
AcDbEntity
  8
0
  6
CONTINUOUS
 62
     7
100
AcDbLine
 10
146.770875
 20
53.292587
 30
0.0
 11
146.788735
 21
53.292675
 31
0.0
  0
LINE
  5
4CF
330
498
100
AcDbEntity
  8
0
  6
CONTINUOUS
 62
     7
100
AcDbLine
 10
146.788735
 20
53.292675
 30
0.0
 11
146.806615
 21
53.292732
 31
0.0
  0
LINE
  5
4D0
330
498
100
AcDbEntity
  8
0
  6
CONTINUOUS
 62
     7
100
AcDbLine
 10
146.806615
 20
53.292732
 30
0.0
 11
146.824507
 21
53.292758
 31
0.0
  0
LINE
  5
4D1
330
498
100
AcDbEntity
  8
0
  6
CONTINUOUS
 62
     7
100
AcDbLine
 10
146.824507
 20
53.292758
 30
0.0
 11
146.842404
 21
53.292753
 31
0.0
  0
LINE
  5
4D2
330
498
100
AcDbEntity
  8
0
  6
CONTINUOUS
 62
     7
100
AcDbLine
 10
146.842404
 20
53.292753
 30
0.0
 11
146.860297
 21
53.292716
 31
0.0
  0
LINE
  5
4D3
330
498
100
AcDbEntity
  8
0
  6
CONTINUOUS
 62
     7
100
AcDbLine
 10
146.860297
 20
53.292716
 30
0.0
 11
146.878179
 21
53.292649
 31
0.0
  0
LINE
  5
4D4
330
498
100
AcDbEntity
  8
0
  6
CONTINUOUS
 62
     7
100
AcDbLine
 10
146.878179
 20
53.292649
 30
0.0
 11
146.896043
 21
53.292551
 31
0.0
  0
LINE
  5
4D5
330
498
100
AcDbEntity
  8
0
  6
CONTINUOUS
 62
     7
100
AcDbLine
 10
146.896043
 20
53.292551
 30
0.0
 11
146.91388
 21
53.292423
 31
0.0
  0
LINE
  5
4D6
330
498
100
AcDbEntity
  8
0
  6
CONTINUOUS
 62
     7
100
AcDbLine
 10
146.91388
 20
53.292423
 30
0.0
 11
146.931682
 21
53.292264
 31
0.0
  0
LINE
  5
4D7
330
498
100
AcDbEntity
  8
0
  6
CONTINUOUS
 62
     7
100
AcDbLine
 10
146.931682
 20
53.292264
 30
0.0
 11
146.949443
 21
53.292076
 31
0.0
  0
LINE
  5
4D8
330
498
100
AcDbEntity
  8
0
  6
CONTINUOUS
 62
     7
100
AcDbLine
 10
146.949443
 20
53.292076
 30
0.0
 11
146.967154
 21
53.291857
 31
0.0
  0
LINE
  5
4D9
330
498
100
AcDbEntity
  8
0
  6
CONTINUOUS
 62
     7
100
AcDbLine
 10
146.967154
 20
53.291857
 30
0.0
 11
146.984808
 21
53.291608
 31
0.0
  0
LINE
  5
4DA
330
498
100
AcDbEntity
  8
0
  6
CONTINUOUS
 62
     7
100
AcDbLine
 10
146.984808
 20
53.291608
 30
0.0
 11
147.002397
 21
53.29133
 31
0.0
  0
LINE
  5
4DB
330
498
100
AcDbEntity
  8
0
  6
CONTINUOUS
 62
     7
100
AcDbLine
 10
147.002397
 20
53.29133
 30
0.0
 11
147.019913
 21
53.291023
 31
0.0
  0
LINE
  5
4DC
330
498
100
AcDbEntity
  8
0
  6
CONTINUOUS
 62
     7
100
AcDbLine
 10
147.019913
 20
53.291023
 30
0.0
 11
147.037348
 21
53.290686
 31
0.0
  0
LINE
  5
4DD
330
498
100
AcDbEntity
  8
0
  6
CONTINUOUS
 62
     7
100
AcDbLine
 10
147.037348
 20
53.290686
 30
0.0
 11
147.054802
 21
53.290318
 31
0.0
  0
LINE
  5
4DE
330
498
100
AcDbEntity
  8
0
  6
CONTINUOUS
 62
     7
100
AcDbLine
 10
147.054802
 20
53.290318
 30
0.0
 11
147.072158
 21
53.289921
 31
0.0
  0
LINE
  5
4DF
330
498
100
AcDbEntity
  8
0
  6
CONTINUOUS
 62
     7
100
AcDbLine
 10
147.072158
 20
53.289921
 30
0.0
 11
147.089407
 21
53.289498
 31
0.0
  0
LINE
  5
4E0
330
498
100
AcDbEntity
  8
0
  6
CONTINUOUS
 62
     7
100
AcDbLine
 10
147.089407
 20
53.289498
 30
0.0
 11
147.10654
 21
53.289048
 31
0.0
  0
LINE
  5
4E1
330
498
100
AcDbEntity
  8
0
  6
CONTINUOUS
 62
     7
100
AcDbLine
 10
147.10654
 20
53.289048
 30
0.0
 11
147.123549
 21
53.288573
 31
0.0
  0
LINE
  5
4E2
330
498
100
AcDbEntity
  8
0
  6
CONTINUOUS
 62
     7
100
AcDbLine
 10
147.123549
 20
53.288573
 30
0.0
 11
147.140425
 21
53.288074
 31
0.0
  0
LINE
  5
4E3
330
498
100
AcDbEntity
  8
0
  6
CONTINUOUS
 62
     7
100
AcDbLine
 10
147.140425
 20
53.288074
 30
0.0
 11
147.15716
 21
53.287553
 31
0.0
  0
LINE
  5
4E4
330
498
100
AcDbEntity
  8
0
  6
CONTINUOUS
 62
     7
100
AcDbLine
 10
147.15716
 20
53.287553
 30
0.0
 11
147.173744
 21
53.287009
 31
0.0
  0
LINE
  5
4E5
330
498
100
AcDbEntity
  8
0
  6
CONTINUOUS
 62
     7
100
AcDbLine
 10
147.173744
 20
53.287009
 30
0.0
 11
147.190168
 21
53.286446
 31
0.0
  0
LINE
  5
4E6
330
498
100
AcDbEntity
  8
0
  6
CONTINUOUS
 62
     7
100
AcDbLine
 10
147.190168
 20
53.286446
 30
0.0
 11
147.206425
 21
53.285862
 31
0.0
  0
LINE
  5
4E7
330
498
100
AcDbEntity
  8
0
  6
CONTINUOUS
 62
     7
100
AcDbLine
 10
147.206425
 20
53.285862
 30
0.0
 11
147.222504
 21
53.285261
 31
0.0
  0
LINE
  5
4E8
330
498
100
AcDbEntity
  8
0
  6
CONTINUOUS
 62
     7
100
AcDbLine
 10
147.222504
 20
53.285261
 30
0.0
 11
147.238399
 21
53.284642
 31
0.0
  0
LINE
  5
4E9
330
498
100
AcDbEntity
  8
0
  6
CONTINUOUS
 62
     7
100
AcDbLine
 10
147.238399
 20
53.284642
 30
0.0
 11
147.254099
 21
53.284007
 31
0.0
  0
LINE
  5
4EA
330
498
100
AcDbEntity
  8
0
  6
CONTINUOUS
 62
     7
100
AcDbLine
 10
147.254099
 20
53.284007
 30
0.0
 11
147.269596
 21
53.283357
 31
0.0
  0
LINE
  5
4EB
330
498
100
AcDbEntity
  8
0
  6
CONTINUOUS
 62
     7
100
AcDbLine
 10
147.269596
 20
53.283357
 30
0.0
 11
147.284881
 21
53.282694
 31
0.0
  0
LINE
  5
4EC
330
498
100
AcDbEntity
  8
0
  6
CONTINUOUS
 62
     7
100
AcDbLine
 10
147.284881
 20
53.282694
 30
0.0
 11
147.299946
 21
53.282017
 31
0.0
  0
LINE
  5
4ED
330
498
100
AcDbEntity
  8
0
  6
CONTINUOUS
 62
     7
100
AcDbLine
 10
147.299946
 20
53.282017
 30
0.0
 11
147.314566
 21
53.281339
 31
0.0
  0
LINE
  5
4EE
330
498
100
AcDbEntity
  8
0
  6
CONTINUOUS
 62
     7
100
AcDbLine
 10
147.314566
 20
53.281339
 30
0.0
 11
147.328959
 21
53.280651
 31
0.0
  0
LINE
  5
4EF
330
498
100
AcDbEntity
  8
0
  6
CONTINUOUS
 62
     7
100
AcDbLine
 10
147.328959
 20
53.280651
 30
0.0
 11
147.343123
 21
53.279954
 31
0.0
  0
LINE
  5
4F0
330
498
100
AcDbEntity
  8
0
  6
CONTINUOUS
 62
     7
100
AcDbLine
 10
147.343123
 20
53.279954
 30
0.0
 11
147.357053
 21
53.279249
 31
0.0
  0
LINE
  5
4F1
330
498
100
AcDbEntity
  8
0
  6
CONTINUOUS
 62
     7
100
AcDbLine
 10
147.357053
 20
53.279249
 30
0.0
 11
147.370748
 21
53.278538
 31
0.0
  0
LINE
  5
4F2
330
498
100
AcDbEntity
  8
0
  6
CONTINUOUS
 62
     7
100
AcDbLine
 10
147.370748
 20
53.278538
 30
0.0
 11
147.384202
 21
53.27782
 31
0.0
  0
LINE
  5
4F3
330
498
100
AcDbEntity
  8
0
  6
CONTINUOUS
 62
     7
100
AcDbLine
 10
147.384202
 20
53.27782
 30
0.0
 11
147.397413
 21
53.277099
 31
0.0
  0
LINE
  5
4F4
330
498
100
AcDbEntity
  8
0
  6
CONTINUOUS
 62
     7
100
AcDbLine
 10
147.397413
 20
53.277099
 30
0.0
 11
147.410377
 21
53.276374
 31
0.0
  0
LINE
  5
4F5
330
498
100
AcDbEntity
  8
0
  6
CONTINUOUS
 62
     7
100
AcDbLine
 10
147.410377
 20
53.276374
 30
0.0
 11
147.423091
 21
53.275647
 31
0.0
  0
LINE
  5
4F6
330
498
100
AcDbEntity
  8
0
  6
CONTINUOUS
 62
     7
100
AcDbLine
 10
147.423091
 20
53.275647
 30
0.0
 11
147.435551
 21
53.274919
 31
0.0
  0
LINE
  5
4F7
330
498
100
AcDbEntity
  8
0
  6
CONTINUOUS
 62
     7
100
AcDbLine
 10
147.435551
 20
53.274919
 30
0.0
 11
147.447753
 21
53.274191
 31
0.0
  0
LINE
  5
4F8
330
498
100
AcDbEntity
  8
0
  6
CONTINUOUS
 62
     7
100
AcDbLine
 10
147.447753
 20
53.274191
 30
0.0
 11
147.459695
 21
53.273464
 31
0.0
  0
LINE
  5
4F9
330
498
100
AcDbEntity
  8
0
  6
CONTINUOUS
 62
     7
100
AcDbLine
 10
147.459695
 20
53.273464
 30
0.0
 11
147.471372
 21
53.27274
 31
0.0
  0
LINE
  5
4FA
330
498
100
AcDbEntity
  8
0
  6
CONTINUOUS
 62
     7
100
AcDbLine
 10
147.471372
 20
53.27274
 30
0.0
 11
147.482781
 21
53.27202
 31
0.0
  0
LINE
  5
4FB
330
498
100
AcDbEntity
  8
0
  6
CONTINUOUS
 62
     7
100
AcDbLine
 10
147.482781
 20
53.27202
 30
0.0
 11
147.493919
 21
53.271304
 31
0.0
  0
LINE
  5
4FC
330
498
100
AcDbEntity
  8
0
  6
CONTINUOUS
 62
     7
100
AcDbLine
 10
147.493919
 20
53.271304
 30
0.0
 11
147.504782
 21
53.270595
 31
0.0
  0
LINE
  5
4FD
330
498
100
AcDbEntity
  8
0
  6
CONTINUOUS
 62
     7
100
AcDbLine
 10
147.504782
 20
53.270595
 30
0.0
 11
147.524955
 21
53.269246
 31
0.0
  0
LINE
  5
4FE
330
498
100
AcDbEntity
  8
0
  6
CONTINUOUS
 62
     7
100
AcDbLine
 10
147.524955
 20
53.269246
 30
0.0
 11
147.543957
 21
53.26794
 31
0.0
  0
LINE
  5
4FF
330
498
100
AcDbEntity
  8
0
  6
CONTINUOUS
 62
     7
100
AcDbLine
 10
147.543957
 20
53.26794
 30
0.0
 11
147.561654
 21
53.266694
 31
0.0
  0
LINE
  5
500
330
498
100
AcDbEntity
  8
0
  6
CONTINUOUS
 62
     7
100
AcDbLine
 10
147.561654
 20
53.266694
 30
0.0
 11
147.577914
 21
53.265523
 31
0.0
  0
LINE
  5
501
330
498
100
AcDbEntity
  8
0
  6
CONTINUOUS
 62
     7
100
AcDbLine
 10
147.577914
 20
53.265523
 30
0.0
 11
147.592603
 21
53.264444
 31
0.0
  0
LINE
  5
502
330
498
100
AcDbEntity
  8
0
  6
CONTINUOUS
 62
     7
100
AcDbLine
 10
147.592603
 20
53.264444
 30
0.0
 11
147.605588
 21
53.263475
 31
0.0
  0
LINE
  5
503
330
498
100
AcDbEntity
  8
0
  6
CONTINUOUS
 62
     7
100
AcDbLine
 10
147.605588
 20
53.263475
 30
0.0
 11
147.625916
 21
53.261928
 31
0.0
  0
LINE
  5
504
330
498
100
AcDbEntity
  8
0
  6
CONTINUOUS
 62
     7
100
AcDbLine
 10
147.625916
 20
53.261928
 30
0.0
 11
147.642851
 21
53.260612
 31
0.0
  0
LINE
  5
505
330
498
100
AcDbEntity
  8
0
  6
CONTINUOUS
 62
     7
100
AcDbLine
 10
147.642851
 20
53.260612
 30
0.0
 11
147.649466
 21
53.260073
 31
0.0
  0
ENDBLK
  5
49A
330
498
100
AcDbEntity
  8
0
100
AcDbBlockEnd
  0
BLOCK
  5
50E
330
50D
100
AcDbEntity
  8
0
100
AcDbBlockBegin
  2
BLKF026
 70
     0
 71
     0
 10
0.0
 20
0.0
 30
0.0
  3
BLKF026
  1

  0
LINE
  5
511
330
50D
100
AcDbEntity
  8
CSLAYER2
  6
CONTINUOUS
 62
     3
100
AcDbLine
 10
140.659722
 20
37.495437
 30
0.0
 11
142.659722
 21
36.959539
 31
0.0
  0
LINE
  5
512
330
50D
100
AcDbEntity
  8
CSLAYER2
  6
CONTINUOUS
 62
     3
100
AcDbLine
 10
142.659722
 20
36.959539
 30
0.0
 11
140.659722
 21
36.423641
 31
0.0
  0
LINE
  5
513
330
50D
100
AcDbEntity
  8
CSLAYER2
  6
CONTINUOUS
 62
     3
100
AcDbLine
 10
142.659722
 20
36.959539
 30
0.0
 11
140.659722
 21
36.959539
 31
0.0
  0
LINE
  5
514
330
50D
100
AcDbEntity
  8
CSLAYER2
  6
CONTINUOUS
 62
     3
100
AcDbLine
 10
133.159722
 20
36.423641
 30
0.0
 11
131.159722
 21
36.959539
 31
0.0
  0
LINE
  5
515
330
50D
100
AcDbEntity
  8
CSLAYER2
  6
CONTINUOUS
 62
     3
100
AcDbLine
 10
131.159722
 20
36.959539
 30
0.0
 11
133.159722
 21
37.495437
 31
0.0
  0
LINE
  5
516
330
50D
100
AcDbEntity
  8
CSLAYER2
  6
CONTINUOUS
 62
     3
100
AcDbLine
 10
131.159722
 20
36.959539
 30
0.0
 11
133.159722
 21
36.959539
 31
0.0
  0
LINE
  5
517
330
50D
100
AcDbEntity
  8
CSLAYER2
  6
CONTINUOUS
 62
     3
100
AcDbLine
 10
142.659722
 20
57.599539
 30
0.0
 11
142.659722
 21
36.159539
 31
0.0
  0
LINE
  5
518
330
50D
100
AcDbEntity
  8
CSLAYER2
  6
CONTINUOUS
 62
     3
100
AcDbLine
 10
131.159722
 20
59.276889
 30
0.0
 11
131.159722
 21
36.159539
 31
0.0
  0
LINE
  5
519
330
50D
100
AcDbEntity
  8
CSLAYER2
  6
CONTINUOUS
 62
     3
100
AcDbLine
 10
142.659722
 20
36.959539
 30
0.0
 11
131.159722
 21
36.959539
 31
0.0
  0
TEXT
  5
51A
330
50D
100
AcDbEntity
  8
CSLAYER2
 62
     3
100
AcDbText
 10
132.88681
 20
37.82674
 30
0.0
 40
3.0
  1
11.5
 41
0.877612
  7
ED_VECTOR
 72
     5
 11
141.28681
 21
37.82674
 31
0.0
100
AcDbText
  0
ENDBLK
  5
50F
330
50D
100
AcDbEntity
  8
0
100
AcDbBlockEnd
  0
BLOCK
  5
51C
330
51B
100
AcDbEntity
  8
0
100
AcDbBlockBegin
  2
BLKF027
 70
     0
 71
     0
 10
0.0
 20
0.0
 30
0.0
  3
BLKF027
  1

  0
LINE
  5
51F
330
51B
100
AcDbEntity
  8
CSLAYER2
  6
CONTINUOUS
 62
     3
100
AcDbLine
 10
133.159722
 20
28.212621
 30
0.0
 11
131.159722
 21
28.748519
 31
0.0
  0
LINE
  5
520
330
51B
100
AcDbEntity
  8
CSLAYER2
  6
CONTINUOUS
 62
     3
100
AcDbLine
 10
131.159722
 20
28.748519
 30
0.0
 11
133.159722
 21
29.284417
 31
0.0
  0
LINE
  5
521
330
51B
100
AcDbEntity
  8
CSLAYER2
  6
CONTINUOUS
 62
     3
100
AcDbLine
 10
131.159722
 20
28.748519
 30
0.0
 11
133.159722
 21
28.748519
 31
0.0
  0
LINE
  5
522
330
51B
100
AcDbEntity
  8
CSLAYER2
  6
CONTINUOUS
 62
     3
100
AcDbLine
 10
143.731225
 20
29.284417
 30
0.0
 11
145.731225
 21
28.748519
 31
0.0
  0
LINE
  5
523
330
51B
100
AcDbEntity
  8
CSLAYER2
  6
CONTINUOUS
 62
     3
100
AcDbLine
 10
145.731225
 20
28.748519
 30
0.0
 11
143.731225
 21
28.212621
 31
0.0
  0
LINE
  5
524
330
51B
100
AcDbEntity
  8
CSLAYER2
  6
CONTINUOUS
 62
     3
100
AcDbLine
 10
145.731225
 20
28.748519
 30
0.0
 11
143.731225
 21
28.748519
 31
0.0
  0
LINE
  5
525
330
51B
100
AcDbEntity
  8
CSLAYER2
  6
CONTINUOUS
 62
     3
100
AcDbLine
 10
131.159722
 20
59.276889
 30
0.0
 11
131.159722
 21
27.948519
 31
0.0
  0
LINE
  5
526
330
51B
100
AcDbEntity
  8
CSLAYER2
  6
CONTINUOUS
 62
     3
100
AcDbLine
 10
145.731225
 20
53.449539
 30
0.0
 11
145.731225
 21
27.948519
 31
0.0
  0
LINE
  5
527
330
51B
100
AcDbEntity
  8
CSLAYER2
  6
CONTINUOUS
 62
     3
100
AcDbLine
 10
131.159722
 20
28.748519
 30
0.0
 11
145.731225
 21
28.748519
 31
0.0
  0
TEXT
  5
528
330
51B
100
AcDbEntity
  8
CSLAYER2
 62
     3
100
AcDbText
 10
132.072495
 20
29.615723
 30
0.0
 40
3.0
  1
(14.6)
 41
0.938298
  7
ED_VECTOR
 72
     5
 11
144.672494
 21
29.615723
 31
0.0
100
AcDbText
  0
ENDBLK
  5
51D
330
51B
100
AcDbEntity
  8
0
100
AcDbBlockEnd
  0
BLOCK
  5
52A
330
529
100
AcDbEntity
  8
0
100
AcDbBlockBegin
  2
BLKF028
 70
     0
 71
     0
 10
0.0
 20
0.0
 30
0.0
  3
BLKF028
  1

  0
LINE
  5
52D
330
529
100
AcDbEntity
  8
CSLAYER2
  6
CONTINUOUS
 62
     3
100
AcDbLine
 10
147.731225
 20
28.212621
 30
0.0
 11
145.731225
 21
28.748519
 31
0.0
  0
LINE
  5
52E
330
529
100
AcDbEntity
  8
CSLAYER2
  6
CONTINUOUS
 62
     3
100
AcDbLine
 10
145.731225
 20
28.748519
 30
0.0
 11
147.731225
 21
29.284417
 31
0.0
  0
LINE
  5
52F
330
529
100
AcDbEntity
  8
CSLAYER2
  6
CONTINUOUS
 62
     3
100
AcDbLine
 10
145.731225
 20
28.748519
 30
0.0
 11
147.731225
 21
28.748519
 31
0.0
  0
LINE
  5
530
330
529
100
AcDbEntity
  8
CSLAYER2
  6
CONTINUOUS
 62
     3
100
AcDbLine
 10
231.931225
 20
29.284417
 30
0.0
 11
233.931225
 21
28.748519
 31
0.0
  0
LINE
  5
531
330
529
100
AcDbEntity
  8
CSLAYER2
  6
CONTINUOUS
 62
     3
100
AcDbLine
 10
233.931225
 20
28.748519
 30
0.0
 11
231.931225
 21
28.212621
 31
0.0
  0
LINE
  5
532
330
529
100
AcDbEntity
  8
CSLAYER2
  6
CONTINUOUS
 62
     3
100
AcDbLine
 10
233.931225
 20
28.748519
 30
0.0
 11
231.931225
 21
28.748519
 31
0.0
  0
LINE
  5
533
330
529
100
AcDbEntity
  8
CSLAYER2
  6
CONTINUOUS
 62
     3
100
AcDbLine
 10
145.731225
 20
53.449539
 30
0.0
 11
145.731225
 21
27.948519
 31
0.0
  0
LINE
  5
534
330
529
100
AcDbEntity
  8
CSLAYER2
  6
CONTINUOUS
 62
     3
100
AcDbLine
 10
233.931225
 20
54.749539
 30
0.0
 11
233.931225
 21
27.948519
 31
0.0
  0
LINE
  5
535
330
529
100
AcDbEntity
  8
CSLAYER2
  6
CONTINUOUS
 62
     3
100
AcDbLine
 10
145.731225
 20
28.748519
 30
0.0
 11
233.931225
 21
28.748519
 31
0.0
  0
TEXT
  5
536
330
529
100
AcDbEntity
  8
CSLAYER2
 62
     3
100
AcDbText
 10
185.808304
 20
29.615723
 30
0.0
 40
3.0
  1
88.2
 41
0.877612
  7
ED_VECTOR
 72
     5
 11
194.208303
 21
29.615723
 31
0.0
100
AcDbText
  0
ENDBLK
  5
52B
330
529
100
AcDbEntity
  8
0
100
AcDbBlockEnd
  0
BLOCK
  5
538
330
537
100
AcDbEntity
  8
0
100
AcDbBlockBegin
  2
BLKF029
 70
     0
 71
     0
 10
0.0
 20
0.0
 30
0.0
  3
BLKF029
  1

  0
LINE
  5
53B
330
537
100
AcDbEntity
  8
CSLAYER2
  6
CONTINUOUS
 62
     3
100
AcDbLine
 10
133.159722
 20
20.264102
 30
0.0
 11
131.159722
 21
20.8
 31
0.0
  0
LINE
  5
53C
330
537
100
AcDbEntity
  8
CSLAYER2
  6
CONTINUOUS
 62
     3
100
AcDbLine
 10
131.159722
 20
20.8
 30
0.0
 11
133.159722
 21
21.335898
 31
0.0
  0
LINE
  5
53D
330
537
100
AcDbEntity
  8
CSLAYER2
  6
CONTINUOUS
 62
     3
100
AcDbLine
 10
131.159722
 20
20.8
 30
0.0
 11
133.159722
 21
20.8
 31
0.0
  0
LINE
  5
53E
330
537
100
AcDbEntity
  8
CSLAYER2
  6
CONTINUOUS
 62
     3
100
AcDbLine
 10
231.931225
 20
21.335898
 30
0.0
 11
233.931225
 21
20.8
 31
0.0
  0
LINE
  5
53F
330
537
100
AcDbEntity
  8
CSLAYER2
  6
CONTINUOUS
 62
     3
100
AcDbLine
 10
233.931225
 20
20.8
 30
0.0
 11
231.931225
 21
20.264102
 31
0.0
  0
LINE
  5
540
330
537
100
AcDbEntity
  8
CSLAYER2
  6
CONTINUOUS
 62
     3
100
AcDbLine
 10
233.931225
 20
20.8
 30
0.0
 11
231.931225
 21
20.8
 31
0.0
  0
LINE
  5
541
330
537
100
AcDbEntity
  8
CSLAYER2
  6
CONTINUOUS
 62
     3
100
AcDbLine
 10
131.159722
 20
59.276889
 30
0.0
 11
131.159722
 21
20.0
 31
0.0
  0
LINE
  5
542
330
537
100
AcDbEntity
  8
CSLAYER2
  6
CONTINUOUS
 62
     3
100
AcDbLine
 10
233.931225
 20
54.749539
 30
0.0
 11
233.931225
 21
20.0
 31
0.0
  0
LINE
  5
543
330
537
100
AcDbEntity
  8
CSLAYER2
  6
CONTINUOUS
 62
     3
100
AcDbLine
 10
131.159722
 20
20.8
 30
0.0
 11
233.931225
 21
20.8
 31
0.0
  0
TEXT
  5
544
330
537
100
AcDbEntity
  8
CSLAYER2
 62
     3
100
AcDbText
 10
177.327774
 20
21.667204
 30
0.0
 40
3.0
  1
(102.8)
 41
0.902632
  7
ED_VECTOR
 72
     5
 11
192.027773
 21
21.667204
 31
0.0
100
AcDbText
  0
ENDBLK
  5
539
330
537
100
AcDbEntity
  8
0
100
AcDbBlockEnd
  0
BLOCK
  5
546
330
545
100
AcDbEntity
  8
0
100
AcDbBlockBegin
  2
BLKF030
 70
     0
 71
     0
 10
0.0
 20
0.0
 30
0.0
  3
BLKF030
  1

  0
LINE
  5
549
330
545
100
AcDbEntity
  8
CSLAYER2
  6
CONTINUOUS
 62
     3
100
AcDbLine
 10
147.731225
 20
36.423641
 30
0.0
 11
145.731225
 21
36.959539
 31
0.0
  0
LINE
  5
54A
330
545
100
AcDbEntity
  8
CSLAYER2
  6
CONTINUOUS
 62
     3
100
AcDbLine
 10
145.731225
 20
36.959539
 30
0.0
 11
147.731225
 21
37.495437
 31
0.0
  0
LINE
  5
54B
330
545
100
AcDbEntity
  8
CSLAYER2
  6
CONTINUOUS
 62
     3
100
AcDbLine
 10
145.731225
 20
36.959539
 30
0.0
 11
147.731225
 21
36.959539
 31
0.0
  0
LINE
  5
54C
330
545
100
AcDbEntity
  8
CSLAYER2
  6
CONTINUOUS
 62
     3
100
AcDbLine
 10
170.331225
 20
37.495437
 30
0.0
 11
172.331225
 21
36.959539
 31
0.0
  0
LINE
  5
54D
330
545
100
AcDbEntity
  8
CSLAYER2
  6
CONTINUOUS
 62
     3
100
AcDbLine
 10
172.331225
 20
36.959539
 30
0.0
 11
170.331225
 21
36.423641
 31
0.0
  0
LINE
  5
54E
330
545
100
AcDbEntity
  8
CSLAYER2
  6
CONTINUOUS
 62
     3
100
AcDbLine
 10
172.331225
 20
36.959539
 30
0.0
 11
170.331225
 21
36.959539
 31
0.0
  0
LINE
  5
54F
330
545
100
AcDbEntity
  8
CSLAYER2
  6
CONTINUOUS
 62
     3
100
AcDbLine
 10
145.731225
 20
53.449539
 30
0.0
 11
145.731225
 21
36.159539
 31
0.0
  0
LINE
  5
550
330
545
100
AcDbEntity
  8
CSLAYER2
  6
CONTINUOUS
 62
     3
100
AcDbLine
 10
172.331225
 20
47.962086
 30
0.0
 11
172.331225
 21
36.159539
 31
0.0
  0
LINE
  5
551
330
545
100
AcDbEntity
  8
CSLAYER2
  6
CONTINUOUS
 62
     3
100
AcDbLine
 10
145.731225
 20
36.959539
 30
0.0
 11
172.331225
 21
36.959539
 31
0.0
  0
TEXT
  5
552
330
545
100
AcDbEntity
  8
CSLAYER2
 62
     3
100
AcDbText
 10
155.008301
 20
37.82674
 30
0.0
 40
3.0
  1
26.6
 41
0.877612
  7
ED_VECTOR
 72
     5
 11
163.4083
 21
37.82674
 31
0.0
100
AcDbText
  0
ENDBLK
  5
547
330
545
100
AcDbEntity
  8
0
100
AcDbBlockEnd
  0
BLOCK
  5
554
330
553
100
AcDbEntity
  8
0
100
AcDbBlockBegin
  2
BLKF031
 70
     0
 71
     0
 10
0.0
 20
0.0
 30
0.0
  3
BLKF031
  1

  0
LINE
  5
557
330
553
100
AcDbEntity
  8
CSLAYER2
  6
CONTINUOUS
 62
     3
100
AcDbLine
 10
170.331225
 20
37.495437
 30
0.0
 11
172.331225
 21
36.959539
 31
0.0
  0
LINE
  5
558
330
553
100
AcDbEntity
  8
CSLAYER2
  6
CONTINUOUS
 62
     3
100
AcDbLine
 10
172.331225
 20
36.959539
 30
0.0
 11
170.331225
 21
36.423641
 31
0.0
  0
LINE
  5
559
330
553
100
AcDbEntity
  8
CSLAYER2
  6
CONTINUOUS
 62
     3
100
AcDbLine
 10
172.331225
 20
36.959539
 30
0.0
 11
170.331225
 21
36.959539
 31
0.0
  0
LINE
  5
55A
330
553
100
AcDbEntity
  8
CSLAYER2
  6
CONTINUOUS
 62
     3
100
AcDbLine
 10
184.331225
 20
36.423641
 30
0.0
 11
182.331225
 21
36.959539
 31
0.0
  0
LINE
  5
55B
330
553
100
AcDbEntity
  8
CSLAYER2
  6
CONTINUOUS
 62
     3
100
AcDbLine
 10
182.331225
 20
36.959539
 30
0.0
 11
184.331225
 21
37.495437
 31
0.0
  0
LINE
  5
55C
330
553
100
AcDbEntity
  8
CSLAYER2
  6
CONTINUOUS
 62
     3
100
AcDbLine
 10
182.331225
 20
36.959539
 30
0.0
 11
184.331225
 21
36.959539
 31
0.0
  0
LINE
  5
55D
330
553
100
AcDbEntity
  8
CSLAYER2
  6
CONTINUOUS
 62
     3
100
AcDbLine
 10
172.331225
 20
47.962086
 30
0.0
 11
172.331225
 21
36.159539
 31
0.0
  0
LINE
  5
55E
330
553
100
AcDbEntity
  8
CSLAYER2
  6
CONTINUOUS
 62
     3
100
AcDbLine
 10
182.331225
 20
47.962086
 30
0.0
 11
182.331225
 21
36.159539
 31
0.0
  0
LINE
  5
55F
330
553
100
AcDbEntity
  8
CSLAYER2
  6
CONTINUOUS
 62
     3
100
AcDbLine
 10
172.331225
 20
36.959539
 30
0.0
 11
169.331225
 21
36.959539
 31
0.0
  0
LINE
  5
560
330
553
100
AcDbEntity
  8
CSLAYER2
  6
CONTINUOUS
 62
     3
100
AcDbLine
 10
172.331225
 20
36.959539
 30
0.0
 11
182.331225
 21
36.959539
 31
0.0
  0
LINE
  5
561
330
553
100
AcDbEntity
  8
CSLAYER2
  6
CONTINUOUS
 62
     3
100
AcDbLine
 10
182.331225
 20
36.959539
 30
0.0
 11
185.331225
 21
36.959539
 31
0.0
  0
TEXT
  5
562
330
553
100
AcDbEntity
  8
CSLAYER2
 62
     3
100
AcDbText
 10
174.535385
 20
37.82674
 30
0.0
 40
3.0
  1
10
 41
0.794595
  7
ED_VECTOR
 72
     5
 11
178.735385
 21
37.82674
 31
0.0
100
AcDbText
  0
ENDBLK
  5
555
330
553
100
AcDbEntity
  8
0
100
AcDbBlockEnd
  0
BLOCK
  5
564
330
563
100
AcDbEntity
  8
0
100
AcDbBlockBegin
  2
BLKF032
 70
     0
 71
     0
 10
0.0
 20
0.0
 30
0.0
  3
BLKF032
  1

  0
LINE
  5
567
330
563
100
AcDbEntity
  8
CSLAYER2
  6
CONTINUOUS
 62
     3
100
AcDbLine
 10
109.029656
 20
54.809539
 30
0.0
 11
109.565554
 21
56.809539
 31
0.0
  0
LINE
  5
568
330
563
100
AcDbEntity
  8
CSLAYER2
  6
CONTINUOUS
 62
     3
100
AcDbLine
 10
109.565554
 20
56.809539
 30
0.0
 11
110.101452
 21
54.809539
 31
0.0
  0
LINE
  5
569
330
563
100
AcDbEntity
  8
CSLAYER2
  6
CONTINUOUS
 62
     3
100
AcDbLine
 10
109.565554
 20
56.809539
 30
0.0
 11
109.565554
 21
54.809539
 31
0.0
  0
LINE
  5
56A
330
563
100
AcDbEntity
  8
CSLAYER2
  6
CONTINUOUS
 62
     3
100
AcDbLine
 10
110.101452
 20
70.609539
 30
0.0
 11
109.565554
 21
68.609539
 31
0.0
  0
LINE
  5
56B
330
563
100
AcDbEntity
  8
CSLAYER2
  6
CONTINUOUS
 62
     3
100
AcDbLine
 10
109.565554
 20
68.609539
 30
0.0
 11
109.029656
 21
70.609539
 31
0.0
  0
LINE
  5
56C
330
563
100
AcDbEntity
  8
CSLAYER2
  6
CONTINUOUS
 62
     3
100
AcDbLine
 10
109.565554
 20
68.609539
 30
0.0
 11
109.565554
 21
70.609539
 31
0.0
  0
LINE
  5
56D
330
563
100
AcDbEntity
  8
CSLAYER2
  6
CONTINUOUS
 62
     3
100
AcDbLine
 10
134.708568
 20
56.809539
 30
0.0
 11
108.765554
 21
56.809539
 31
0.0
  0
LINE
  5
56E
330
563
100
AcDbEntity
  8
CSLAYER2
  6
CONTINUOUS
 62
     3
100
AcDbLine
 10
134.708568
 20
68.609539
 30
0.0
 11
108.765554
 21
68.609539
 31
0.0
  0
LINE
  5
56F
330
563
100
AcDbEntity
  8
CSLAYER2
  6
CONTINUOUS
 62
     3
100
AcDbLine
 10
109.565554
 20
56.809539
 30
0.0
 11
109.565554
 21
53.809539
 31
0.0
  0
LINE
  5
570
330
563
100
AcDbEntity
  8
CSLAYER2
  6
CONTINUOUS
 62
     3
100
AcDbLine
 10
109.565554
 20
56.809539
 30
0.0
 11
109.565554
 21
68.609539
 31
0.0
  0
LINE
  5
571
330
563
100
AcDbEntity
  8
CSLAYER2
  6
CONTINUOUS
 62
     3
100
AcDbLine
 10
109.565554
 20
68.609539
 30
0.0
 11
109.565554
 21
71.609539
 31
0.0
  0
TEXT
  5
572
330
563
100
AcDbEntity
  8
CSLAYER2
 62
     3
100
AcDbText
 10
108.698349
 20
57.02808
 30
0.0
 40
3.0
  1
%%c
 50
90.0
 41
0.864706
  7
ED_VECTOR
 72
     5
 11
108.698349
 21
59.12808
 31
0.0
100
AcDbText
  0
TEXT
  5
573
330
563
100
AcDbEntity
  8
CSLAYER2
 62
     3
100
AcDbText
 10
108.698349
 20
60.345165
 30
0.0
 40
3.0
  1
11.8
 50
90.0
 41
0.877612
  7
ED_VECTOR
 72
     5
 11
108.698349
 21
68.745165
 31
0.0
100
AcDbText
  0
ENDBLK
  5
565
330
563
100
AcDbEntity
  8
0
100
AcDbBlockEnd
  0
BLOCK
  5
575
330
574
100
AcDbEntity
  8
0
100
AcDbBlockBegin
  2
BLKF033
 70
     0
 71
     0
 10
0.0
 20
0.0
 30
0.0
  3
BLKF033
  1

  0
LINE
  5
578
330
574
100
AcDbEntity
  8
CSLAYER2
  6
CONTINUOUS
 62
     3
100
AcDbLine
 10
102.69562
 20
74.234539
 30
0.0
 11
102.159722
 21
72.234539
 31
0.0
  0
LINE
  5
579
330
574
100
AcDbEntity
  8
CSLAYER2
  6
CONTINUOUS
 62
     3
100
AcDbLine
 10
102.159722
 20
72.234539
 30
0.0
 11
101.623824
 21
74.234539
 31
0.0
  0
LINE
  5
57A
330
574
100
AcDbEntity
  8
CSLAYER2
  6
CONTINUOUS
 62
     3
100
AcDbLine
 10
102.159722
 20
72.234539
 30
0.0
 11
102.159722
 21
74.234539
 31
0.0
  0
LINE
  5
57B
330
574
100
AcDbEntity
  8
CSLAYER2
  6
CONTINUOUS
 62
     3
100
AcDbLine
 10
101.623824
 20
51.184539
 30
0.0
 11
102.159722
 21
53.184539
 31
0.0
  0
LINE
  5
57C
330
574
100
AcDbEntity
  8
CSLAYER2
  6
CONTINUOUS
 62
     3
100
AcDbLine
 10
102.159722
 20
53.184539
 30
0.0
 11
102.69562
 21
51.184539
 31
0.0
  0
LINE
  5
57D
330
574
100
AcDbEntity
  8
CSLAYER2
  6
CONTINUOUS
 62
     3
100
AcDbLine
 10
102.159722
 20
53.184539
 30
0.0
 11
102.159722
 21
51.184539
 31
0.0
  0
LINE
  5
57E
330
574
100
AcDbEntity
  8
CSLAYER2
  6
CONTINUOUS
 62
     3
100
AcDbLine
 10
152.121225
 20
72.234539
 30
0.0
 11
101.359722
 21
72.234539
 31
0.0
  0
LINE
  5
57F
330
574
100
AcDbEntity
  8
CSLAYER2
  6
CONTINUOUS
 62
     3
100
AcDbLine
 10
152.121225
 20
53.184539
 30
0.0
 11
101.359722
 21
53.184539
 31
0.0
  0
LINE
  5
580
330
574
100
AcDbEntity
  8
CSLAYER2
  6
CONTINUOUS
 62
     3
100
AcDbLine
 10
102.159722
 20
72.234539
 30
0.0
 11
102.159722
 21
75.234539
 31
0.0
  0
LINE
  5
581
330
574
100
AcDbEntity
  8
CSLAYER2
  6
CONTINUOUS
 62
     3
100
AcDbLine
 10
102.159722
 20
72.234539
 30
0.0
 11
102.159722
 21
53.184539
 31
0.0
  0
LINE
  5
582
330
574
100
AcDbEntity
  8
CSLAYER2
  6
CONTINUOUS
 62
     3
100
AcDbLine
 10
102.159722
 20
53.184539
 30
0.0
 11
102.159722
 21
50.184539
 31
0.0
  0
TEXT
  5
583
330
574
100
AcDbEntity
  8
CSLAYER2
 62
     3
100
AcDbText
 10
101.292519
 20
52.547249
 30
0.0
 40
3.0
  1
%%c
 50
90.0
 41
0.864706
  7
ED_VECTOR
 72
     5
 11
101.292519
 21
54.647249
 31
0.0
100
AcDbText
  0
TEXT
  5
584
330
574
100
AcDbEntity
  8
CSLAYER2
 62
     3
100
AcDbText
 10
101.292519
 20
55.86433
 30
0.0
 40
3.0
  1
19.05
 50
90.0
 41
0.844828
  7
ED_VECTOR
 72
     5
 11
101.292519
 21
66.36433
 31
0.0
100
AcDbText
  0
TEXT
  5
585
330
574
100
AcDbEntity
  8
CSLAYER2
 62
     3
100
AcDbText
 10
101.367622
 20
66.718498
 30
0.0
 40
2.4
  1
-
 50
90.0
 41
0.668182
  7
ED_VECTOR
 72
     5
 11
101.367622
 21
68.398498
 31
0.0
100
AcDbText
  0
TEXT
  5
586
330
574
100
AcDbEntity
  8
CSLAYER2
 62
     3
100
AcDbText
 10
98.574295
 20
68.115166
 30
0.0
 40
2.4
  1
0
 50
90.0
 41
0.864706
  7
ED_VECTOR
 72
     5
 11
98.574295
 21
69.795166
 31
0.0
100
AcDbText
  0
TEXT
  5
587
330
574
100
AcDbEntity
  8
CSLAYER2
 62
     3
100
AcDbText
 10
101.367622
 20
68.115166
 30
0.0
 40
2.4
  1
0.01
 50
90.0
 41
0.963934
  7
ED_VECTOR
 72
     5
 11
101.367622
 21
74.835166
 31
0.0
100
AcDbText
  0
ENDBLK
  5
576
330
574
100
AcDbEntity
  8
0
100
AcDbBlockEnd
  0
BLOCK
  5
589
330
588
100
AcDbEntity
  8
0
100
AcDbBlockBegin
  2
BLKF034
 70
     0
 71
     0
 10
0.0
 20
0.0
 30
0.0
  3
BLKF034
  1

  0
LINE
  5
58C
330
588
100
AcDbEntity
  8
CSLAYER2
  6
CONTINUOUS
 62
     3
100
AcDbLine
 10
249.710022
 20
51.184539
 30
0.0
 11
250.24592
 21
53.184539
 31
0.0
  0
LINE
  5
58D
330
588
100
AcDbEntity
  8
CSLAYER2
  6
CONTINUOUS
 62
     3
100
AcDbLine
 10
250.24592
 20
53.184539
 30
0.0
 11
250.781818
 21
51.184539
 31
0.0
  0
LINE
  5
58E
330
588
100
AcDbEntity
  8
CSLAYER2
  6
CONTINUOUS
 62
     3
100
AcDbLine
 10
250.24592
 20
53.184539
 30
0.0
 11
250.24592
 21
51.184539
 31
0.0
  0
LINE
  5
58F
330
588
100
AcDbEntity
  8
CSLAYER2
  6
CONTINUOUS
 62
     3
100
AcDbLine
 10
250.781818
 20
74.234539
 30
0.0
 11
250.24592
 21
72.234539
 31
0.0
  0
LINE
  5
590
330
588
100
AcDbEntity
  8
CSLAYER2
  6
CONTINUOUS
 62
     3
100
AcDbLine
 10
250.24592
 20
72.234539
 30
0.0
 11
249.710022
 21
74.234539
 31
0.0
  0
LINE
  5
591
330
588
100
AcDbEntity
  8
CSLAYER2
  6
CONTINUOUS
 62
     3
100
AcDbLine
 10
250.24592
 20
72.234539
 30
0.0
 11
250.24592
 21
74.234539
 31
0.0
  0
LINE
  5
592
330
588
100
AcDbEntity
  8
CSLAYER2
  6
CONTINUOUS
 62
     3
100
AcDbLine
 10
208.241225
 20
53.184539
 30
0.0
 11
251.04592
 21
53.184539
 31
0.0
  0
LINE
  5
593
330
588
100
AcDbEntity
  8
CSLAYER2
  6
CONTINUOUS
 62
     3
100
AcDbLine
 10
208.241225
 20
72.234539
 30
0.0
 11
251.04592
 21
72.234539
 31
0.0
  0
LINE
  5
594
330
588
100
AcDbEntity
  8
CSLAYER2
  6
CONTINUOUS
 62
     3
100
AcDbLine
 10
250.24592
 20
53.184539
 30
0.0
 11
250.24592
 21
50.184539
 31
0.0
  0
LINE
  5
595
330
588
100
AcDbEntity
  8
CSLAYER2
  6
CONTINUOUS
 62
     3
100
AcDbLine
 10
250.24592
 20
53.184539
 30
0.0
 11
250.24592
 21
72.234539
 31
0.0
  0
LINE
  5
596
330
588
100
AcDbEntity
  8
CSLAYER2
  6
CONTINUOUS
 62
     3
100
AcDbLine
 10
250.24592
 20
72.234539
 30
0.0
 11
250.24592
 21
75.234539
 31
0.0
  0
TEXT
  5
597
330
588
100
AcDbEntity
  8
CSLAYER2
 62
     3
100
AcDbText
 10
249.378723
 20
52.547249
 30
0.0
 40
3.0
  1
%%c
 50
90.0
 41
0.864706
  7
ED_VECTOR
 72
     5
 11
249.378723
 21
54.647249
 31
0.0
100
AcDbText
  0
TEXT
  5
598
330
588
100
AcDbEntity
  8
CSLAYER2
 62
     3
100
AcDbText
 10
249.378723
 20
55.86433
 30
0.0
 40
3.0
  1
19.05
 50
90.0
 41
0.844828
  7
ED_VECTOR
 72
     5
 11
249.378723
 21
66.36433
 31
0.0
100
AcDbText
  0
TEXT
  5
599
330
588
100
AcDbEntity
  8
CSLAYER2
 62
     3
100
AcDbText
 10
249.453827
 20
66.718498
 30
0.0
 40
2.4
  1
-
 50
90.0
 41
0.668182
  7
ED_VECTOR
 72
     5
 11
249.453827
 21
68.398498
 31
0.0
100
AcDbText
  0
TEXT
  5
59A
330
588
100
AcDbEntity
  8
CSLAYER2
 62
     3
100
AcDbText
 10
246.660492
 20
68.115166
 30
0.0
 40
2.4
  1
0
 50
90.0
 41
0.864706
  7
ED_VECTOR
 72
     5
 11
246.660492
 21
69.795166
 31
0.0
100
AcDbText
  0
TEXT
  5
59B
330
588
100
AcDbEntity
  8
CSLAYER2
 62
     3
100
AcDbText
 10
249.453827
 20
68.115166
 30
0.0
 40
2.4
  1
0.01
 50
90.0
 41
0.963934
  7
ED_VECTOR
 72
     5
 11
249.453827
 21
74.835166
 31
0.0
100
AcDbText
  0
ENDBLK
  5
58A
330
588
100
AcDbEntity
  8
0
100
AcDbBlockEnd
  0
BLOCK
  5
59D
330
59C
100
AcDbEntity
  8
0
100
AcDbBlockBegin
  2
BLKF035
 70
     0
 71
     0
 10
0.0
 20
0.0
 30
0.0
  3
BLKF035
  1

  0
LINE
  5
5A0
330
59C
100
AcDbEntity
  8
CSLAYER2
  6
CONTINUOUS
 62
     3
100
AcDbLine
 10
223.831225
 20
37.495437
 30
0.0
 11
225.831225
 21
36.959539
 31
0.0
  0
LINE
  5
5A1
330
59C
100
AcDbEntity
  8
CSLAYER2
  6
CONTINUOUS
 62
     3
100
AcDbLine
 10
225.831225
 20
36.959539
 30
0.0
 11
223.831225
 21
36.423641
 31
0.0
  0
LINE
  5
5A2
330
59C
100
AcDbEntity
  8
CSLAYER2
  6
CONTINUOUS
 62
     3
100
AcDbLine
 10
225.831225
 20
36.959539
 30
0.0
 11
223.831225
 21
36.959539
 31
0.0
  0
LINE
  5
5A3
330
59C
100
AcDbEntity
  8
CSLAYER2
  6
CONTINUOUS
 62
     3
100
AcDbLine
 10
235.931225
 20
36.423641
 30
0.0
 11
233.931225
 21
36.959539
 31
0.0
  0
LINE
  5
5A4
330
59C
100
AcDbEntity
  8
CSLAYER2
  6
CONTINUOUS
 62
     3
100
AcDbLine
 10
233.931225
 20
36.959539
 30
0.0
 11
235.931225
 21
37.495437
 31
0.0
  0
LINE
  5
5A5
330
59C
100
AcDbEntity
  8
CSLAYER2
  6
CONTINUOUS
 62
     3
100
AcDbLine
 10
233.931225
 20
36.959539
 30
0.0
 11
235.931225
 21
36.959539
 31
0.0
  0
LINE
  5
5A6
330
59C
100
AcDbEntity
  8
CSLAYER2
  6
CONTINUOUS
 62
     3
100
AcDbLine
 10
225.831225
 20
53.349539
 30
0.0
 11
225.831225
 21
36.159539
 31
0.0
  0
LINE
  5
5A7
330
59C
100
AcDbEntity
  8
CSLAYER2
  6
CONTINUOUS
 62
     3
100
AcDbLine
 10
233.931225
 20
54.749539
 30
0.0
 11
233.931225
 21
36.159539
 31
0.0
  0
LINE
  5
5A8
330
59C
100
AcDbEntity
  8
CSLAYER2
  6
CONTINUOUS
 62
     3
100
AcDbLine
 10
225.831225
 20
36.959539
 30
0.0
 11
222.831225
 21
36.959539
 31
0.0
  0
LINE
  5
5A9
330
59C
100
AcDbEntity
  8
CSLAYER2
  6
CONTINUOUS
 62
     3
100
AcDbLine
 10
225.831225
 20
36.959539
 30
0.0
 11
233.931225
 21
36.959539
 31
0.0
  0
LINE
  5
5AA
330
59C
100
AcDbEntity
  8
CSLAYER2
  6
CONTINUOUS
 62
     3
100
AcDbLine
 10
233.931225
 20
36.959539
 30
0.0
 11
236.931225
 21
36.959539
 31
0.0
  0
TEXT
  5
5AB
330
59C
100
AcDbEntity
  8
CSLAYER2
 62
     3
100
AcDbText
 10
226.731232
 20
37.82674
 30
0.0
 40
3.0
  1
8.1
 41
1.07561
  7
ED_VECTOR
 72
     5
 11
233.031231
 21
37.82674
 31
0.0
100
AcDbText
  0
ENDBLK
  5
59E
330
59C
100
AcDbEntity
  8
0
100
AcDbBlockEnd
  0
BLOCK
  5
5AD
330
5AC
100
AcDbEntity
  8
0
100
AcDbBlockBegin
  2
BLKF036
 70
     0
 71
     0
 10
0.0
 20
0.0
 30
0.0
  3
BLKF036
  1

  0
LINE
  5
5B0
330
5AC
100
AcDbEntity
  8
CSLAYER2
  6
CONTINUOUS
 62
     3
100
AcDbLine
 10
184.331225
 20
36.423641
 30
0.0
 11
182.331225
 21
36.959539
 31
0.0
  0
LINE
  5
5B1
330
5AC
100
AcDbEntity
  8
CSLAYER2
  6
CONTINUOUS
 62
     3
100
AcDbLine
 10
182.331225
 20
36.959539
 30
0.0
 11
184.331225
 21
37.495437
 31
0.0
  0
LINE
  5
5B2
330
5AC
100
AcDbEntity
  8
CSLAYER2
  6
CONTINUOUS
 62
     3
100
AcDbLine
 10
182.331225
 20
36.959539
 30
0.0
 11
184.331225
 21
36.959539
 31
0.0
  0
LINE
  5
5B3
330
5AC
100
AcDbEntity
  8
CSLAYER2
  6
CONTINUOUS
 62
     3
100
AcDbLine
 10
223.831225
 20
37.495437
 30
0.0
 11
225.831225
 21
36.959539
 31
0.0
  0
LINE
  5
5B4
330
5AC
100
AcDbEntity
  8
CSLAYER2
  6
CONTINUOUS
 62
     3
100
AcDbLine
 10
225.831225
 20
36.959539
 30
0.0
 11
223.831225
 21
36.423641
 31
0.0
  0
LINE
  5
5B5
330
5AC
100
AcDbEntity
  8
CSLAYER2
  6
CONTINUOUS
 62
     3
100
AcDbLine
 10
225.831225
 20
36.959539
 30
0.0
 11
223.831225
 21
36.959539
 31
0.0
  0
LINE
  5
5B6
330
5AC
100
AcDbEntity
  8
CSLAYER2
  6
CONTINUOUS
 62
     3
100
AcDbLine
 10
182.331225
 20
47.962086
 30
0.0
 11
182.331225
 21
36.159539
 31
0.0
  0
LINE
  5
5B7
330
5AC
100
AcDbEntity
  8
CSLAYER2
  6
CONTINUOUS
 62
     3
100
AcDbLine
 10
225.831225
 20
53.349539
 30
0.0
 11
225.831225
 21
36.159539
 31
0.0
  0
LINE
  5
5B8
330
5AC
100
AcDbEntity
  8
CSLAYER2
  6
CONTINUOUS
 62
     3
100
AcDbLine
 10
182.331225
 20
36.959539
 30
0.0
 11
225.831225
 21
36.959539
 31
0.0
  0
TEXT
  5
5B9
330
5AC
100
AcDbEntity
  8
CSLAYER2
 62
     3
100
AcDbText
 10
200.058304
 20
37.82674
 30
0.0
 40
3.0
  1
43.5
 41
0.877612
  7
ED_VECTOR
 72
     5
 11
208.458303
 21
37.82674
 31
0.0
100
AcDbText
  0
ENDBLK
  5
5AE
330
5AC
100
AcDbEntity
  8
0
100
AcDbBlockEnd
  0
BLOCK
  5
5DD
330
5DC
100
AcDbEntity
  8
0
100
AcDbBlockBegin
  2
BLKF037
 70
     0
 71
     0
 10
0.0
 20
0.0
 30
0.0
  3
BLKF037
  1

  0
LINE
  5
5E0
330
5DC
100
AcDbEntity
  8
0
  6
CONTINUOUS
 62
     7
100
AcDbLine
 10
50.711761
 20
64.744238
 30
0.0
 11
50.78187
 21
64.750245
 31
0.0
  0
LINE
  5
5E1
330
5DC
100
AcDbEntity
  8
0
  6
CONTINUOUS
 62
     7
100
AcDbLine
 10
50.78187
 20
64.750245
 30
0.0
 11
50.816911
 21
64.752969
 31
0.0
  0
LINE
  5
5E2
330
5DC
100
AcDbEntity
  8
0
  6
CONTINUOUS
 62
     7
100
AcDbLine
 10
50.816911
 20
64.752969
 30
0.0
 11
50.851937
 21
64.755358
 31
0.0
  0
LINE
  5
5E3
330
5DC
100
AcDbEntity
  8
0
  6
CONTINUOUS
 62
     7
100
AcDbLine
 10
50.851937
 20
64.755358
 30
0.0
 11
50.886943
 21
64.757299
 31
0.0
  0
LINE
  5
5E4
330
5DC
100
AcDbEntity
  8
0
  6
CONTINUOUS
 62
     7
100
AcDbLine
 10
50.886943
 20
64.757299
 30
0.0
 11
50.921923
 21
64.758681
 31
0.0
  0
LINE
  5
5E5
330
5DC
100
AcDbEntity
  8
0
  6
CONTINUOUS
 62
     7
100
AcDbLine
 10
50.921923
 20
64.758681
 30
0.0
 11
50.956872
 21
64.759391
 31
0.0
  0
LINE
  5
5E6
330
5DC
100
AcDbEntity
  8
0
  6
CONTINUOUS
 62
     7
100
AcDbLine
 10
50.956872
 20
64.759391
 30
0.0
 11
50.991785
 21
64.759319
 31
0.0
  0
LINE
  5
5E7
330
5DC
100
AcDbEntity
  8
0
  6
CONTINUOUS
 62
     7
100
AcDbLine
 10
50.991785
 20
64.759319
 30
0.0
 11
51.019338
 21
64.758655
 31
0.0
  0
LINE
  5
5E8
330
5DC
100
AcDbEntity
  8
0
  6
CONTINUOUS
 62
     7
100
AcDbLine
 10
51.019338
 20
64.758655
 30
0.0
 11
51.046869
 21
64.757503
 31
0.0
  0
LINE
  5
5E9
330
5DC
100
AcDbEntity
  8
0
  6
CONTINUOUS
 62
     7
100
AcDbLine
 10
51.046869
 20
64.757503
 30
0.0
 11
51.07438
 21
64.755932
 31
0.0
  0
LINE
  5
5EA
330
5DC
100
AcDbEntity
  8
0
  6
CONTINUOUS
 62
     7
100
AcDbLine
 10
51.07438
 20
64.755932
 30
0.0
 11
51.101876
 21
64.754012
 31
0.0
  0
LINE
  5
5EB
330
5DC
100
AcDbEntity
  8
0
  6
CONTINUOUS
 62
     7
100
AcDbLine
 10
51.101876
 20
64.754012
 30
0.0
 11
51.129358
 21
64.751813
 31
0.0
  0
LINE
  5
5EC
330
5DC
100
AcDbEntity
  8
0
  6
CONTINUOUS
 62
     7
100
AcDbLine
 10
51.129358
 20
64.751813
 30
0.0
 11
51.156831
 21
64.749404
 31
0.0
  0
LINE
  5
5ED
330
5DC
100
AcDbEntity
  8
0
  6
CONTINUOUS
 62
     7
100
AcDbLine
 10
51.156831
 20
64.749404
 30
0.0
 11
51.211761
 21
64.744238
 31
0.0
  0
ENDBLK
  5
5DE
330
5DC
100
AcDbEntity
  8
0
100
AcDbBlockEnd
  0
BLOCK
  5
5EF
330
5EE
100
AcDbEntity
  8
0
100
AcDbBlockBegin
  2
BLKF038
 70
     0
 71
     0
 10
0.0
 20
0.0
 30
0.0
  3
BLKF038
  1

  0
LINE
  5
5F2
330
5EE
100
AcDbEntity
  8
0
  6
CONTINUOUS
 62
     7
100
AcDbLine
 10
52.848862
 20
61.908695
 30
0.0
 11
52.824322
 21
61.855428
 31
0.0
  0
LINE
  5
5F3
330
5EE
100
AcDbEntity
  8
0
  6
CONTINUOUS
 62
     7
100
AcDbLine
 10
52.824322
 20
61.855428
 30
0.0
 11
52.81188
 21
61.828888
 31
0.0
  0
LINE
  5
5F4
330
5EE
100
AcDbEntity
  8
0
  6
CONTINUOUS
 62
     7
100
AcDbLine
 10
52.81188
 20
61.828888
 30
0.0
 11
52.79923
 21
61.802461
 31
0.0
  0
LINE
  5
5F5
330
5EE
100
AcDbEntity
  8
0
  6
CONTINUOUS
 62
     7
100
AcDbLine
 10
52.79923
 20
61.802461
 30
0.0
 11
52.786304
 21
61.776185
 31
0.0
  0
LINE
  5
5F6
330
5EE
100
AcDbEntity
  8
0
  6
CONTINUOUS
 62
     7
100
AcDbLine
 10
52.786304
 20
61.776185
 30
0.0
 11
52.773033
 21
61.750096
 31
0.0
  0
LINE
  5
5F7
330
5EE
100
AcDbEntity
  8
0
  6
CONTINUOUS
 62
     7
100
AcDbLine
 10
52.773033
 20
61.750096
 30
0.0
 11
52.759347
 21
61.724234
 31
0.0
  0
LINE
  5
5F8
330
5EE
100
AcDbEntity
  8
0
  6
CONTINUOUS
 62
     7
100
AcDbLine
 10
52.759347
 20
61.724234
 30
0.0
 11
52.745178
 21
61.698635
 31
0.0
  0
LINE
  5
5F9
330
5EE
100
AcDbEntity
  8
0
  6
CONTINUOUS
 62
     7
100
AcDbLine
 10
52.745178
 20
61.698635
 30
0.0
 11
52.728447
 21
61.669917
 31
0.0
  0
LINE
  5
5FA
330
5EE
100
AcDbEntity
  8
0
  6
CONTINUOUS
 62
     7
100
AcDbLine
 10
52.728447
 20
61.669917
 30
0.0
 11
52.711092
 21
61.641538
 31
0.0
  0
LINE
  5
5FB
330
5EE
100
AcDbEntity
  8
0
  6
CONTINUOUS
 62
     7
100
AcDbLine
 10
52.711092
 20
61.641538
 30
0.0
 11
52.693203
 21
61.613451
 31
0.0
  0
LINE
  5
5FC
330
5EE
100
AcDbEntity
  8
0
  6
CONTINUOUS
 62
     7
100
AcDbLine
 10
52.693203
 20
61.613451
 30
0.0
 11
52.67487
 21
61.585606
 31
0.0
  0
LINE
  5
5FD
330
5EE
100
AcDbEntity
  8
0
  6
CONTINUOUS
 62
     7
100
AcDbLine
 10
52.67487
 20
61.585606
 30
0.0
 11
52.656179
 21
61.557956
 31
0.0
  0
LINE
  5
5FE
330
5EE
100
AcDbEntity
  8
0
  6
CONTINUOUS
 62
     7
100
AcDbLine
 10
52.656179
 20
61.557956
 30
0.0
 11
52.637222
 21
61.530451
 31
0.0
  0
LINE
  5
5FF
330
5EE
100
AcDbEntity
  8
0
  6
CONTINUOUS
 62
     7
100
AcDbLine
 10
52.637222
 20
61.530451
 30
0.0
 11
52.598862
 21
61.475683
 31
0.0
  0
ENDBLK
  5
5F0
330
5EE
100
AcDbEntity
  8
0
100
AcDbBlockEnd
  0
BLOCK
  5
601
330
600
100
AcDbEntity
  8
0
100
AcDbBlockBegin
  2
BLKF039
 70
     0
 71
     0
 10
0.0
 20
0.0
 30
0.0
  3
BLKF039
  1

  0
LINE
  5
604
330
600
100
AcDbEntity
  8
0
  6
CONTINUOUS
 62
     7
100
AcDbLine
 10
49.32466
 20
61.475683
 30
0.0
 11
49.290799
 21
61.523569
 31
0.0
  0
LINE
  5
605
330
600
100
AcDbEntity
  8
0
  6
CONTINUOUS
 62
     7
100
AcDbLine
 10
49.290799
 20
61.523569
 30
0.0
 11
49.274036
 21
61.547614
 31
0.0
  0
LINE
  5
606
330
600
100
AcDbEntity
  8
0
  6
CONTINUOUS
 62
     7
100
AcDbLine
 10
49.274036
 20
61.547614
 30
0.0
 11
49.257475
 21
61.571783
 31
0.0
  0
LINE
  5
607
330
600
100
AcDbEntity
  8
0
  6
CONTINUOUS
 62
     7
100
AcDbLine
 10
49.257475
 20
61.571783
 30
0.0
 11
49.241182
 21
61.596115
 31
0.0
  0
LINE
  5
608
330
600
100
AcDbEntity
  8
0
  6
CONTINUOUS
 62
     7
100
AcDbLine
 10
49.241182
 20
61.596115
 30
0.0
 11
49.225225
 21
61.620653
 31
0.0
  0
LINE
  5
609
330
600
100
AcDbEntity
  8
0
  6
CONTINUOUS
 62
     7
100
AcDbLine
 10
49.225225
 20
61.620653
 30
0.0
 11
49.20967
 21
61.645436
 31
0.0
  0
LINE
  5
60A
330
600
100
AcDbEntity
  8
0
  6
CONTINUOUS
 62
     7
100
AcDbLine
 10
49.20967
 20
61.645436
 30
0.0
 11
49.194585
 21
61.670507
 31
0.0
  0
LINE
  5
60B
330
600
100
AcDbEntity
  8
0
  6
CONTINUOUS
 62
     7
100
AcDbLine
 10
49.194585
 20
61.670507
 30
0.0
 11
49.17808
 21
61.699355
 31
0.0
  0
LINE
  5
60C
330
600
100
AcDbEntity
  8
0
  6
CONTINUOUS
 62
     7
100
AcDbLine
 10
49.17808
 20
61.699355
 30
0.0
 11
49.162181
 21
61.728574
 31
0.0
  0
LINE
  5
60D
330
600
100
AcDbEntity
  8
0
  6
CONTINUOUS
 62
     7
100
AcDbLine
 10
49.162181
 20
61.728574
 30
0.0
 11
49.146801
 21
61.758109
 31
0.0
  0
LINE
  5
60E
330
600
100
AcDbEntity
  8
0
  6
CONTINUOUS
 62
     7
100
AcDbLine
 10
49.146801
 20
61.758109
 30
0.0
 11
49.131853
 21
61.787909
 31
0.0
  0
LINE
  5
60F
330
600
100
AcDbEntity
  8
0
  6
CONTINUOUS
 62
     7
100
AcDbLine
 10
49.131853
 20
61.787909
 30
0.0
 11
49.117252
 21
61.817921
 31
0.0
  0
LINE
  5
610
330
600
100
AcDbEntity
  8
0
  6
CONTINUOUS
 62
     7
100
AcDbLine
 10
49.117252
 20
61.817921
 30
0.0
 11
49.102911
 21
61.848091
 31
0.0
  0
LINE
  5
611
330
600
100
AcDbEntity
  8
0
  6
CONTINUOUS
 62
     7
100
AcDbLine
 10
49.102911
 20
61.848091
 30
0.0
 11
49.07466
 21
61.908695
 31
0.0
  0
ENDBLK
  5
602
330
600
100
AcDbEntity
  8
0
100
AcDbBlockEnd
  0
BLOCK
  5
615
330
614
100
AcDbEntity
  8
0
100
AcDbBlockBegin
  2
BLKF040
 70
     0
 71
     0
 10
0.0
 20
0.0
 30
0.0
  3
BLKF040
  1

  0
LINE
  5
618
330
614
100
AcDbEntity
  8
CSLAYER2
  6
CONTINUOUS
 62
     3
100
AcDbLine
 10
34.211761
 20
21.090321
 30
0.0
 11
32.211761
 21
21.626219
 31
0.0
  0
LINE
  5
619
330
614
100
AcDbEntity
  8
CSLAYER2
  6
CONTINUOUS
 62
     3
100
AcDbLine
 10
32.211761
 20
21.626219
 30
0.0
 11
34.211761
 21
22.162117
 31
0.0
  0
LINE
  5
61A
330
614
100
AcDbEntity
  8
CSLAYER2
  6
CONTINUOUS
 62
     3
100
AcDbLine
 10
32.211761
 20
21.626219
 30
0.0
 11
34.211761
 21
21.626219
 31
0.0
  0
LINE
  5
61B
330
614
100
AcDbEntity
  8
CSLAYER2
  6
CONTINUOUS
 62
     3
100
AcDbLine
 10
67.711761
 20
22.162117
 30
0.0
 11
69.711761
 21
21.626219
 31
0.0
  0
LINE
  5
61C
330
614
100
AcDbEntity
  8
CSLAYER2
  6
CONTINUOUS
 62
     3
100
AcDbLine
 10
69.711761
 20
21.626219
 30
0.0
 11
67.711761
 21
21.090321
 31
0.0
  0
LINE
  5
61D
330
614
100
AcDbEntity
  8
CSLAYER2
  6
CONTINUOUS
 62
     3
100
AcDbLine
 10
69.711761
 20
21.626219
 30
0.0
 11
67.711761
 21
21.626219
 31
0.0
  0
LINE
  5
61E
330
614
100
AcDbEntity
  8
CSLAYER2
  6
CONTINUOUS
 62
     3
100
AcDbLine
 10
32.211761
 20
62.699539
 30
0.0
 11
32.211761
 21
20.826219
 31
0.0
  0
LINE
  5
61F
330
614
100
AcDbEntity
  8
CSLAYER2
  6
CONTINUOUS
 62
     3
100
AcDbLine
 10
69.711761
 20
62.699539
 30
0.0
 11
69.711761
 21
20.826219
 31
0.0
  0
LINE
  5
620
330
614
100
AcDbEntity
  8
CSLAYER2
  6
CONTINUOUS
 62
     3
100
AcDbLine
 10
32.211761
 20
21.626219
 30
0.0
 11
69.711761
 21
21.626219
 31
0.0
  0
TEXT
  5
621
330
614
100
AcDbEntity
  8
CSLAYER2
 62
     3
100
AcDbText
 10
45.280304
 20
22.493423
 30
0.0
 40
3.0
  1
%%c
 41
0.864706
  7
ED_VECTOR
 72
     5
 11
47.380304
 21
22.493423
 31
0.0
100
AcDbText
  0
TEXT
  5
622
330
614
100
AcDbEntity
  8
CSLAYER2
 62
     3
100
AcDbText
 10
48.597385
 20
22.493423
 30
0.0
 40
3.0
  1
37.5
 41
0.877612
  7
ED_VECTOR
 72
     5
 11
56.997385
 21
22.493423
 31
0.0
100
AcDbText
  0
ENDBLK
  5
616
330
614
100
AcDbEntity
  8
0
100
AcDbBlockEnd
  0
BLOCK
  5
624
330
623
100
AcDbEntity
  8
0
100
AcDbBlockBegin
  2
BLKF041
 70
     0
 71
     0
 10
0.0
 20
0.0
 30
0.0
  3
BLKF041
  1

  0
LINE
  5
627
330
623
100
AcDbEntity
  8
CSLAYER2
  6
CONTINUOUS
 62
     3
100
AcDbLine
 10
65.952142
 20
70.745437
 30
0.0
 11
63.952142
 21
70.209539
 31
0.0
  0
LINE
  5
628
330
623
100
AcDbEntity
  8
CSLAYER2
  6
CONTINUOUS
 62
     3
100
AcDbLine
 10
63.952142
 20
70.209539
 30
0.0
 11
65.416244
 21
71.67364
 31
0.0
  0
LINE
  5
629
330
623
100
AcDbEntity
  8
CSLAYER2
  6
CONTINUOUS
 62
     3
100
AcDbLine
 10
63.952142
 20
70.209539
 30
0.0
 11
65.684193
 21
71.209539
 31
0.0
  0
LINE
  5
62A
330
623
100
AcDbEntity
  8
CSLAYER2
  6
CONTINUOUS
 62
     3
100
AcDbLine
 10
35.97138
 20
54.67364
 30
0.0
 11
37.97138
 21
55.209539
 31
0.0
  0
LINE
  5
62B
330
623
100
AcDbEntity
  8
CSLAYER2
  6
CONTINUOUS
 62
     3
100
AcDbLine
 10
37.97138
 20
55.209539
 30
0.0
 11
36.507278
 21
53.745437
 31
0.0
  0
LINE
  5
62C
330
623
100
AcDbEntity
  8
CSLAYER2
  6
CONTINUOUS
 62
     3
100
AcDbLine
 10
37.97138
 20
55.209539
 30
0.0
 11
36.239329
 21
54.209539
 31
0.0
  0
LINE
  5
62D
330
623
100
AcDbEntity
  8
CSLAYER2
  6
CONTINUOUS
 62
     3
100
AcDbLine
 10
37.97138
 20
55.209539
 30
0.0
 11
21.930706
 21
45.948451
 31
0.0
  0
LINE
  5
62E
330
623
100
AcDbEntity
  8
CSLAYER2
  6
CONTINUOUS
 62
     3
100
AcDbLine
 10
63.952142
 20
70.209539
 30
0.0
 11
66.550219
 21
71.709539
 31
0.0
  0
LINE
  5
62F
330
623
100
AcDbEntity
  8
CSLAYER2
  6
CONTINUOUS
 62
     3
100
AcDbLine
 10
37.97138
 20
55.209539
 30
0.0
 11
63.952142
 21
70.209539
 31
0.0
  0
TEXT
  5
630
330
623
100
AcDbEntity
  8
CSLAYER2
 62
     3
100
AcDbText
 10
21.5
 20
46.694454
 30
0.0
 40
3.0
  1
%%c
 50
30.0
 41
0.864706
  7
ED_VECTOR
 72
     5
 11
23.318653
 21
47.744454
 31
0.0
100
AcDbText
  0
TEXT
  5
631
330
623
100
AcDbEntity
  8
CSLAYER2
 62
     3
100
AcDbText
 10
24.372679
 20
48.352997
 30
0.0
 40
3.0
  1
30
 50
30.0
 41
0.794595
  7
ED_VECTOR
 72
     5
 11
28.009985
 21
50.452997
 31
0.0
100
AcDbText
  0
ENDBLK
  5
625
330
623
100
AcDbEntity
  8
0
100
AcDbBlockEnd
  0
BLOCK
  5
633
330
632
100
AcDbEntity
  8
0
100
AcDbBlockBegin
  2
BLKF042
 70
     0
 71
     0
 10
0.0
 20
0.0
 30
0.0
  3
BLKF042
  1

  0
LINE
  5
636
330
632
100
AcDbEntity
  8
CSLAYER2
  6
CONTINUOUS
 62
     3
100
AcDbLine
 10
41.561761
 20
28.408803
 30
0.0
 11
39.561761
 21
28.944701
 31
0.0
  0
LINE
  5
637
330
632
100
AcDbEntity
  8
CSLAYER2
  6
CONTINUOUS
 62
     3
100
AcDbLine
 10
39.561761
 20
28.944701
 30
0.0
 11
41.561761
 21
29.480599
 31
0.0
  0
LINE
  5
638
330
632
100
AcDbEntity
  8
CSLAYER2
  6
CONTINUOUS
 62
     3
100
AcDbLine
 10
39.561761
 20
28.944701
 30
0.0
 11
41.561761
 21
28.944701
 31
0.0
  0
LINE
  5
639
330
632
100
AcDbEntity
  8
CSLAYER2
  6
CONTINUOUS
 62
     3
100
AcDbLine
 10
60.361761
 20
29.480599
 30
0.0
 11
62.361761
 21
28.944701
 31
0.0
  0
LINE
  5
63A
330
632
100
AcDbEntity
  8
CSLAYER2
  6
CONTINUOUS
 62
     3
100
AcDbLine
 10
62.361761
 20
28.944701
 30
0.0
 11
60.361761
 21
28.408803
 31
0.0
  0
LINE
  5
63B
330
632
100
AcDbEntity
  8
CSLAYER2
  6
CONTINUOUS
 62
     3
100
AcDbLine
 10
62.361761
 20
28.944701
 30
0.0
 11
60.361761
 21
28.944701
 31
0.0
  0
LINE
  5
63C
330
632
100
AcDbEntity
  8
CSLAYER2
  6
CONTINUOUS
 62
     3
100
AcDbLine
 10
39.561761
 20
47.813219
 30
0.0
 11
39.561761
 21
28.144701
 31
0.0
  0
LINE
  5
63D
330
632
100
AcDbEntity
  8
CSLAYER2
  6
CONTINUOUS
 62
     3
100
AcDbLine
 10
62.361761
 20
47.813219
 30
0.0
 11
62.361761
 21
28.144701
 31
0.0
  0
LINE
  5
63E
330
632
100
AcDbEntity
  8
CSLAYER2
  6
CONTINUOUS
 62
     3
100
AcDbLine
 10
39.561761
 20
28.944701
 30
0.0
 11
62.361761
 21
28.944701
 31
0.0
  0
TEXT
  5
63F
330
632
100
AcDbEntity
  8
CSLAYER2
 62
     3
100
AcDbText
 10
46.938843
 20
29.811905
 30
0.0
 40
3.0
  1
22.8
 41
0.877612
  7
ED_VECTOR
 72
     5
 11
55.338842
 21
29.811905
 31
0.0
100
AcDbText
  0
ENDBLK
  5
634
330
632
100
AcDbEntity
  8
0
100
AcDbBlockEnd
  0
BLOCK
  5
641
330
640
100
AcDbEntity
  8
0
100
AcDbBlockBegin
  2
BLKF043
 70
     0
 71
     0
 10
0.0
 20
0.0
 30
0.0
  3
BLKF043
  1

  0
ARC
  5
644
330
640
100
AcDbEntity
  8
CSLAYER2
  6
CONTINUOUS
 62
     3
100
AcDbCircle
 10
50.961761
 20
62.709539
 30
0.0
 40
26.6163746973519
100
AcDbArc
 50
240.0
 51
270.0
  0
LINE
  5
645
330
640
100
AcDbEntity
  8
CSLAYER2
  6
CONTINUOUS
 62
     3
100
AcDbLine
 10
39.171538
 20
38.250901
 30
0.0
 11
37.653574
 21
39.659082
 31
0.0
  0
LINE
  5
646
330
640
100
AcDbEntity
  8
CSLAYER2
  6
CONTINUOUS
 62
     3
100
AcDbLine
 10
37.653574
 20
39.659082
 30
0.0
 11
39.672259
 21
39.198543
 31
0.0
  0
LINE
  5
647
330
640
100
AcDbEntity
  8
CSLAYER2
  6
CONTINUOUS
 62
     3
100
AcDbLine
 10
37.653574
 20
39.659082
 30
0.0
 11
39.421899
 21
38.724722
 31
0.0
  0
LINE
  5
648
330
640
100
AcDbEntity
  8
CSLAYER2
  6
CONTINUOUS
 62
     3
100
AcDbLine
 10
48.983259
 20
36.703668
 30
0.0
 11
50.961761
 21
36.093164
 31
0.0
  0
LINE
  5
649
330
640
100
AcDbEntity
  8
CSLAYER2
  6
CONTINUOUS
 62
     3
100
AcDbLine
 10
50.961761
 20
36.093164
 30
0.0
 11
48.943076
 21
35.632626
 31
0.0
  0
LINE
  5
64A
330
640
100
AcDbEntity
  8
CSLAYER2
  6
CONTINUOUS
 62
     3
100
AcDbLine
 10
50.961761
 20
36.093164
 30
0.0
 11
48.963167
 21
36.168147
 31
0.0
  0
LINE
  5
64B
330
640
100
AcDbEntity
  8
CSLAYER2
  6
CONTINUOUS
 62
     3
100
AcDbLine
 10
41.906761
 20
47.025819
 30
0.0
 11
37.253574
 21
38.966262
 31
0.0
  0
LINE
  5
64C
330
640
100
AcDbEntity
  8
CSLAYER2
  6
CONTINUOUS
 62
     3
100
AcDbLine
 10
50.961761
 20
42.949539
 30
0.0
 11
50.961761
 21
35.293164
 31
0.0
  0
TEXT
  5
64D
330
640
100
AcDbEntity
  8
CSLAYER2
 62
     3
100
AcDbText
 10
41.25214
 20
38.432598
 30
0.0
 40
3.0
  1
30°
 50
348.203949
 41
0.801818
  7
ED_VECTOR
 72
     5
 11
47.419093
 21
37.144698
 31
0.0
100
AcDbText
  0
ENDBLK
  5
642
330
640
100
AcDbEntity
  8
0
100
AcDbBlockEnd
  0
BLOCK
  5
64F
330
64E
100
AcDbEntity
  8
0
100
AcDbBlockBegin
  2
BLKF044
 70
     0
 71
     0
 10
0.0
 20
0.0
 30
0.0
  3
BLKF044
  1

  0
ARC
  5
652
330
64E
100
AcDbEntity
  8
CSLAYER2
  6
CONTINUOUS
 62
     3
100
AcDbCircle
 10
50.961761
 20
62.709539
 30
0.0
 40
26.6175635901175
100
AcDbArc
 50
270.0
 51
300.0
  0
LINE
  5
653
330
64E
100
AcDbEntity
  8
CSLAYER2
  6
CONTINUOUS
 62
     3
100
AcDbLine
 10
52.980446
 20
35.631434
 30
0.0
 11
50.961761
 21
36.091975
 31
0.0
  0
LINE
  5
654
330
64E
100
AcDbEntity
  8
CSLAYER2
  6
CONTINUOUS
 62
     3
100
AcDbLine
 10
50.961761
 20
36.091975
 30
0.0
 11
52.940265
 21
36.702476
 31
0.0
  0
LINE
  5
655
330
64E
100
AcDbEntity
  8
CSLAYER2
  6
CONTINUOUS
 62
     3
100
AcDbLine
 10
50.961761
 20
36.091975
 30
0.0
 11
52.960355
 21
36.166955
 31
0.0
  0
LINE
  5
656
330
64E
100
AcDbEntity
  8
CSLAYER2
  6
CONTINUOUS
 62
     3
100
AcDbLine
 10
62.251859
 20
39.19751
 30
0.0
 11
64.270543
 21
39.658052
 31
0.0
  0
LINE
  5
657
330
64E
100
AcDbEntity
  8
CSLAYER2
  6
CONTINUOUS
 62
     3
100
AcDbLine
 10
64.270543
 20
39.658052
 30
0.0
 11
62.752582
 21
38.249869
 31
0.0
  0
LINE
  5
658
330
64E
100
AcDbEntity
  8
CSLAYER2
  6
CONTINUOUS
 62
     3
100
AcDbLine
 10
64.270543
 20
39.658052
 30
0.0
 11
62.50222
 21
38.72369
 31
0.0
  0
LINE
  5
659
330
64E
100
AcDbEntity
  8
CSLAYER2
  6
CONTINUOUS
 62
     3
100
AcDbLine
 10
50.961761
 20
42.949539
 30
0.0
 11
50.961761
 21
35.291975
 31
0.0
  0
LINE
  5
65A
330
64E
100
AcDbEntity
  8
CSLAYER2
  6
CONTINUOUS
 62
     3
100
AcDbLine
 10
60.016761
 20
47.025819
 30
0.0
 11
64.670543
 21
38.965232
 31
0.0
  0
TEXT
  5
65B
330
64E
100
AcDbEntity
  8
CSLAYER2
 62
     3
100
AcDbText
 10
54.358788
 20
36.783337
 30
0.0
 40
3.0
  1
30°
 50
17.467306
 41
0.801818
  7
ED_VECTOR
 72
     5
 11
60.368284
 21
38.674354
 31
0.0
100
AcDbText
  0
ENDBLK
  5
650
330
64E
100
AcDbEntity
  8
0
100
AcDbBlockEnd
  0
BLOCK
  5
65D
330
65C
100
AcDbEntity
  8
0
100
AcDbBlockBegin
  2
BLKF045
 70
     0
 71
     0
 10
0.0
 20
0.0
 30
0.0
  3
BLKF045
  1

  0
LINE
  5
660
330
65C
100
AcDbEntity
  8
CSLAYER2
  6
CONTINUOUS
 62
     3
100
AcDbLine
 10
64.410687
 20
81.358261
 30
0.0
 11
89.330614
 21
81.358261
 31
0.0
  0
LINE
  5
661
330
65C
100
AcDbEntity
  8
CSLAYER2
  6
CONTINUOUS
 62
     3
100
AcDbLine
 10
89.330614
 20
81.358261
 30
0.0
 11
64.410687
 21
81.358261
 31
0.0
  0
LINE
  5
662
330
65C
100
AcDbEntity
  8
CSLAYER2
  6
CONTINUOUS
 62
     3
100
AcDbLine
 10
64.410687
 20
81.358261
 30
0.0
 11
89.330614
 21
81.358261
 31
0.0
  0
LINE
  5
663
330
65C
100
AcDbEntity
  8
CSLAYER2
  6
CONTINUOUS
 62
     3
100
AcDbLine
 10
89.330614
 20
81.358261
 30
0.0
 11
64.410687
 21
81.358261
 31
0.0
  0
LINE
  5
664
330
65C
100
AcDbEntity
  8
CSLAYER2
  6
CONTINUOUS
 62
     3
100
AcDbLine
 10
64.410687
 20
81.358261
 30
0.0
 11
89.330614
 21
81.358261
 31
0.0
  0
LINE
  5
665
330
65C
100
AcDbEntity
  8
CSLAYER2
  6
CONTINUOUS
 62
     3
100
AcDbLine
 10
89.330614
 20
81.358261
 30
0.0
 11
64.410687
 21
81.358261
 31
0.0
  0
TEXT
  5
666
330
65C
100
AcDbEntity
  8
CSLAYER2
 62
     3
100
AcDbText
 10
64.412292
 20
86.284302
 30
0.0
 40
3.2
  1
本体取り付け穴
 41
0.836585
  7
ED_VECTOR
 72
     5
 11
80.092293
 21
86.284302
 31
0.0
100
AcDbText
  0
TEXT
  5
667
330
65C
100
AcDbEntity
  8
CSLAYER2
 62
     3
100
AcDbText
 10
64.412292
 20
82.284302
 30
0.0
 40
3.2
  1
4-φ4.2 貫通
 41
0.7875
  7
ED_VECTOR
 72
     5
 11
84.572293
 21
82.284302
 31
0.0
100
AcDbText
  0
ENDBLK
  5
65E
330
65C
100
AcDbEntity
  8
0
100
AcDbBlockEnd
  0
BLOCK
  5
669
330
668
100
AcDbEntity
  8
0
100
AcDbBlockBegin
  2
BLKF046
 70
     0
 71
     0
 10
0.0
 20
0.0
 30
0.0
  3
BLKF046
  1

  0
LINE
  5
66C
330
668
100
AcDbEntity
  8
CSLAYER2
  6
CONTINUOUS
 62
     3
100
AcDbLine
 10
58.459685
 20
75.701118
 30
0.0
 11
64.410687
 21
81.358261
 31
0.0
  0
LINE
  5
66D
330
668
100
AcDbEntity
  8
CSLAYER2
  6
CONTINUOUS
 62
     3
100
AcDbLine
 10
60.278461
 20
76.690684
 30
0.0
 11
58.459685
 21
75.701118
 31
0.0
  0
LINE
  5
66E
330
668
100
AcDbEntity
  8
CSLAYER2
  6
CONTINUOUS
 62
     3
100
AcDbLine
 10
58.459685
 20
75.701118
 30
0.0
 11
59.540009
 21
77.467495
 31
0.0
  0
LINE
  5
66F
330
668
100
AcDbEntity
  8
CSLAYER2
  6
CONTINUOUS
 62
     3
100
AcDbLine
 10
58.459685
 20
75.701118
 30
0.0
 11
59.909235
 21
77.07909
 31
0.0
  0
ENDBLK
  5
66A
330
668
100
AcDbEntity
  8
0
100
AcDbBlockEnd
  0
BLOCK
  5
671
330
670
100
AcDbEntity
  8
0
100
AcDbBlockBegin
  2
BLKF047
 70
     0
 71
     0
 10
0.0
 20
0.0
 30
0.0
  3
BLKF047
  1

  0
LINE
  5
674
330
670
100
AcDbEntity
  8
CSLAYER2
  6
CONTINUOUS
 62
     3
100
AcDbLine
 10
50.961761
 20
62.709539
 30
0.0
 11
50.961761
 21
63.709539
 31
0.0
  0
LINE
  5
675
330
670
100
AcDbEntity
  8
CSLAYER2
  6
CONTINUOUS
 62
     3
100
AcDbLine
 10
50.961761
 20
62.709539
 30
0.0
 11
49.961761
 21
62.709539
 31
0.0
  0
LINE
  5
676
330
670
100
AcDbEntity
  8
CSLAYER2
  6
CONTINUOUS
 62
     3
100
AcDbLine
 10
50.961761
 20
62.709539
 30
0.0
 11
50.961761
 21
61.709539
 31
0.0
  0
LINE
  5
677
330
670
100
AcDbEntity
  8
CSLAYER2
  6
CONTINUOUS
 62
     3
100
AcDbLine
 10
50.961761
 20
62.709539
 30
0.0
 11
51.961761
 21
62.709539
 31
0.0
  0
LINE
  5
678
330
670
100
AcDbEntity
  8
CSLAYER2
  6
CONTINUOUS
 62
     3
100
AcDbLine
 10
50.961761
 20
64.709539
 30
0.0
 11
50.961761
 21
82.459539
 31
0.0
  0
LINE
  5
679
330
670
100
AcDbEntity
  8
CSLAYER2
  6
CONTINUOUS
 62
     3
100
AcDbLine
 10
48.961761
 20
62.709539
 30
0.0
 11
31.211761
 21
62.709539
 31
0.0
  0
LINE
  5
67A
330
670
100
AcDbEntity
  8
CSLAYER2
  6
CONTINUOUS
 62
     3
100
AcDbLine
 10
50.961761
 20
60.709539
 30
0.0
 11
50.961761
 21
42.959539
 31
0.0
  0
LINE
  5
67B
330
670
100
AcDbEntity
  8
CSLAYER2
  6
CONTINUOUS
 62
     3
100
AcDbLine
 10
52.961761
 20
62.709539
 30
0.0
 11
70.711761
 21
62.709539
 31
0.0
  0
ENDBLK
  5
672
330
670
100
AcDbEntity
  8
0
100
AcDbBlockEnd
  0
BLOCK
  5
67D
330
67C
100
AcDbEntity
  8
0
100
AcDbBlockBegin
  2
BLKF048
 70
     0
 71
     0
 10
0.0
 20
0.0
 30
0.0
  3
BLKF048
  1

  0
LINE
  5
680
330
67C
100
AcDbEntity
  8
CSLAYER2
  6
CONTINUOUS
 62
     3
100
AcDbLine
 10
58.461761
 20
75.69992
 30
0.0
 11
58.961761
 21
76.565945
 31
0.0
  0
LINE
  5
681
330
67C
100
AcDbEntity
  8
CSLAYER2
  6
CONTINUOUS
 62
     3
100
AcDbLine
 10
58.461761
 20
75.69992
 30
0.0
 11
57.595736
 21
76.19992
 31
0.0
  0
LINE
  5
682
330
67C
100
AcDbEntity
  8
CSLAYER2
  6
CONTINUOUS
 62
     3
100
AcDbLine
 10
58.461761
 20
75.69992
 30
0.0
 11
57.961761
 21
74.833894
 31
0.0
  0
LINE
  5
683
330
67C
100
AcDbEntity
  8
CSLAYER2
  6
CONTINUOUS
 62
     3
100
AcDbLine
 10
58.461761
 20
75.69992
 30
0.0
 11
59.327787
 21
75.19992
 31
0.0
  0
LINE
  5
684
330
67C
100
AcDbEntity
  8
CSLAYER2
  6
CONTINUOUS
 62
     3
100
AcDbLine
 10
59.461761
 20
77.43197
 30
0.0
 11
60.011761
 21
78.384598
 31
0.0
  0
LINE
  5
685
330
67C
100
AcDbEntity
  8
CSLAYER2
  6
CONTINUOUS
 62
     3
100
AcDbLine
 10
56.729711
 20
76.69992
 30
0.0
 11
55.777083
 21
77.24992
 31
0.0
  0
LINE
  5
686
330
67C
100
AcDbEntity
  8
CSLAYER2
  6
CONTINUOUS
 62
     3
100
AcDbLine
 10
57.461761
 20
73.967869
 30
0.0
 11
56.911761
 21
73.015241
 31
0.0
  0
LINE
  5
687
330
67C
100
AcDbEntity
  8
CSLAYER2
  6
CONTINUOUS
 62
     3
100
AcDbLine
 10
60.193812
 20
74.69992
 30
0.0
 11
61.14644
 21
74.14992
 31
0.0
  0
ENDBLK
  5
67E
330
67C
100
AcDbEntity
  8
0
100
AcDbBlockEnd
  0
BLOCK
  5
689
330
688
100
AcDbEntity
  8
0
100
AcDbBlockBegin
  2
BLKF049
 70
     0
 71
     0
 10
0.0
 20
0.0
 30
0.0
  3
BLKF049
  1

  0
LINE
  5
68C
330
688
100
AcDbEntity
  8
CSLAYER2
  6
CONTINUOUS
 62
     3
100
AcDbLine
 10
43.461761
 20
75.69992
 30
0.0
 11
42.961761
 21
76.565945
 31
0.0
  0
LINE
  5
68D
330
688
100
AcDbEntity
  8
CSLAYER2
  6
CONTINUOUS
 62
     3
100
AcDbLine
 10
43.461761
 20
75.69992
 30
0.0
 11
42.595736
 21
75.19992
 31
0.0
  0
LINE
  5
68E
330
688
100
AcDbEntity
  8
CSLAYER2
  6
CONTINUOUS
 62
     3
100
AcDbLine
 10
43.461761
 20
75.69992
 30
0.0
 11
43.961761
 21
74.833894
 31
0.0
  0
LINE
  5
68F
330
688
100
AcDbEntity
  8
CSLAYER2
  6
CONTINUOUS
 62
     3
100
AcDbLine
 10
43.461761
 20
75.69992
 30
0.0
 11
44.327787
 21
76.19992
 31
0.0
  0
LINE
  5
690
330
688
100
AcDbEntity
  8
CSLAYER2
  6
CONTINUOUS
 62
     3
100
AcDbLine
 10
42.461761
 20
77.43197
 30
0.0
 11
41.911761
 21
78.384598
 31
0.0
  0
LINE
  5
691
330
688
100
AcDbEntity
  8
CSLAYER2
  6
CONTINUOUS
 62
     3
100
AcDbLine
 10
41.729711
 20
74.69992
 30
0.0
 11
40.777083
 21
74.14992
 31
0.0
  0
LINE
  5
692
330
688
100
AcDbEntity
  8
CSLAYER2
  6
CONTINUOUS
 62
     3
100
AcDbLine
 10
44.461761
 20
73.967869
 30
0.0
 11
45.011761
 21
73.015241
 31
0.0
  0
LINE
  5
693
330
688
100
AcDbEntity
  8
CSLAYER2
  6
CONTINUOUS
 62
     3
100
AcDbLine
 10
45.193812
 20
76.69992
 30
0.0
 11
46.14644
 21
77.24992
 31
0.0
  0
ENDBLK
  5
68A
330
688
100
AcDbEntity
  8
0
100
AcDbBlockEnd
  0
BLOCK
  5
695
330
694
100
AcDbEntity
  8
0
100
AcDbBlockBegin
  2
BLKF050
 70
     0
 71
     0
 10
0.0
 20
0.0
 30
0.0
  3
BLKF050
  1

  0
LINE
  5
698
330
694
100
AcDbEntity
  8
CSLAYER2
  6
CONTINUOUS
 62
     3
100
AcDbLine
 10
43.461761
 20
49.719158
 30
0.0
 11
43.961761
 21
50.585183
 31
0.0
  0
LINE
  5
699
330
694
100
AcDbEntity
  8
CSLAYER2
  6
CONTINUOUS
 62
     3
100
AcDbLine
 10
43.461761
 20
49.719158
 30
0.0
 11
42.595736
 21
50.219158
 31
0.0
  0
LINE
  5
69A
330
694
100
AcDbEntity
  8
CSLAYER2
  6
CONTINUOUS
 62
     3
100
AcDbLine
 10
43.461761
 20
49.719158
 30
0.0
 11
42.961761
 21
48.853132
 31
0.0
  0
LINE
  5
69B
330
694
100
AcDbEntity
  8
CSLAYER2
  6
CONTINUOUS
 62
     3
100
AcDbLine
 10
43.461761
 20
49.719158
 30
0.0
 11
44.327787
 21
49.219158
 31
0.0
  0
LINE
  5
69C
330
694
100
AcDbEntity
  8
CSLAYER2
  6
CONTINUOUS
 62
     3
100
AcDbLine
 10
44.461761
 20
51.451208
 30
0.0
 11
45.011761
 21
52.403836
 31
0.0
  0
LINE
  5
69D
330
694
100
AcDbEntity
  8
CSLAYER2
  6
CONTINUOUS
 62
     3
100
AcDbLine
 10
41.729711
 20
50.719158
 30
0.0
 11
40.777083
 21
51.269158
 31
0.0
  0
LINE
  5
69E
330
694
100
AcDbEntity
  8
CSLAYER2
  6
CONTINUOUS
 62
     3
100
AcDbLine
 10
42.461761
 20
47.987107
 30
0.0
 11
41.911761
 21
47.034479
 31
0.0
  0
LINE
  5
69F
330
694
100
AcDbEntity
  8
CSLAYER2
  6
CONTINUOUS
 62
     3
100
AcDbLine
 10
45.193812
 20
48.719158
 30
0.0
 11
46.14644
 21
48.169158
 31
0.0
  0
ENDBLK
  5
696
330
694
100
AcDbEntity
  8
0
100
AcDbBlockEnd
  0
BLOCK
  5
6A1
330
6A0
100
AcDbEntity
  8
0
100
AcDbBlockBegin
  2
BLKF051
 70
     0
 71
     0
 10
0.0
 20
0.0
 30
0.0
  3
BLKF051
  1

  0
LINE
  5
6A4
330
6A0
100
AcDbEntity
  8
CSLAYER2
  6
CONTINUOUS
 62
     3
100
AcDbLine
 10
58.461761
 20
49.719158
 30
0.0
 11
59.327787
 21
50.219158
 31
0.0
  0
LINE
  5
6A5
330
6A0
100
AcDbEntity
  8
CSLAYER2
  6
CONTINUOUS
 62
     3
100
AcDbLine
 10
58.461761
 20
49.719158
 30
0.0
 11
57.961761
 21
50.585183
 31
0.0
  0
LINE
  5
6A6
330
6A0
100
AcDbEntity
  8
CSLAYER2
  6
CONTINUOUS
 62
     3
100
AcDbLine
 10
58.461761
 20
49.719158
 30
0.0
 11
57.595736
 21
49.219158
 31
0.0
  0
LINE
  5
6A7
330
6A0
100
AcDbEntity
  8
CSLAYER2
  6
CONTINUOUS
 62
     3
100
AcDbLine
 10
58.461761
 20
49.719158
 30
0.0
 11
58.961761
 21
48.853132
 31
0.0
  0
LINE
  5
6A8
330
6A0
100
AcDbEntity
  8
CSLAYER2
  6
CONTINUOUS
 62
     3
100
AcDbLine
 10
60.193812
 20
50.719158
 30
0.0
 11
61.14644
 21
51.269158
 31
0.0
  0
LINE
  5
6A9
330
6A0
100
AcDbEntity
  8
CSLAYER2
  6
CONTINUOUS
 62
     3
100
AcDbLine
 10
57.461761
 20
51.451208
 30
0.0
 11
56.911761
 21
52.403836
 31
0.0
  0
LINE
  5
6AA
330
6A0
100
AcDbEntity
  8
CSLAYER2
  6
CONTINUOUS
 62
     3
100
AcDbLine
 10
56.729711
 20
48.719158
 30
0.0
 11
55.777083
 21
48.169158
 31
0.0
  0
LINE
  5
6AB
330
6A0
100
AcDbEntity
  8
CSLAYER2
  6
CONTINUOUS
 62
     3
100
AcDbLine
 10
59.461761
 20
47.987107
 30
0.0
 11
60.011761
 21
47.034479
 31
0.0
  0
ENDBLK
  5
6A2
330
6A0
100
AcDbEntity
  8
0
100
AcDbBlockEnd
  0
ENDSEC
  0
SECTION
  2
ENTITIES
  0
LINE
  5
6F
330
1F
100
AcDbEntity
  8
0
  6
CONTINUOUS
 62
     7
100
AcDbLine
 10
172.331224
 20
44.259539
 30
0.0
 11
172.631224
 21
43.959538
 31
0.0
  0
LINE
  5
70
330
1F
100
AcDbEntity
  8
0
  6
CONTINUOUS
 62
     7
100
AcDbLine
 10
182.031225
 20
81.459539
 30
0.0
 11
172.631224
 21
81.459539
 31
0.0
  0
LINE
  5
71
330
1F
100
AcDbEntity
  8
0
  6
CONTINUOUS
 62
     7
100
AcDbLine
 10
172.631224
 20
43.959538
 30
0.0
 11
182.031225
 21
43.959538
 31
0.0
  0
LINE
  5
72
330
1F
100
AcDbEntity
  8
0
  6
CONTINUOUS
 62
     7
100
AcDbLine
 10
182.331226
 20
81.159538
 30
0.0
 11
182.031225
 21
81.459539
 31
0.0
  0
LINE
  5
73
330
1F
100
AcDbEntity
  8
0
  6
CONTINUOUS
 62
     7
100
AcDbLine
 10
182.031225
 20
43.959538
 30
0.0
 11
182.331226
 21
44.259539
 31
0.0
  0
LINE
  5
74
330
1F
100
AcDbEntity
  8
0
  6
CONTINUOUS
 62
     7
100
AcDbLine
 10
172.631224
 20
81.459539
 30
0.0
 11
172.331224
 21
81.159538
 31
0.0
  0
LINE
  5
75
330
1F
100
AcDbEntity
  8
0
  6
CONTINUOUS
 62
     7
100
AcDbLine
 10
185.331225
 20
53.184538
 30
0.0
 11
208.231225
 21
53.184538
 31
0.0
  0
LINE
  5
76
330
1F
100
AcDbEntity
  8
0
  6
CONTINUOUS
 62
     7
100
AcDbLine
 10
208.231225
 20
72.234539
 30
0.0
 11
185.331225
 21
72.234539
 31
0.0
  0
LINE
  5
77
330
1F
100
AcDbEntity
  8
0
  6
CONTINUOUS
 62
     7
100
AcDbLine
 10
152.131225
 20
53.184538
 30
0.0
 11
169.331224
 21
53.184538
 31
0.0
  0
LINE
  5
78
330
1F
100
AcDbEntity
  8
0
  6
CONTINUOUS
 62
     7
100
AcDbLine
 10
169.331224
 20
72.234539
 30
0.0
 11
152.131225
 21
72.234539
 31
0.0
  0
LINE
  5
79
330
1F
100
AcDbEntity
  8
0
  6
CONTINUOUS
 62
     7
100
AcDbLine
 10
148.859306
 20
72.224538
 30
0.0
 11
148.131225
 21
71.959539
 31
0.0
  0
LINE
  5
7A
330
1F
100
AcDbEntity
  8
0
  6
CONTINUOUS
 62
     7
100
AcDbLine
 10
148.131225
 20
53.459538
 30
0.0
 11
148.859306
 21
53.194539
 31
0.0
  0
LINE
  5
7B
330
1F
100
AcDbEntity
  8
0
  6
CONTINUOUS
 62
     7
100
AcDbLine
 10
148.859306
 20
53.194539
 30
0.0
 11
152.131225
 21
53.194539
 31
0.0
  0
LINE
  5
7C
330
1F
100
AcDbEntity
  8
0
  6
CONTINUOUS
 62
     7
100
AcDbLine
 10
152.131225
 20
72.224538
 30
0.0
 11
148.859306
 21
72.224538
 31
0.0
  0
LINE
  5
7D
330
1F
100
AcDbEntity
  8
0
  6
CONTINUOUS
 62
     7
100
AcDbLine
 10
223.431225
 20
53.194539
 30
0.0
 11
223.531227
 21
53.294539
 31
0.0
  0
LINE
  5
7E
330
1F
100
AcDbEntity
  8
0
  6
CONTINUOUS
 62
     7
100
AcDbLine
 10
223.531227
 20
72.124538
 30
0.0
 11
223.431225
 21
72.224538
 31
0.0
  0
LINE
  5
7F
330
1F
100
AcDbEntity
  8
0
  6
CONTINUOUS
 62
     7
100
AcDbLine
 10
208.231225
 20
53.194539
 30
0.0
 11
223.431225
 21
53.194539
 31
0.0
  0
LINE
  5
80
330
1F
100
AcDbEntity
  8
0
  6
CONTINUOUS
 62
     7
100
AcDbLine
 10
223.431225
 20
72.224538
 30
0.0
 11
208.231225
 21
72.224538
 31
0.0
  0
LINE
  5
81
330
1F
100
AcDbEntity
  8
0
  6
CONTINUOUS
 62
     7
100
AcDbLine
 10
182.331226
 20
53.409539
 30
0.0
 11
185.331225
 21
53.409539
 31
0.0
  0
LINE
  5
82
330
1F
100
AcDbEntity
  8
0
  6
CONTINUOUS
 62
     7
100
AcDbLine
 10
185.331225
 20
72.009539
 30
0.0
 11
182.331226
 21
72.009539
 31
0.0
  0
LINE
  5
83
330
1F
100
AcDbEntity
  8
0
  6
CONTINUOUS
 62
     7
100
AcDbLine
 10
169.331224
 20
53.409539
 30
0.0
 11
172.331224
 21
53.409539
 31
0.0
  0
LINE
  5
84
330
1F
100
AcDbEntity
  8
0
  6
CONTINUOUS
 62
     7
100
AcDbLine
 10
172.331224
 20
72.009539
 30
0.0
 11
169.331224
 21
72.009539
 31
0.0
  0
LINE
  5
85
330
1F
100
AcDbEntity
  8
0
  6
CONTINUOUS
 62
     7
100
AcDbLine
 10
143.031224
 20
67.409538
 30
0.0
 11
142.659722
 21
67.409538
 31
0.0
  0
LINE
  5
86
330
1F
100
AcDbEntity
  8
0
  6
CONTINUOUS
 62
     7
100
AcDbLine
 10
142.659722
 20
58.009539
 30
0.0
 11
143.031224
 21
58.009539
 31
0.0
  0
LINE
  5
87
330
1F
100
AcDbEntity
  8
0
  6
CONTINUOUS
 62
     7
100
AcDbLine
 10
143.031224
 20
58.009539
 30
0.0
 11
143.131225
 21
58.109538
 31
0.0
  0
LINE
  5
88
330
1F
100
AcDbEntity
  8
0
  6
CONTINUOUS
 62
     7
100
AcDbLine
 10
143.131225
 20
67.309539
 30
0.0
 11
143.031224
 21
67.409538
 31
0.0
  0
LINE
  5
89
330
1F
100
AcDbEntity
  8
0
  6
CONTINUOUS
 62
     7
100
AcDbLine
 10
145.631225
 20
58.109538
 30
0.0
 11
145.731224
 21
58.109538
 31
0.0
  0
LINE
  5
8A
330
1F
100
AcDbEntity
  8
0
  6
CONTINUOUS
 62
     7
100
AcDbLine
 10
143.131225
 20
58.109538
 30
0.0
 11
143.231225
 21
58.109538
 31
0.0
  0
LINE
  5
8B
330
1F
100
AcDbEntity
  8
0
  6
CONTINUOUS
 62
     7
100
AcDbLine
 10
143.231225
 20
67.309539
 30
0.0
 11
143.131225
 21
67.309539
 31
0.0
  0
LINE
  5
8C
330
1F
100
AcDbEntity
  8
0
  6
CONTINUOUS
 62
     7
100
AcDbLine
 10
145.731224
 20
67.309539
 30
0.0
 11
145.631225
 21
67.309539
 31
0.0
  0
ARC
  5
8D
330
1F
100
AcDbEntity
  8
0
  6
CONTINUOUS
 62
     7
100
AcDbCircle
 10
121.359722
 20
64.009539
 30
0.0
 40
0.2000000000000171
100
AcDbArc
 50
90.0
 51
180.0
  0
ARC
  5
8E
330
1F
100
AcDbEntity
  8
0
  6
CONTINUOUS
 62
     7
100
AcDbCircle
 10
121.359722
 20
61.409539
 30
0.0
 40
0.2000000000000171
100
AcDbArc
 50
180.0
 51
270.0
  0
LINE
  5
8F
330
1F
100
AcDbEntity
  8
0
  6
CONTINUOUS
 62
     7
100
AcDbLine
 10
121.359722
 20
61.209539
 30
0.0
 11
131.159722
 21
61.209539
 31
0.0
  0
LINE
  5
90
330
1F
100
AcDbEntity
  8
0
  6
CONTINUOUS
 62
     7
100
AcDbLine
 10
131.159722
 20
64.209539
 30
0.0
 11
121.359722
 21
64.209539
 31
0.0
  0
LINE
  5
91
330
1F
100
AcDbEntity
  8
0
  6
CONTINUOUS
 62
     7
100
AcDbLine
 10
134.718567
 20
56.809538
 30
0.0
 11
135.010124
 21
56.809538
 31
0.0
  0
LINE
  5
92
330
1F
100
AcDbEntity
  8
0
  6
CONTINUOUS
 62
     7
100
AcDbLine
 10
135.010124
 20
68.609539
 30
0.0
 11
134.718567
 21
68.609539
 31
0.0
  0
ARC
  5
93
330
1F
100
AcDbEntity
  8
0
  6
CONTINUOUS
 62
     7
100
AcDbCircle
 10
134.718568
 20
67.609539
 30
0.0
 40
1.0
100
AcDbArc
 50
90.0
 51
120.0
  0
ARC
  5
94
330
1F
100
AcDbEntity
  8
0
  6
CONTINUOUS
 62
     7
100
AcDbCircle
 10
134.718568
 20
57.809539
 30
0.0
 40
1.0
100
AcDbArc
 50
240.0
 51
270.0
  0
LINE
  5
95
330
1F
100
AcDbEntity
  8
0
  6
CONTINUOUS
 62
     7
100
AcDbLine
 10
138.310124
 20
56.809538
 30
0.0
 11
141.859722
 21
56.809538
 31
0.0
  0
LINE
  5
96
330
1F
100
AcDbEntity
  8
0
  6
CONTINUOUS
 62
     7
100
AcDbLine
 10
141.859722
 20
68.609539
 30
0.0
 11
138.310124
 21
68.609539
 31
0.0
  0
LINE
  5
97
330
1F
100
AcDbEntity
  8
0
  6
CONTINUOUS
 62
     7
100
AcDbLine
 10
135.010124
 20
56.809538
 30
0.0
 11
135.159722
 21
56.959538
 31
0.0
  0
LINE
  5
98
330
1F
100
AcDbEntity
  8
0
  6
CONTINUOUS
 62
     7
100
AcDbLine
 10
135.159722
 20
68.459539
 30
0.0
 11
135.010124
 21
68.609539
 31
0.0
  0
ARC
  5
99
330
1F
100
AcDbEntity
  8
0
  6
CONTINUOUS
 62
     7
100
AcDbCircle
 10
141.859722
 20
67.809539
 30
0.0
 40
0.8000000000000114
100
AcDbArc
 50
0.0
 51
90.0
  0
ARC
  5
9A
330
1F
100
AcDbEntity
  8
0
  6
CONTINUOUS
 62
     7
100
AcDbCircle
 10
141.859722
 20
57.609539
 30
0.0
 40
0.8000000000000114
100
AcDbArc
 50
270.0
 51
360.0
  0
LINE
  5
9B
330
1F
100
AcDbEntity
  8
0
  6
CONTINUOUS
 62
     7
100
AcDbLine
 10
138.310124
 20
68.609539
 30
0.0
 11
138.159722
 21
68.459539
 31
0.0
  0
LINE
  5
9C
330
1F
100
AcDbEntity
  8
0
  6
CONTINUOUS
 62
     7
100
AcDbLine
 10
138.159722
 20
56.959538
 30
0.0
 11
138.310124
 21
56.809538
 31
0.0
  0
LINE
  5
9D
330
1F
100
AcDbEntity
  8
0
  6
CONTINUOUS
 62
     7
100
AcDbLine
 10
134.218567
 20
68.475564
 30
0.0
 11
131.659721
 21
66.998214
 31
0.0
  0
LINE
  5
9E
330
1F
100
AcDbEntity
  8
0
  6
CONTINUOUS
 62
     7
100
AcDbLine
 10
131.659721
 20
58.420863
 30
0.0
 11
134.218567
 21
56.943513
 31
0.0
  0
ARC
  5
9F
330
1F
100
AcDbEntity
  8
0
  6
CONTINUOUS
 62
     7
100
AcDbCircle
 10
132.159722
 20
59.286889
 30
0.0
 40
1.0
100
AcDbArc
 50
180.0
 51
240.0
  0
ARC
  5
A0
330
1F
100
AcDbEntity
  8
0
  6
CONTINUOUS
 62
     7
100
AcDbCircle
 10
132.159722
 20
66.132188
 30
0.0
 40
1.000000000000008
100
AcDbArc
 50
120.0
 51
180.0
  0
ARC
  5
A1
330
1F
100
AcDbEntity
  8
0
  6
CONTINUOUS
 62
     7
100
AcDbCircle
 10
226.331225
 20
71.209539
 30
0.0
 40
0.5
100
AcDbArc
 50
0.0
 51
180.0
  0
ARC
  5
A2
330
1F
100
AcDbEntity
  8
0
  6
CONTINUOUS
 62
     7
100
AcDbCircle
 10
226.331225
 20
54.209539
 30
0.0
 40
0.5
100
AcDbArc
 50
180.0
 51
360.0
  0
LINE
  5
A3
330
1F
100
AcDbEntity
  8
0
  6
CONTINUOUS
 62
     7
100
AcDbLine
 10
226.831223
 20
54.209538
 30
0.0
 11
226.831223
 21
71.209539
 31
0.0
  0
LINE
  5
A4
330
1F
100
AcDbEntity
  8
0
  6
CONTINUOUS
 62
     7
100
AcDbLine
 10
225.515182
 20
53.259539
 30
0.0
 11
225.731227
 21
53.259539
 31
0.0
  0
LINE
  5
A5
330
1F
100
AcDbEntity
  8
0
  6
CONTINUOUS
 62
     7
100
AcDbLine
 10
223.631221
 20
53.259539
 30
0.0
 11
223.847355
 21
53.259539
 31
0.0
  0
LINE
  5
A6
330
1F
100
AcDbEntity
  8
0
  6
CONTINUOUS
 62
     7
100
AcDbLine
 10
223.847288
 20
72.159538
 30
0.0
 11
223.631221
 21
72.159538
 31
0.0
  0
LINE
  5
A7
330
1F
100
AcDbEntity
  8
0
  6
CONTINUOUS
 62
     7
100
AcDbLine
 10
225.731227
 20
72.159538
 30
0.0
 11
225.515138
 21
72.159538
 31
0.0
  0
LINE
  5
A8
330
1F
100
AcDbEntity
  8
0
  6
CONTINUOUS
 62
     7
100
AcDbLine
 10
223.631221
 20
72.159538
 30
0.0
 11
223.531227
 21
72.059539
 31
0.0
  0
LINE
  5
A9
330
1F
100
AcDbEntity
  8
0
  6
CONTINUOUS
 62
     7
100
AcDbLine
 10
223.531227
 20
53.359539
 30
0.0
 11
223.631221
 21
53.259539
 31
0.0
  0
LINE
  5
AA
330
1F
100
AcDbEntity
  8
0
  6
CONTINUOUS
 62
     7
100
AcDbLine
 10
225.731227
 20
53.259539
 30
0.0
 11
225.831221
 21
53.359539
 31
0.0
  0
LINE
  5
AB
330
1F
100
AcDbEntity
  8
0
  6
CONTINUOUS
 62
     7
100
AcDbLine
 10
225.831221
 20
72.059539
 30
0.0
 11
225.731227
 21
72.159538
 31
0.0
  0
LINE
  5
AC
330
1F
100
AcDbEntity
  8
0
  6
CONTINUOUS
 62
     7
100
AcDbLine
 10
227.131228
 20
54.259539
 30
0.0
 11
229.631226
 21
54.259539
 31
0.0
  0
LINE
  5
AD
330
1F
100
AcDbEntity
  8
0
  6
CONTINUOUS
 62
     7
100
AcDbLine
 10
229.631226
 20
71.159538
 30
0.0
 11
227.131228
 21
71.159538
 31
0.0
  0
LINE
  5
AE
330
1F
100
AcDbEntity
  8
0
  6
CONTINUOUS
 62
     7
100
AcDbLine
 10
229.631226
 20
54.259539
 30
0.0
 11
229.931223
 21
54.559538
 31
0.0
  0
LINE
  5
AF
330
1F
100
AcDbEntity
  8
0
  6
CONTINUOUS
 62
     7
100
AcDbLine
 10
229.931223
 20
70.859539
 30
0.0
 11
229.631226
 21
71.159538
 31
0.0
  0
LINE
  5
B0
330
1F
100
AcDbEntity
  8
0
  6
CONTINUOUS
 62
     7
100
AcDbLine
 10
229.931223
 20
54.559538
 30
0.0
 11
233.731228
 21
54.559538
 31
0.0
  0
LINE
  5
B1
330
1F
100
AcDbEntity
  8
0
  6
CONTINUOUS
 62
     7
100
AcDbLine
 10
233.731228
 20
70.859539
 30
0.0
 11
229.931223
 21
70.859539
 31
0.0
  0
LINE
  5
B2
330
1F
100
AcDbEntity
  8
0
  6
CONTINUOUS
 62
     7
100
AcDbLine
 10
233.731228
 20
54.559538
 30
0.0
 11
233.931224
 21
54.759538
 31
0.0
  0
LINE
  5
B3
330
1F
100
AcDbEntity
  8
0
  6
CONTINUOUS
 62
     7
100
AcDbLine
 10
233.931224
 20
70.659539
 30
0.0
 11
233.731228
 21
70.859539
 31
0.0
  0
LINE
  5
B4
330
1F
100
AcDbEntity
  8
0
  6
CONTINUOUS
 62
     7
100
AcDbLine
 10
226.831223
 20
54.709538
 30
0.0
 11
227.131228
 21
54.709538
 31
0.0
  0
LINE
  5
B5
330
1F
100
AcDbEntity
  8
0
  6
CONTINUOUS
 62
     7
100
AcDbLine
 10
227.131228
 20
70.709539
 30
0.0
 11
226.831223
 21
70.709539
 31
0.0
  0
LINE
  5
B6
330
1F
100
AcDbEntity
  8
0
  6
CONTINUOUS
 62
     7
100
AcDbLine
 10
147.649466
 20
53.259539
 30
0.0
 11
147.831225
 21
53.259539
 31
0.0
  0
LINE
  5
B7
330
1F
100
AcDbEntity
  8
0
  6
CONTINUOUS
 62
     7
100
AcDbLine
 10
145.931225
 20
53.259539
 30
0.0
 11
146.017322
 21
53.259539
 31
0.0
  0
LINE
  5
B8
330
1F
100
AcDbEntity
  8
0
  6
CONTINUOUS
 62
     7
100
AcDbLine
 10
146.014575
 20
72.159538
 30
0.0
 11
145.931225
 21
72.159538
 31
0.0
  0
LINE
  5
B9
330
1F
100
AcDbEntity
  8
0
  6
CONTINUOUS
 62
     7
100
AcDbLine
 10
147.831225
 20
72.159538
 30
0.0
 11
147.653419
 21
72.159538
 31
0.0
  0
LINE
  5
BA
330
1F
100
AcDbEntity
  8
0
  6
CONTINUOUS
 62
     7
100
AcDbLine
 10
145.931225
 20
72.159538
 30
0.0
 11
145.731224
 21
71.959539
 31
0.0
  0
LINE
  5
BB
330
1F
100
AcDbEntity
  8
0
  6
CONTINUOUS
 62
     7
100
AcDbLine
 10
145.731224
 20
53.459538
 30
0.0
 11
145.931225
 21
53.259539
 31
0.0
  0
LINE
  5
BC
330
1F
100
AcDbEntity
  8
0
  6
CONTINUOUS
 62
     7
100
AcDbLine
 10
147.831225
 20
53.259539
 30
0.0
 11
147.931225
 21
53.359539
 31
0.0
  0
LINE
  5
BD
330
1F
100
AcDbEntity
  8
0
  6
CONTINUOUS
 62
     7
100
AcDbLine
 10
147.931225
 20
72.059539
 30
0.0
 11
147.831225
 21
72.159538
 31
0.0
  0
LINE
  5
BE
330
1F
100
AcDbEntity
  8
0
  6
CONTINUOUS
 62
     7
100
AcDbLine
 10
147.649466
 20
53.259539
 30
0.0
 11
147.831225
 21
53.259539
 31
0.0
  0
LINE
  5
BF
330
1F
100
AcDbEntity
  8
0
  6
CONTINUOUS
 62
     7
100
AcDbLine
 10
145.931225
 20
53.259539
 30
0.0
 11
146.017322
 21
53.259539
 31
0.0
  0
LINE
  5
C0
330
1F
100
AcDbEntity
  8
0
  6
CONTINUOUS
 62
     7
100
AcDbLine
 10
146.014575
 20
72.159538
 30
0.0
 11
145.931225
 21
72.159538
 31
0.0
  0
LINE
  5
C1
330
1F
100
AcDbEntity
  8
0
  6
CONTINUOUS
 62
     7
100
AcDbLine
 10
147.831225
 20
72.159538
 30
0.0
 11
147.653419
 21
72.159538
 31
0.0
  0
LINE
  5
C2
330
1F
100
AcDbEntity
  8
0
  6
CONTINUOUS
 62
     7
100
AcDbLine
 10
145.931225
 20
72.159538
 30
0.0
 11
145.731224
 21
71.959539
 31
0.0
  0
LINE
  5
C3
330
1F
100
AcDbEntity
  8
0
  6
CONTINUOUS
 62
     7
100
AcDbLine
 10
145.731224
 20
53.459538
 30
0.0
 11
145.931225
 21
53.259539
 31
0.0
  0
LINE
  5
C4
330
1F
100
AcDbEntity
  8
0
  6
CONTINUOUS
 62
     7
100
AcDbLine
 10
147.831225
 20
53.259539
 30
0.0
 11
147.931225
 21
53.359539
 31
0.0
  0
LINE
  5
C5
330
1F
100
AcDbEntity
  8
0
  6
CONTINUOUS
 62
     7
100
AcDbLine
 10
147.931225
 20
72.059539
 30
0.0
 11
147.831225
 21
72.159538
 31
0.0
  0
LINE
  5
C6
330
1F
100
AcDbEntity
  8
0
  6
CONTINUOUS
 62
     7
100
AcDbLine
 10
147.931225
 20
55.209539
 30
0.0
 11
148.131225
 21
55.209539
 31
0.0
  0
LINE
  5
C7
330
1F
100
AcDbEntity
  8
0
  6
CONTINUOUS
 62
     7
100
AcDbLine
 10
148.131225
 20
70.209538
 30
0.0
 11
147.931225
 21
70.209538
 31
0.0
  0
LINE
  5
C8
330
1F
100
AcDbEntity
  8
0
  6
CONTINUOUS
 62
     7
100
AcDbLine
 10
182.331226
 20
77.446991
 30
0.0
 11
182.331226
 21
47.972086
 31
0.0
  0
INSERT
  5
CC
330
1F
100
AcDbEntity
  8
0
100
AcDbBlockReference
  2
BLKF011
 10
0.0
 20
0.0
 30
0.0
  0
INSERT
  5
D4
330
1F
100
AcDbEntity
  8
0
100
AcDbBlockReference
  2
BLKF012
 10
0.0
 20
0.0
 30
0.0
  0
LINE
  5
D9
330
1F
100
AcDbEntity
  8
0
  6
CONTINUOUS
 62
     7
100
AcDbLine
 10
172.331224
 20
47.972086
 30
0.0
 11
172.331224
 21
77.446991
 31
0.0
  0
INSERT
  5
DD
330
1F
100
AcDbEntity
  8
0
100
AcDbBlockReference
  2
BLKF013
 10
0.0
 20
0.0
 30
0.0
  0
INSERT
  5
E5
330
1F
100
AcDbEntity
  8
0
100
AcDbBlockReference
  2
BLKF014
 10
0.0
 20
0.0
 30
0.0
  0
LINE
  5
EA
330
1F
100
AcDbEntity
  8
0
  6
CONTINUOUS
 62
     7
100
AcDbLine
 10
172.331224
 20
44.259539
 30
0.0
 11
172.331224
 21
47.972086
 31
0.0
  0
LINE
  5
EB
330
1F
100
AcDbEntity
  8
0
  6
CONTINUOUS
 62
     7
100
AcDbLine
 10
182.031225
 20
77.595858
 30
0.0
 11
172.631224
 21
77.595858
 31
0.0
  0
LINE
  5
EC
330
1F
100
AcDbEntity
  8
0
  6
CONTINUOUS
 62
     7
100
AcDbLine
 10
182.031225
 20
47.823219
 30
0.0
 11
172.631224
 21
47.823219
 31
0.0
  0
LINE
  5
ED
330
1F
100
AcDbEntity
  8
0
  6
CONTINUOUS
 62
     7
100
AcDbLine
 10
182.331226
 20
81.159538
 30
0.0
 11
182.331226
 21
77.446991
 31
0.0
  0
LINE
  5
EE
330
1F
100
AcDbEntity
  8
0
  6
CONTINUOUS
 62
     7
100
AcDbLine
 10
182.331226
 20
47.972086
 30
0.0
 11
182.331226
 21
44.259539
 31
0.0
  0
LINE
  5
EF
330
1F
100
AcDbEntity
  8
0
  6
CONTINUOUS
 62
     7
100
AcDbLine
 10
172.331224
 20
77.446991
 30
0.0
 11
172.331224
 21
81.159538
 31
0.0
  0
LINE
  5
F0
330
1F
100
AcDbEntity
  8
0
  6
CONTINUOUS
 62
     7
100
AcDbLine
 10
208.231225
 20
62.709539
 30
0.0
 11
208.231225
 21
72.234539
 31
0.0
  0
LINE
  5
F1
330
1F
100
AcDbEntity
  8
0
  6
CONTINUOUS
 62
     7
100
AcDbLine
 10
208.231225
 20
53.184538
 30
0.0
 11
208.231225
 21
62.709539
 31
0.0
  0
LINE
  5
F2
330
1F
100
AcDbEntity
  8
0
  6
CONTINUOUS
 62
     7
100
AcDbLine
 10
185.331225
 20
62.709539
 30
0.0
 11
185.331225
 21
72.234539
 31
0.0
  0
LINE
  5
F3
330
1F
100
AcDbEntity
  8
0
  6
CONTINUOUS
 62
     7
100
AcDbLine
 10
185.331225
 20
53.184538
 30
0.0
 11
185.331225
 21
62.709539
 31
0.0
  0
LINE
  5
F4
330
1F
100
AcDbEntity
  8
0
  6
CONTINUOUS
 62
     7
100
AcDbLine
 10
169.331224
 20
62.709539
 30
0.0
 11
169.331224
 21
72.234539
 31
0.0
  0
LINE
  5
F5
330
1F
100
AcDbEntity
  8
0
  6
CONTINUOUS
 62
     7
100
AcDbLine
 10
169.331224
 20
53.184538
 30
0.0
 11
169.331224
 21
62.709539
 31
0.0
  0
LINE
  5
F6
330
1F
100
AcDbEntity
  8
0
  6
CONTINUOUS
 62
     7
100
AcDbLine
 10
152.131225
 20
62.709539
 30
0.0
 11
152.131225
 21
72.234539
 31
0.0
  0
LINE
  5
F7
330
1F
100
AcDbEntity
  8
0
  6
CONTINUOUS
 62
     7
100
AcDbLine
 10
152.131225
 20
53.184538
 30
0.0
 11
152.131225
 21
62.709539
 31
0.0
  0
LINE
  5
F8
330
1F
100
AcDbEntity
  8
0
  6
CONTINUOUS
 62
     7
100
AcDbLine
 10
148.859306
 20
62.709539
 30
0.0
 11
148.859306
 21
72.224538
 31
0.0
  0
LINE
  5
F9
330
1F
100
AcDbEntity
  8
0
  6
CONTINUOUS
 62
     7
100
AcDbLine
 10
148.859306
 20
53.194539
 30
0.0
 11
148.859306
 21
62.709539
 31
0.0
  0
LINE
  5
FA
330
1F
100
AcDbEntity
  8
0
  6
CONTINUOUS
 62
     7
100
AcDbLine
 10
148.131225
 20
62.709539
 30
0.0
 11
148.131225
 21
71.959539
 31
0.0
  0
LINE
  5
FB
330
1F
100
AcDbEntity
  8
0
  6
CONTINUOUS
 62
     7
100
AcDbLine
 10
148.131225
 20
53.459538
 30
0.0
 11
148.131225
 21
62.709539
 31
0.0
  0
LINE
  5
FC
330
1F
100
AcDbEntity
  8
0
  6
CONTINUOUS
 62
     7
100
AcDbLine
 10
223.531227
 20
62.709539
 30
0.0
 11
223.531227
 21
53.294539
 31
0.0
  0
LINE
  5
FD
330
1F
100
AcDbEntity
  8
0
  6
CONTINUOUS
 62
     7
100
AcDbLine
 10
223.531227
 20
72.124538
 30
0.0
 11
223.531227
 21
62.709539
 31
0.0
  0
LINE
  5
FE
330
1F
100
AcDbEntity
  8
0
  6
CONTINUOUS
 62
     7
100
AcDbLine
 10
143.131225
 20
58.109538
 30
0.0
 11
143.131225
 21
67.309539
 31
0.0
  0
LINE
  5
FF
330
1F
100
AcDbEntity
  8
0
  6
CONTINUOUS
 62
     7
100
AcDbLine
 10
145.631225
 20
58.709538
 30
0.0
 11
143.231225
 21
58.709538
 31
0.0
  0
LINE
  5
100
330
1F
100
AcDbEntity
  8
0
  6
CONTINUOUS
 62
     7
100
AcDbLine
 10
143.231225
 20
58.709538
 30
0.0
 11
143.231225
 21
58.109538
 31
0.0
  0
LINE
  5
101
330
1F
100
AcDbEntity
  8
0
  6
CONTINUOUS
 62
     7
100
AcDbLine
 10
145.631225
 20
58.709538
 30
0.0
 11
145.631225
 21
58.109538
 31
0.0
  0
LINE
  5
102
330
1F
100
AcDbEntity
  8
0
  6
CONTINUOUS
 62
     7
100
AcDbLine
 10
143.231225
 20
67.309539
 30
0.0
 11
143.231225
 21
66.709539
 31
0.0
  0
LINE
  5
103
330
1F
100
AcDbEntity
  8
0
  6
CONTINUOUS
 62
     7
100
AcDbLine
 10
145.631225
 20
66.709539
 30
0.0
 11
143.231225
 21
66.709539
 31
0.0
  0
LINE
  5
104
330
1F
100
AcDbEntity
  8
0
  6
CONTINUOUS
 62
     7
100
AcDbLine
 10
145.631225
 20
67.309539
 30
0.0
 11
145.631225
 21
66.709539
 31
0.0
  0
LINE
  5
105
330
1F
100
AcDbEntity
  8
0
  6
CONTINUOUS
 62
     7
100
AcDbLine
 10
121.159722
 20
61.409539
 30
0.0
 11
121.159722
 21
64.009539
 31
0.0
  0
LINE
  5
106
330
1F
100
AcDbEntity
  8
0
  6
CONTINUOUS
 62
     7
100
AcDbLine
 10
135.159722
 20
64.386591
 30
0.0
 11
135.159722
 21
68.209539
 31
0.0
  0
LINE
  5
107
330
1F
100
AcDbEntity
  8
0
  6
CONTINUOUS
 62
     7
100
AcDbLine
 10
135.159722
 20
61.032486
 30
0.0
 11
135.159722
 21
64.386591
 31
0.0
  0
LINE
  5
108
330
1F
100
AcDbEntity
  8
0
  6
CONTINUOUS
 62
     7
100
AcDbLine
 10
135.159722
 20
57.209539
 30
0.0
 11
135.159722
 21
61.032486
 31
0.0
  0
LINE
  5
109
330
1F
100
AcDbEntity
  8
0
  6
CONTINUOUS
 62
     7
100
AcDbLine
 10
135.159722
 20
56.959538
 30
0.0
 11
135.159722
 21
57.209539
 31
0.0
  0
LINE
  5
10A
330
1F
100
AcDbEntity
  8
0
  6
CONTINUOUS
 62
     7
100
AcDbLine
 10
135.159722
 20
68.209539
 30
0.0
 11
135.159722
 21
68.459539
 31
0.0
  0
LINE
  5
10B
330
1F
100
AcDbEntity
  8
0
  6
CONTINUOUS
 62
     7
100
AcDbLine
 10
142.659722
 20
67.809539
 30
0.0
 11
142.659722
 21
57.609538
 31
0.0
  0
LINE
  5
10C
330
1F
100
AcDbEntity
  8
0
  6
CONTINUOUS
 62
     7
100
AcDbLine
 10
138.159722
 20
56.959538
 30
0.0
 11
138.159722
 21
57.209539
 31
0.0
  0
LINE
  5
10D
330
1F
100
AcDbEntity
  8
0
  6
CONTINUOUS
 62
     7
100
AcDbLine
 10
138.159722
 20
57.209539
 30
0.0
 11
138.159722
 21
61.032486
 31
0.0
  0
LINE
  5
10E
330
1F
100
AcDbEntity
  8
0
  6
CONTINUOUS
 62
     7
100
AcDbLine
 10
138.159722
 20
61.032486
 30
0.0
 11
138.159722
 21
64.386591
 31
0.0
  0
LINE
  5
10F
330
1F
100
AcDbEntity
  8
0
  6
CONTINUOUS
 62
     7
100
AcDbLine
 10
138.159722
 20
64.386591
 30
0.0
 11
138.159722
 21
68.209539
 31
0.0
  0
LINE
  5
110
330
1F
100
AcDbEntity
  8
0
  6
CONTINUOUS
 62
     7
100
AcDbLine
 10
138.159722
 20
68.209539
 30
0.0
 11
138.159722
 21
68.459539
 31
0.0
  0
LINE
  5
111
330
1F
100
AcDbEntity
  8
0
  6
CONTINUOUS
 62
     7
100
AcDbLine
 10
138.010125
 20
60.574123
 30
0.0
 11
138.159722
 21
61.032486
 31
0.0
  0
LINE
  5
112
330
1F
100
AcDbEntity
  8
0
  6
CONTINUOUS
 62
     7
100
AcDbLine
 10
135.310125
 20
60.574123
 30
0.0
 11
138.010125
 21
60.574123
 31
0.0
  0
LINE
  5
113
330
1F
100
AcDbEntity
  8
0
  6
CONTINUOUS
 62
     7
100
AcDbLine
 10
135.159722
 20
61.032486
 30
0.0
 11
135.310125
 21
60.574123
 31
0.0
  0
LINE
  5
114
330
1F
100
AcDbEntity
  8
0
  6
CONTINUOUS
 62
     7
100
AcDbLine
 10
135.310125
 20
64.844954
 30
0.0
 11
135.159722
 21
64.386591
 31
0.0
  0
LINE
  5
115
330
1F
100
AcDbEntity
  8
0
  6
CONTINUOUS
 62
     7
100
AcDbLine
 10
138.010125
 20
64.844954
 30
0.0
 11
135.310125
 21
64.844954
 31
0.0
  0
LINE
  5
116
330
1F
100
AcDbEntity
  8
0
  6
CONTINUOUS
 62
     7
100
AcDbLine
 10
138.159722
 20
64.386591
 30
0.0
 11
138.010125
 21
64.844954
 31
0.0
  0
LINE
  5
117
330
1F
100
AcDbEntity
  8
0
  6
CONTINUOUS
 62
     7
100
AcDbLine
 10
135.310125
 20
57.209539
 30
0.0
 11
135.310125
 21
60.574123
 31
0.0
  0
LINE
  5
118
330
1F
100
AcDbEntity
  8
0
  6
CONTINUOUS
 62
     7
100
AcDbLine
 10
135.310125
 20
57.209539
 30
0.0
 11
135.159722
 21
57.209539
 31
0.0
  0
LINE
  5
119
330
1F
100
AcDbEntity
  8
0
  6
CONTINUOUS
 62
     7
100
AcDbLine
 10
138.159722
 20
57.209539
 30
0.0
 11
138.010125
 21
57.209539
 31
0.0
  0
LINE
  5
11A
330
1F
100
AcDbEntity
  8
0
  6
CONTINUOUS
 62
     7
100
AcDbLine
 10
138.010125
 20
57.209539
 30
0.0
 11
138.010125
 21
60.574123
 31
0.0
  0
LINE
  5
11B
330
1F
100
AcDbEntity
  8
0
  6
CONTINUOUS
 62
     7
100
AcDbLine
 10
138.010125
 20
64.844954
 30
0.0
 11
138.010125
 21
68.209539
 31
0.0
  0
LINE
  5
11C
330
1F
100
AcDbEntity
  8
0
  6
CONTINUOUS
 62
     7
100
AcDbLine
 10
138.010125
 20
68.209539
 30
0.0
 11
138.159722
 21
68.209539
 31
0.0
  0
LINE
  5
11D
330
1F
100
AcDbEntity
  8
0
  6
CONTINUOUS
 62
     7
100
AcDbLine
 10
135.159722
 20
68.209539
 30
0.0
 11
135.310125
 21
68.209539
 31
0.0
  0
LINE
  5
11E
330
1F
100
AcDbEntity
  8
0
  6
CONTINUOUS
 62
     7
100
AcDbLine
 10
135.310125
 20
64.844954
 30
0.0
 11
135.310125
 21
68.209539
 31
0.0
  0
LINE
  5
11F
330
1F
100
AcDbEntity
  8
0
  6
CONTINUOUS
 62
     7
100
AcDbLine
 10
135.310125
 20
68.209539
 30
0.0
 11
138.010125
 21
68.209539
 31
0.0
  0
LINE
  5
120
330
1F
100
AcDbEntity
  8
0
  6
CONTINUOUS
 62
     7
100
AcDbLine
 10
138.010125
 20
57.209539
 30
0.0
 11
135.310125
 21
57.209539
 31
0.0
  0
LINE
  5
121
330
1F
100
AcDbEntity
  8
0
  6
CONTINUOUS
 62
     7
100
AcDbLine
 10
131.159722
 20
62.709539
 30
0.0
 11
131.159722
 21
66.132188
 31
0.0
  0
LINE
  5
122
330
1F
100
AcDbEntity
  8
0
  6
CONTINUOUS
 62
     7
100
AcDbLine
 10
131.159722
 20
59.286889
 30
0.0
 11
131.159722
 21
62.709539
 31
0.0
  0
INSERT
  5
126
330
1F
100
AcDbEntity
  8
0
100
AcDbBlockReference
  2
BLKF015
 10
0.0
 20
0.0
 30
0.0
  0
LINE
  5
155
330
1F
100
AcDbEntity
  8
0
  6
CONTINUOUS
 62
     7
100
AcDbLine
 10
224.596734
 20
72.122671
 30
0.0
 11
224.681686
 21
72.121938
 31
0.0
  0
INSERT
  5
159
330
1F
100
AcDbEntity
  8
0
100
AcDbBlockReference
  2
BLKF016
 10
0.0
 20
0.0
 30
0.0
  0
INSERT
  5
297
330
1F
100
AcDbEntity
  8
0
100
AcDbBlockReference
  2
BLKF017
 10
0.0
 20
0.0
 30
0.0
  0
LINE
  5
2A5
330
1F
100
AcDbEntity
  8
0
  6
CONTINUOUS
 62
     7
100
AcDbLine
 10
225.831221
 20
72.059539
 30
0.0
 11
225.831221
 21
53.359539
 31
0.0
  0
LINE
  5
2A6
330
1F
100
AcDbEntity
  8
0
  6
CONTINUOUS
 62
     7
100
AcDbLine
 10
227.131228
 20
54.259539
 30
0.0
 11
227.131228
 21
71.159538
 31
0.0
  0
LINE
  5
2A7
330
1F
100
AcDbEntity
  8
0
  6
CONTINUOUS
 62
     7
100
AcDbLine
 10
229.931223
 20
54.559538
 30
0.0
 11
229.931223
 21
70.859539
 31
0.0
  0
LINE
  5
2A8
330
1F
100
AcDbEntity
  8
0
  6
CONTINUOUS
 62
     7
100
AcDbLine
 10
233.931224
 20
70.659539
 30
0.0
 11
233.931224
 21
54.759538
 31
0.0
  0
INSERT
  5
2AC
330
1F
100
AcDbEntity
  8
0
100
AcDbBlockReference
  2
BLKF018
 10
0.0
 20
0.0
 30
0.0
  0
INSERT
  5
2BF
330
1F
100
AcDbEntity
  8
0
100
AcDbBlockReference
  2
BLKF019
 10
0.0
 20
0.0
 30
0.0
  0
INSERT
  5
35D
330
1F
100
AcDbEntity
  8
0
100
AcDbBlockReference
  2
BLKF020
 10
0.0
 20
0.0
 30
0.0
  0
INSERT
  5
36B
330
1F
100
AcDbEntity
  8
0
100
AcDbBlockReference
  2
BLKF021
 10
0.0
 20
0.0
 30
0.0
  0
LINE
  5
3D6
330
1F
100
AcDbEntity
  8
0
  6
CONTINUOUS
 62
     7
100
AcDbLine
 10
147.831225
 20
62.709539
 30
0.0
 11
147.831225
 21
72.159538
 31
0.0
  0
LINE
  5
3D7
330
1F
100
AcDbEntity
  8
0
  6
CONTINUOUS
 62
     7
100
AcDbLine
 10
145.731224
 20
53.459538
 30
0.0
 11
145.731224
 21
71.959539
 31
0.0
  0
LINE
  5
3D8
330
1F
100
AcDbEntity
  8
0
  6
CONTINUOUS
 62
     7
100
AcDbLine
 10
147.931225
 20
62.709539
 30
0.0
 11
147.931225
 21
53.359539
 31
0.0
  0
INSERT
  5
3DC
330
1F
100
AcDbEntity
  8
0
100
AcDbBlockReference
  2
BLKF022
 10
0.0
 20
0.0
 30
0.0
  0
INSERT
  5
3EF
330
1F
100
AcDbEntity
  8
0
100
AcDbBlockReference
  2
BLKF023
 10
0.0
 20
0.0
 30
0.0
  0
INSERT
  5
48D
330
1F
100
AcDbEntity
  8
0
100
AcDbBlockReference
  2
BLKF024
 10
0.0
 20
0.0
 30
0.0
  0
INSERT
  5
49B
330
1F
100
AcDbEntity
  8
0
100
AcDbBlockReference
  2
BLKF025
 10
0.0
 20
0.0
 30
0.0
  0
LINE
  5
506
330
1F
100
AcDbEntity
  8
0
  6
CONTINUOUS
 62
     8
100
AcDbLine
 10
134.718567
 20
68.609539
 30
0.0
 11
134.718567
 21
56.809538
 31
0.0
  0
LINE
  5
507
330
1F
100
AcDbEntity
  8
0
  6
CONTINUOUS
 62
     8
100
AcDbLine
 10
134.218567
 20
62.709539
 30
0.0
 11
134.218567
 21
68.475564
 31
0.0
  0
LINE
  5
508
330
1F
100
AcDbEntity
  8
0
  6
CONTINUOUS
 62
     8
100
AcDbLine
 10
134.218567
 20
56.943513
 30
0.0
 11
134.218567
 21
62.709539
 31
0.0
  0
LINE
  5
509
330
1F
100
AcDbEntity
  8
0
  6
CONTINUOUS
 62
     8
100
AcDbLine
 10
141.859722
 20
56.809538
 30
0.0
 11
141.859722
 21
68.609539
 31
0.0
  0
LINE
  5
50A
330
1F
100
AcDbEntity
  8
0
  6
CONTINUOUS
 62
     8
100
AcDbLine
 10
131.659721
 20
62.709539
 30
0.0
 11
131.659721
 21
58.420863
 31
0.0
  0
LINE
  5
50B
330
1F
100
AcDbEntity
  8
0
  6
CONTINUOUS
 62
     8
100
AcDbLine
 10
131.659721
 20
66.998214
 30
0.0
 11
131.659721
 21
62.709539
 31
0.0
  0
LINE
  5
50C
330
1F
100
AcDbEntity
  8
CSLAYER2
  6
CONTINUOUS
 62
     3
100
AcDbLine
 10
117.239067
 20
62.709539
 30
0.0
 11
238.002808
 21
62.709539
 31
0.0
  0
INSERT
  5
510
330
1F
100
AcDbEntity
  8
0
100
AcDbBlockReference
  2
BLKF026
 10
0.0
 20
0.0
 30
0.0
  0
INSERT
  5
51E
330
1F
100
AcDbEntity
  8
0
100
AcDbBlockReference
  2
BLKF027
 10
0.0
 20
0.0
 30
0.0
  0
INSERT
  5
52C
330
1F
100
AcDbEntity
  8
0
100
AcDbBlockReference
  2
BLKF028
 10
0.0
 20
0.0
 30
0.0
  0
INSERT
  5
53A
330
1F
100
AcDbEntity
  8
0
100
AcDbBlockReference
  2
BLKF029
 10
0.0
 20
0.0
 30
0.0
  0
INSERT
  5
548
330
1F
100
AcDbEntity
  8
0
100
AcDbBlockReference
  2
BLKF030
 10
0.0
 20
0.0
 30
0.0
  0
INSERT
  5
556
330
1F
100
AcDbEntity
  8
0
100
AcDbBlockReference
  2
BLKF031
 10
0.0
 20
0.0
 30
0.0
  0
INSERT
  5
566
330
1F
100
AcDbEntity
  8
0
100
AcDbBlockReference
  2
BLKF032
 10
0.0
 20
0.0
 30
0.0
  0
INSERT
  5
577
330
1F
100
AcDbEntity
  8
0
100
AcDbBlockReference
  2
BLKF033
 10
0.0
 20
0.0
 30
0.0
  0
INSERT
  5
58B
330
1F
100
AcDbEntity
  8
0
100
AcDbBlockReference
  2
BLKF034
 10
0.0
 20
0.0
 30
0.0
  0
INSERT
  5
59F
330
1F
100
AcDbEntity
  8
0
100
AcDbBlockReference
  2
BLKF035
 10
0.0
 20
0.0
 30
0.0
  0
INSERT
  5
5AF
330
1F
100
AcDbEntity
  8
0
100
AcDbBlockReference
  2
BLKF036
 10
0.0
 20
0.0
 30
0.0
  0
CIRCLE
  5
5BA
330
1F
100
AcDbEntity
  8
0
  6
CONTINUOUS
 62
     7
100
AcDbCircle
 10
50.961761
 20
62.709539
 30
0.0
 40
9.515000000000001
  0
CIRCLE
  5
5BB
330
1F
100
AcDbEntity
  8
0
  6
CONTINUOUS
 62
     7
100
AcDbCircle
 10
50.961761
 20
62.709539
 30
0.0
 40
9.525000000000006
  0
ARC
  5
5BC
330
1F
100
AcDbEntity
  8
0
  6
CONTINUOUS
 62
     7
100
AcDbCircle
 10
50.961761
 20
62.709539
 30
0.0
 40
18.75
100
AcDbArc
 50
232.55497
 51
307.44503
  0
LINE
  5
5BD
330
1F
100
AcDbEntity
  8
0
  6
CONTINUOUS
 62
     7
100
AcDbLine
 10
39.561761
 20
47.823219
 30
0.0
 11
39.561761
 21
77.595858
 31
0.0
  0
ARC
  5
5BE
330
1F
100
AcDbEntity
  8
0
  6
CONTINUOUS
 62
     7
100
AcDbCircle
 10
50.961761
 20
62.709539
 30
0.0
 40
18.75
100
AcDbArc
 50
52.55497
 51
127.44503
  0
CIRCLE
  5
5BF
330
1F
100
AcDbEntity
  8
0
  6
CONTINUOUS
 62
     7
100
AcDbCircle
 10
43.461761
 20
49.719158
 30
0.0
 40
2.100000000000001
  0
CIRCLE
  5
5C0
330
1F
100
AcDbEntity
  8
0
  6
CONTINUOUS
 62
     7
100
AcDbCircle
 10
43.461761
 20
75.69992
 30
0.0
 40
2.100000000000001
  0
CIRCLE
  5
5C1
330
1F
100
AcDbEntity
  8
0
  6
CONTINUOUS
 62
     7
100
AcDbCircle
 10
58.461761
 20
49.719158
 30
0.0
 40
2.100000000000009
  0
CIRCLE
  5
5C2
330
1F
100
AcDbEntity
  8
0
  6
CONTINUOUS
 62
     7
100
AcDbCircle
 10
58.461761
 20
75.69992
 30
0.0
 40
2.100000000000009
  0
LINE
  5
5C3
330
1F
100
AcDbEntity
  8
0
  6
CONTINUOUS
 62
     7
100
AcDbLine
 10
62.361762
 20
77.595858
 30
0.0
 11
62.361762
 21
47.823219
 31
0.0
  0
CIRCLE
  5
5C4
330
1F
100
AcDbEntity
  8
0
  6
CONTINUOUS
 62
     7
100
AcDbCircle
 10
50.961761
 20
62.709539
 30
0.0
 40
1.499999999999986
  0
CIRCLE
  5
5C5
330
1F
100
AcDbEntity
  8
0
  6
CONTINUOUS
 62
     7
100
AcDbCircle
 10
50.961761
 20
62.709539
 30
0.0
 40
1.299999999999997
  0
CIRCLE
  5
5C6
330
1F
100
AcDbEntity
  8
0
  6
CONTINUOUS
 62
     7
100
AcDbCircle
 10
50.961761
 20
62.709539
 30
0.0
 40
3.422649730810377
  0
CIRCLE
  5
5C7
330
1F
100
AcDbEntity
  8
0
  6
CONTINUOUS
 62
     7
100
AcDbCircle
 10
50.961761
 20
62.709539
 30
0.0
 40
4.288675134594826
  0
CIRCLE
  5
5C8
330
1F
100
AcDbEntity
  8
0
  6
CONTINUOUS
 62
     7
100
AcDbCircle
 10
50.961761
 20
62.709539
 30
0.0
 40
2.550000000000011
  0
CIRCLE
  5
5C9
330
1F
100
AcDbEntity
  8
0
  6
CONTINUOUS
 62
     7
100
AcDbCircle
 10
50.961761
 20
62.709539
 30
0.0
 40
5.900000000000006
  0
ARC
  5
5CA
330
1F
100
AcDbEntity
  8
0
  6
CONTINUOUS
 62
     7
100
AcDbCircle
 10
50.961761
 20
62.709539
 30
0.0
 40
2.499999999999997
100
AcDbArc
 50
95.73917
 51
204.26083
  0
LINE
  5
5CB
330
1F
100
AcDbEntity
  8
0
  6
CONTINUOUS
 62
     7
100
AcDbLine
 10
50.711761
 20
65.197007
 30
0.0
 11
50.711761
 21
64.340489
 31
0.0
  0
ARC
  5
5CC
330
1F
100
AcDbEntity
  8
0
  6
CONTINUOUS
 62
     7
100
AcDbCircle
 10
50.961761
 20
62.709539
 30
0.0
 40
1.64999999999999
100
AcDbArc
 50
98.714742
 51
201.285258
  0
LINE
  5
5CD
330
1F
100
AcDbEntity
  8
0
  6
CONTINUOUS
 62
     7
100
AcDbLine
 10
48.68255
 20
61.682311
 30
0.0
 11
49.424317
 21
62.11057
 31
0.0
  0
ARC
  5
5CE
330
1F
100
AcDbEntity
  8
0
  6
CONTINUOUS
 62
     7
100
AcDbCircle
 10
50.961761
 20
62.709539
 30
0.0
 40
2.500000000000002
100
AcDbArc
 50
215.73917
 51
324.26083
  0
ARC
  5
5CF
330
1F
100
AcDbEntity
  8
0
  6
CONTINUOUS
 62
     7
100
AcDbCircle
 10
50.961761
 20
62.709539
 30
0.0
 40
1.649999999999988
100
AcDbArc
 50
218.714742
 51
321.285258
  0
LINE
  5
5D0
330
1F
100
AcDbEntity
  8
0
  6
CONTINUOUS
 62
     7
100
AcDbLine
 10
52.990972
 20
61.249298
 30
0.0
 11
52.249206
 21
61.677557
 31
0.0
  0
LINE
  5
5D1
330
1F
100
AcDbEntity
  8
0
  6
CONTINUOUS
 62
     7
100
AcDbLine
 10
48.93255
 20
61.249298
 30
0.0
 11
49.674317
 21
61.677557
 31
0.0
  0
LINE
  5
5D2
330
1F
100
AcDbEntity
  8
0
  6
CONTINUOUS
 62
     7
100
AcDbLine
 10
50.711761
 20
64.340489
 30
0.0
 11
50.711761
 21
64.188559
 31
0.0
  0
LINE
  5
5D3
330
1F
100
AcDbEntity
  8
0
  6
CONTINUOUS
 62
     7
100
AcDbLine
 10
49.424317
 20
62.11057
 30
0.0
 11
49.555893
 21
62.186535
 31
0.0
  0
LINE
  5
5D4
330
1F
100
AcDbEntity
  8
0
  6
CONTINUOUS
 62
     7
100
AcDbLine
 10
52.249206
 20
61.677557
 30
0.0
 11
52.11763
 21
61.753522
 31
0.0
  0
LINE
  5
5D5
330
1F
100
AcDbEntity
  8
0
  6
CONTINUOUS
 62
     7
100
AcDbLine
 10
49.674317
 20
61.677557
 30
0.0
 11
49.805892
 21
61.753522
 31
0.0
  0
ARC
  5
5D6
330
1F
100
AcDbEntity
  8
0
  6
CONTINUOUS
 62
     7
100
AcDbCircle
 10
50.961761
 20
62.709539
 30
0.0
 40
2.499999999999997
100
AcDbArc
 50
-24.26083
 51
84.26083
  0
ARC
  5
5D7
330
1F
100
AcDbEntity
  8
0
  6
CONTINUOUS
 62
     7
100
AcDbCircle
 10
50.961761
 20
62.709539
 30
0.0
 40
1.649999999999982
100
AcDbArc
 50
-21.285258
 51
81.285258
  0
LINE
  5
5D8
330
1F
100
AcDbEntity
  8
0
  6
CONTINUOUS
 62
     7
100
AcDbLine
 10
53.240972
 20
61.682311
 30
0.0
 11
52.499206
 21
62.11057
 31
0.0
  0
LINE
  5
5D9
330
1F
100
AcDbEntity
  8
0
  6
CONTINUOUS
 62
     7
100
AcDbLine
 10
51.211761
 20
65.197007
 30
0.0
 11
51.211761
 21
64.340489
 31
0.0
  0
LINE
  5
5DA
330
1F
100
AcDbEntity
  8
0
  6
CONTINUOUS
 62
     7
100
AcDbLine
 10
52.499206
 20
62.11057
 30
0.0
 11
52.36763
 21
62.186535
 31
0.0
  0
LINE
  5
5DB
330
1F
100
AcDbEntity
  8
0
  6
CONTINUOUS
 62
     7
100
AcDbLine
 10
51.211761
 20
64.340489
 30
0.0
 11
51.211761
 21
64.188559
 31
0.0
  0
INSERT
  5
5DF
330
1F
100
AcDbEntity
  8
0
100
AcDbBlockReference
  2
BLKF037
 10
0.0
 20
0.0
 30
0.0
  0
INSERT
  5
5F1
330
1F
100
AcDbEntity
  8
0
100
AcDbBlockReference
  2
BLKF038
 10
0.0
 20
0.0
 30
0.0
  0
INSERT
  5
603
330
1F
100
AcDbEntity
  8
0
100
AcDbBlockReference
  2
BLKF039
 10
0.0
 20
0.0
 30
0.0
  0
CIRCLE
  5
612
330
1F
100
AcDbEntity
  8
CSLAYER2
  6
PHANTOM
 62
     3
100
AcDbCircle
 10
50.961761
 20
62.709539
 30
0.0
 40
18.74999999999999
  0
CIRCLE
  5
613
330
1F
100
AcDbEntity
  8
CSLAYER2
  6
PHANTOM
 62
     3
100
AcDbCircle
 10
50.961761
 20
62.709539
 30
0.0
 40
15.00000000000001
  0
INSERT
  5
617
330
1F
100
AcDbEntity
  8
0
100
AcDbBlockReference
  2
BLKF040
 10
0.0
 20
0.0
 30
0.0
  0
INSERT
  5
626
330
1F
100
AcDbEntity
  8
0
100
AcDbBlockReference
  2
BLKF041
 10
0.0
 20
0.0
 30
0.0
  0
INSERT
  5
635
330
1F
100
AcDbEntity
  8
0
100
AcDbBlockReference
  2
BLKF042
 10
0.0
 20
0.0
 30
0.0
  0
INSERT
  5
643
330
1F
100
AcDbEntity
  8
0
100
AcDbBlockReference
  2
BLKF043
 10
0.0
 20
0.0
 30
0.0
  0
INSERT
  5
651
330
1F
100
AcDbEntity
  8
0
100
AcDbBlockReference
  2
BLKF044
 10
0.0
 20
0.0
 30
0.0
  0
INSERT
  5
65F
330
1F
100
AcDbEntity
  8
0
100
AcDbBlockReference
  2
BLKF045
 10
0.0
 20
0.0
 30
0.0
  0
INSERT
  5
66B
330
1F
100
AcDbEntity
  8
0
100
AcDbBlockReference
  2
BLKF046
 10
0.0
 20
0.0
 30
0.0
  0
INSERT
  5
673
330
1F
100
AcDbEntity
  8
0
100
AcDbBlockReference
  2
BLKF047
 10
0.0
 20
0.0
 30
0.0
  0
INSERT
  5
67F
330
1F
100
AcDbEntity
  8
0
100
AcDbBlockReference
  2
BLKF048
 10
0.0
 20
0.0
 30
0.0
  0
INSERT
  5
68B
330
1F
100
AcDbEntity
  8
0
100
AcDbBlockReference
  2
BLKF049
 10
0.0
 20
0.0
 30
0.0
  0
INSERT
  5
697
330
1F
100
AcDbEntity
  8
0
100
AcDbBlockReference
  2
BLKF050
 10
0.0
 20
0.0
 30
0.0
  0
INSERT
  5
6A3
330
1F
100
AcDbEntity
  8
0
100
AcDbBlockReference
  2
BLKF051
 10
0.0
 20
0.0
 30
0.0
  0
ENDSEC
  0
SECTION
  2
OBJECTS
  0
DICTIONARY
  5
C
330
0
100
AcDbDictionary
  3
ACAD_GROUP
350
D
  3
ACAD_LAYOUT
350
1A
  3
ACAD_MLINESTYLE
350
17
  3
ACAD_PLOTSETTINGS
350
19
1001
ACAD
1000
TREAT_AS_HARD
1070
     0
  0
DICTIONARY
  5
D
102
{ACAD_REACTORS
330
C
102
}
330
C
100
AcDbDictionary
1001
ACAD
1000
TREAT_AS_HARD
1070
     0
  0
DICTIONARY
  5
1A
102
{ACAD_REACTORS
330
C
102
}
330
C
100
AcDbDictionary
1001
ACAD
1000
TREAT_AS_HARD
1070
     0
  0
DICTIONARY
  5
17
102
{ACAD_REACTORS
330
C
102
}
330
C
100
AcDbDictionary
  3
STANDARD
350
18
1001
ACAD
1000
TREAT_AS_HARD
1070
     0
  0
DICTIONARY
  5
19
102
{ACAD_REACTORS
330
C
102
}
330
C
100
AcDbDictionary
1001
ACAD
1000
TREAT_AS_HARD
1070
     0
  0
MLINESTYLE
  5
18
102
{ACAD_REACTORS
330
17
102
}
330
17
100
AcDbMlineStyle
  2
Standard
 70
     0
  3

 62
   256
 51
90.0
 52
90.0
 71
     2
 49
0.5
 62
   256
  6
BYLAYER
 49
-0.5
 62
   256
  6
BYLAYER
  0
ENDSEC
  0
EOF
