  0
SECTION
  2
HEADER
  9
$ACADVER
  1
AC1012
  9
$DWGCODEPAGE
  3
ansi_932
  9
$INSBASE
 10
0.0
 20
0.0
 30
0.0
  9
$EXTMIN
 10
0.0
 20
0.0
 30
0.0
  9
$EXTMAX
 10
329.55228
 20
439.227016
 30
0.0
  9
$LIMMIN
 10
0.0
 20
0.0
  9
$LIMMAX
 10
329.55228
 20
439.227016
  9
$ORTHOMODE
 70
     0
  9
$REGENMODE
 70
     1
  9
$FILLMODE
 70
     1
  9
$QTEXTMODE
 70
     0
  9
$MIRRTEXT
 70
     1
  9
$DRAGMODE
 70
     2
  9
$LTSCALE
 40
1.0
  9
$OSMODE
 70
    37
  9
$ATTMODE
 70
     1
  9
$TEXTSIZE
 40
0.2
  9
$TRACEWID
 40
0.05
  9
$TEXTSTYLE
  7
ED_VECTOR
  9
$CLAYER
  8
0
  9
$CELTYPE
  6
BYLAYER
  9
$CECOLOR
 62
   256
  9
$CELTSCALE
 40
1.0
  9
$DELOBJ
 70
     1
  9
$DISPSILH
 70
     0
  9
$DIMSCALE
 40
1.0
  9
$DIMASZ
 40
3.0
  9
$DIMEXO
 40
1.0
  9
$DIMDLI
 40
10.0
  9
$DIMRND
 40
0.0
  9
$DIMDLE
 40
5.0
  9
$DIMEXE
 40
1.0
  9
$DIMTP
 40
0.0
  9
$DIMTM
 40
0.0
  9
$DIMTXT
 40
4.0
  9
$DIMCEN
 40
2.5
  9
$DIMTSZ
 40
0.0
  9
$DIMTOL
 70
     0
  9
$DIMLIM
 70
     0
  9
$DIMTIH
 70
     0
  9
$DIMTOH
 70
     0
  9
$DIMSE1
 70
     0
  9
$DIMSE2
 70
     0
  9
$DIMTAD
 70
     1
  9
$DIMZIN
 70
     8
  9
$DIMBLK
  1

  9
$DIMASO
 70
     1
  9
$DIMSHO
 70
     1
  9
$DIMPOST
  1

  9
$DIMAPOST
  1

  9
$DIMALT
 70
     0
  9
$DIMALTD
 70
     3
  9
$DIMALTF
 40
0.03937
  9
$DIMLFAC
 40
1.0
  9
$DIMTOFL
 70
     1
  9
$DIMTVP
 40
0.0
  9
$DIMTIX
 70
     0
  9
$DIMSOXD
 70
     0
  9
$DIMSAH
 70
     1
  9
$DIMBLK1
  1
EDTIP_ARROW_S
  9
$DIMBLK2
  1
EDTIP_ARROW_E
  9
$DIMSTYLE
  2
EDDIMINFO
  9
$DIMCLRD
 70
     7
  9
$DIMCLRE
 70
     7
  9
$DIMCLRT
 70
     7
  9
$DIMTFAC
 40
1.0
  9
$DIMGAP
 40
1.0
  9
$DIMJUST
 70
     0
  9
$DIMSD1
 70
     0
  9
$DIMSD2
 70
     0
  9
$DIMTOLJ
 70
     0
  9
$DIMTZIN
 70
     8
  9
$DIMALTZ
 70
     0
  9
$DIMALTTZ
 70
     0
  9
$DIMFIT
 70
     3
  9
$DIMUPT
 70
     0
  9
$DIMUNIT
 70
     2
  9
$DIMDEC
 70
     2
  9
$DIMTDEC
 70
     2
  9
$DIMALTU
 70
     2
  9
$DIMALTTD
 70
     3
  9
$DIMTXSTY
  7
ED_VECTOR
  9
$DIMAUNIT
 70
     0
  9
$LUNITS
 70
     2
  9
$LUPREC
 70
     4
  9
$SKETCHINC
 40
0.1
  9
$FILLETRAD
 40
0.5
  9
$AUNITS
 70
     0
  9
$AUPREC
 70
     0
  9
$MENU
  1
.
  9
$ELEVATION
 40
0.0
  9
$PELEVATION
 40
0.0
  9
$THICKNESS
 40
0.0
  9
$LIMCHECK
 70
     0
  9
$CHAMFERA
 40
0.5
  9
$CHAMFERB
 40
0.5
  9
$CHAMFERC
 40
1.0
  9
$CHAMFERD
 40
0.0
  9
$SKPOLY
 70
     0
  9
$TDCREATE
 40
2455247.693652697
  9
$TDUPDATE
 40
2455247.693652709
  9
$TDINDWG
 40
0.0000000116
  9
$TDUSRTIMER
 40
0.0000000116
  9
$USRTIMER
 70
     1
  9
$ANGBASE
 50
0.0
  9
$ANGDIR
 70
     0
  9
$PDMODE
 70
     0
  9
$PDSIZE
 40
0.0
  9
$PLINEWID
 40
0.0
  9
$COORDS
 70
     1
  9
$SPLFRAME
 70
     0
  9
$SPLINETYPE
 70
     6
  9
$SPLINESEGS
 70
     8
  9
$ATTDIA
 70
     0
  9
$ATTREQ
 70
     1
  9
$HANDLING
 70
     1
  9
$HANDSEED
  5
791
  9
$SURFTAB1
 70
     6
  9
$SURFTAB2
 70
     6
  9
$SURFTYPE
 70
     6
  9
$SURFU
 70
     6
  9
$SURFV
 70
     6
  9
$UCSNAME
  2

  9
$UCSORG
 10
0.0
 20
0.0
 30
0.0
  9
$UCSXDIR
 10
1.0
 20
0.0
 30
0.0
  9
$UCSYDIR
 10
0.0
 20
1.0
 30
0.0
  9
$PUCSNAME
  2

  9
$PUCSORG
 10
0.0
 20
0.0
 30
0.0
  9
$PUCSXDIR
 10
1.0
 20
0.0
 30
0.0
  9
$PUCSYDIR
 10
0.0
 20
1.0
 30
0.0
  9
$USERI1
 70
     0
  9
$USERI2
 70
     0
  9
$USERI3
 70
     0
  9
$USERI4
 70
     0
  9
$USERI5
 70
     0
  9
$USERR1
 40
0.0
  9
$USERR2
 40
0.0
  9
$USERR3
 40
0.0
  9
$USERR4
 40
0.0
  9
$USERR5
 40
0.0
  9
$WORLDVIEW
 70
     1
  9
$SHADEDGE
 70
     3
  9
$SHADEDIF
 70
    70
  9
$TILEMODE
 70
     1
  9
$MAXACTVP
 70
    64
  9
$PINSBASE
 10
0.0
 20
0.0
 30
0.0
  9
$PLIMCHECK
 70
     0
  9
$PEXTMIN
 10
1.000000E+20
 20
1.000000E+20
 30
1.000000E+20
  9
$PEXTMAX
 10
-1.000000E+20
 20
-1.000000E+20
 30
-1.000000E+20
  9
$PLIMMIN
 10
0.0
 20
0.0
  9
$PLIMMAX
 10
12.0
 20
9.0
  9
$UNITMODE
 70
     0
  9
$VISRETAIN
 70
     1
  9
$PLINEGEN
 70
     0
  9
$PSLTSCALE
 70
     1
  9
$TREEDEPTH
 70
  3020
  9
$PICKSTYLE
 70
     1
  9
$CMLSTYLE
  2
STANDARD
  9
$CMLJUST
 70
     0
  9
$CMLSCALE
 40
1.0
  9
$SAVEIMAGES
 70
     1
  0
ENDSEC
  0
SECTION
  2
CLASSES
  0
CLASS
  1
ACDBDICTIONARYWDFLT
  2
AcDbDictionaryWithDefault
  3
ObjectDBX Classes
 90
    32768
280
     0
281
     0
  0
CLASS
  1
XRECORD
  2
AcDbXrecord
  3
AutoCAD 2000
 90
    32768
280
     0
281
     0
  0
CLASS
  1
LWPOLYLINE
  2
AcDbPolyline
  3
AutoCAD 2000
 90
    32768
280
     0
281
     1
  0
CLASS
  1
HATCH
  2
AcDbHatch
  3
AutoCAD 2000
 90
    32768
280
     0
281
     1
  0
CLASS
  1
ACDBPLACEHOLDER
  2
AcDbPlaceHolder
  3
ObjectDBX Classes
 90
        0
280
     0
281
     0
  0
CLASS
  1
LAYOUT
  2
AcDbLayout
  3
ObjectDBX Classes
 90
        0
280
     0
281
     0
  0
ENDSEC
  0
SECTION
  2
TABLES
  0
TABLE
  2
VPORT
  5
8
330
0
100
AcDbSymbolTable
 70
     1
  0
VPORT
  5
29
330
8
100
AcDbSymbolTableRecord
100
AcDbViewportTableRecord
  2
*ACTIVE
 70
     0
 10
0.0
 20
0.0
 11
1.0
 21
1.0
 12
164.77614
 22
219.613508
 13
0.0
 23
0.0
 14
0.5
 24
0.5
 15
0.5
 25
0.5
 16
0.0
 26
0.0
 36
1.0
 17
0.0
 27
0.0
 37
0.0
 40
439.227016
 41
0.750301
 42
50.0
 43
0.0
 44
0.0
 50
0.0
 51
0.0
 71
     0
 72
   100
 73
     1
 74
     3
 75
     0
 76
     0
 77
     0
 78
     0
  0
ENDTAB
  0
TABLE
  2
LTYPE
  5
5
330
0
100
AcDbSymbolTable
 70
     5
  0
LTYPE
  5
14
330
5
100
AcDbSymbolTableRecord
100
AcDbLinetypeTableRecord
  2
BYBLOCK
 70
     0
  3

 72
    65
 73
     0
 40
0.0
  0
LTYPE
  5
15
330
5
100
AcDbSymbolTableRecord
100
AcDbLinetypeTableRecord
  2
BYLAYER
 70
     0
  3

 72
    65
 73
     0
 40
0.0
  0
LTYPE
  5
16
330
5
100
AcDbSymbolTableRecord
100
AcDbLinetypeTableRecord
  2
CONTINUOUS
 70
     0
  3
--------------------
 72
    65
 73
     0
 40
0.0
  0
LTYPE
  5
2A
330
5
100
AcDbSymbolTableRecord
100
AcDbLinetypeTableRecord
  2
DASHED
 70
     0
  3
- - - - - - - - - - -
 72
    65
 73
     2
 40
19.1
 49
12.7
 74
     0
 49
-6.4
 74
     0
  0
LTYPE
  5
2B
330
5
100
AcDbSymbolTableRecord
100
AcDbLinetypeTableRecord
  2
CENTER
 70
     0
  3
- ･ - ･ - ･ - ･ - ･ - ･ - ･ - ･ - ･ - ･ -
 72
    65
 73
     4
 40
51.0
 49
31.8
 74
     0
 49
-6.4
 74
     0
 49
6.4
 74
     0
 49
-6.4
 74
     0
  0
LTYPE
  5
2C
330
5
100
AcDbSymbolTableRecord
100
AcDbLinetypeTableRecord
  2
PHANTOM
 70
     0
  3
- ･ ･ - ･ ･ - ･ ･ - ･ ･ - ･ ･ - ･ ･ - ･ ･ - 
 72
    65
 73
     6
 40
63.8
 49
31.8
 74
     0
 49
-6.4
 74
     0
 49
6.4
 74
     0
 49
-6.4
 74
     0
 49
6.4
 74
     0
 49
-6.4
 74
     0
  0
LTYPE
  5
2D
330
5
100
AcDbSymbolTableRecord
100
AcDbLinetypeTableRecord
  2
DOT
 70
     0
  3
・・・・・・・・・・・・・・・
 72
    65
 73
     2
 40
6.5
 49
0.1
 74
     0
 49
-6.4
 74
     0
  0
ENDTAB
  0
TABLE
  2
LAYER
  5
2
330
0
100
AcDbSymbolTable
 70
    16
  0
LAYER
  5
10
330
2
100
AcDbSymbolTableRecord
100
AcDbLayerTableRecord
  2
0
 70
     0
 62
     7
  6
CONTINUOUS
  0
LAYER
  5
2F
330
2
100
AcDbSymbolTableRecord
100
AcDbLayerTableRecord
  2
CSLAYER3
 70
     0
 62
     7
  6
CONTINUOUS
  0
ENDTAB
  0
TABLE
  2
STYLE
  5
3
330
0
100
AcDbSymbolTable
 70
     2
  0
STYLE
  5
11
330
3
100
AcDbSymbolTableRecord
100
AcDbTextStyleTableRecord
  2
STANDARD
 70
     0
 40
0.0
 41
1.0
 50
0.0
 71
     0
 42
0.2
  3
txt
  4

  0
STYLE
  5
3D
330
3
100
AcDbSymbolTableRecord
100
AcDbTextStyleTableRecord
  2
ED_VECTOR
 70
     0
 40
0.0
 41
1.0
 50
0.0
 71
     0
 42
0.2
  3
MONOTXT.SHX
  4
BIGFONT.SHX
  0
ENDTAB
  0
TABLE
  2
VIEW
  5
6
330
0
100
AcDbSymbolTable
 70
     0
  0
ENDTAB
  0
TABLE
  2
UCS
  5
7
330
0
100
AcDbSymbolTable
 70
     0
  0
ENDTAB
  0
TABLE
  2
APPID
  5
9
330
0
100
AcDbSymbolTable
 70
     1
  0
APPID
  5
12
330
9
100
AcDbSymbolTableRecord
100
AcDbRegAppTableRecord
  2
ACAD
 70
     0
  0
ENDTAB
  0
TABLE
  2
DIMSTYLE
  5
A
330
0
100
AcDbSymbolTable
 70
     2
  0
DIMSTYLE
105
27
330
A
100
AcDbSymbolTableRecord
100
AcDbDimStyleTableRecord
  2
STANDARD
 70
     0
  3

  4

  5

  6

  7

 40
1.0
 41
0.18
 42
0.0625
 43
0.38
 44
0.18
 45
0.0
 46
0.0
 47
0.0
 48
0.0
140
0.18
141
0.09
142
0.0
143
25.4
144
1.0
145
0.0
146
1.0
147
0.09
 71
     0
 72
     0
 73
     1
 74
     1
 75
     0
 76
     0
 77
     0
 78
     0
170
     0
171
     2
172
     0
173
     0
174
     0
175
     0
176
     0
177
     0
178
     0
270
     2
271
     4
272
     4
273
     2
274
     2
340
11
275
     0
280
     0
281
     0
282
     0
283
     1
284
     0
285
     0
286
     0
287
     3
288
     0
  0
DIMSTYLE
105
6E
330
A
100
AcDbSymbolTableRecord
100
AcDbDimStyleTableRecord
  2
EDDIMINFO
 70
     0
  3

  4

  5

  6
EDTIP_ARROW_S
  7
EDTIP_ARROW_E
 40
1.0
 41
3.0
 42
1.0
 43
10.0
 44
1.0
 45
0.0
 46
5.0
 47
0.0
 48
0.0
140
4.0
141
2.5
142
0.0
143
0.03937
144
1.0
145
0.0
146
1.0
147
1.0
 71
     0
 72
     0
 73
     0
 74
     0
 75
     0
 76
     0
 77
     1
 78
     8
170
     0
171
     3
172
     1
173
     1
174
     0
175
     0
176
     7
177
     7
178
     7
179
     2
270
     2
271
     2
272
     2
273
     2
274
     3
340
3D
275
     0
280
     0
281
     0
282
     0
283
     0
284
     8
285
     0
286
     0
287
     3
288
     0
  0
ENDTAB
  0
TABLE
  2
BLOCK_RECORD
  5
1
330
0
100
AcDbSymbolTable
 70
    61
  0
BLOCK_RECORD
  5
1F
330
1
100
AcDbSymbolTableRecord
100
AcDbBlockTableRecord
  2
*MODEL_SPACE
  0
BLOCK_RECORD
  5
1B
330
1
100
AcDbSymbolTableRecord
100
AcDbBlockTableRecord
  2
*PAPER_SPACE
  0
BLOCK_RECORD
  5
3E
330
1
100
AcDbSymbolTableRecord
100
AcDbBlockTableRecord
  2
EDTIP_ARROW_S
  0
BLOCK_RECORD
  5
44
330
1
100
AcDbSymbolTableRecord
100
AcDbBlockTableRecord
  2
EDTIP_ARROW_E
  0
BLOCK_RECORD
  5
4A
330
1
100
AcDbSymbolTableRecord
100
AcDbBlockTableRecord
  2
EDTIP_BLACKDOT_S
  0
BLOCK_RECORD
  5
50
330
1
100
AcDbSymbolTableRecord
100
AcDbBlockTableRecord
  2
EDTIP_BLACKDOT_E
  0
BLOCK_RECORD
  5
56
330
1
100
AcDbSymbolTableRecord
100
AcDbBlockTableRecord
  2
EDTIP_ARCHITECT_S
  0
BLOCK_RECORD
  5
5C
330
1
100
AcDbSymbolTableRecord
100
AcDbBlockTableRecord
  2
EDTIP_ARCHITECT_E
  0
BLOCK_RECORD
  5
62
330
1
100
AcDbSymbolTableRecord
100
AcDbBlockTableRecord
  2
EDTIP_CIVIL_S
  0
BLOCK_RECORD
  5
68
330
1
100
AcDbSymbolTableRecord
100
AcDbBlockTableRecord
  2
EDTIP_CIVIL_E
  0
BLOCK_RECORD
  5
12C
330
1
100
AcDbSymbolTableRecord
100
AcDbBlockTableRecord
  2
BLKF011
  0
BLOCK_RECORD
  5
174
330
1
100
AcDbSymbolTableRecord
100
AcDbBlockTableRecord
  2
BLKF012
  0
BLOCK_RECORD
  5
228
330
1
100
AcDbSymbolTableRecord
100
AcDbBlockTableRecord
  2
BLKF013
  0
BLOCK_RECORD
  5
288
330
1
100
AcDbSymbolTableRecord
100
AcDbBlockTableRecord
  2
BLKF014
  0
BLOCK_RECORD
  5
2A7
330
1
100
AcDbSymbolTableRecord
100
AcDbBlockTableRecord
  2
BLKF015
  0
BLOCK_RECORD
  5
2CF
330
1
100
AcDbSymbolTableRecord
100
AcDbBlockTableRecord
  2
BLKF016
  0
BLOCK_RECORD
  5
2F1
330
1
100
AcDbSymbolTableRecord
100
AcDbBlockTableRecord
  2
BLKF017
  0
BLOCK_RECORD
  5
319
330
1
100
AcDbSymbolTableRecord
100
AcDbBlockTableRecord
  2
BLKF018
  0
BLOCK_RECORD
  5
340
330
1
100
AcDbSymbolTableRecord
100
AcDbBlockTableRecord
  2
BLKF019
  0
BLOCK_RECORD
  5
361
330
1
100
AcDbSymbolTableRecord
100
AcDbBlockTableRecord
  2
BLKF020
  0
BLOCK_RECORD
  5
37F
330
1
100
AcDbSymbolTableRecord
100
AcDbBlockTableRecord
  2
BLKF021
  0
BLOCK_RECORD
  5
3BF
330
1
100
AcDbSymbolTableRecord
100
AcDbBlockTableRecord
  2
BLKF022
  0
BLOCK_RECORD
  5
3CF
330
1
100
AcDbSymbolTableRecord
100
AcDbBlockTableRecord
  2
BLKF023
  0
BLOCK_RECORD
  5
3DD
330
1
100
AcDbSymbolTableRecord
100
AcDbBlockTableRecord
  2
BLKF024
  0
BLOCK_RECORD
  5
3EC
330
1
100
AcDbSymbolTableRecord
100
AcDbBlockTableRecord
  2
BLKF025
  0
BLOCK_RECORD
  5
3FC
330
1
100
AcDbSymbolTableRecord
100
AcDbBlockTableRecord
  2
BLKF026
  0
BLOCK_RECORD
  5
40C
330
1
100
AcDbSymbolTableRecord
100
AcDbBlockTableRecord
  2
BLKF027
  0
BLOCK_RECORD
  5
41C
330
1
100
AcDbSymbolTableRecord
100
AcDbBlockTableRecord
  2
BLKF028
  0
BLOCK_RECORD
  5
42A
330
1
100
AcDbSymbolTableRecord
100
AcDbBlockTableRecord
  2
BLKF029
  0
BLOCK_RECORD
  5
438
330
1
100
AcDbSymbolTableRecord
100
AcDbBlockTableRecord
  2
BLKF030
  0
BLOCK_RECORD
  5
44A
330
1
100
AcDbSymbolTableRecord
100
AcDbBlockTableRecord
  2
BLKF031
  0
BLOCK_RECORD
  5
47A
330
1
100
AcDbSymbolTableRecord
100
AcDbBlockTableRecord
  2
BLKF032
  0
BLOCK_RECORD
  5
489
330
1
100
AcDbSymbolTableRecord
100
AcDbBlockTableRecord
  2
BLKF033
  0
BLOCK_RECORD
  5
498
330
1
100
AcDbSymbolTableRecord
100
AcDbBlockTableRecord
  2
BLKF034
  0
BLOCK_RECORD
  5
4A7
330
1
100
AcDbSymbolTableRecord
100
AcDbBlockTableRecord
  2
BLKF035
  0
BLOCK_RECORD
  5
4C5
330
1
100
AcDbSymbolTableRecord
100
AcDbBlockTableRecord
  2
BLKF036
  0
BLOCK_RECORD
  5
4D2
330
1
100
AcDbSymbolTableRecord
100
AcDbBlockTableRecord
  2
BLKF037
  0
BLOCK_RECORD
  5
4DE
330
1
100
AcDbSymbolTableRecord
100
AcDbBlockTableRecord
  2
BLKF038
  0
BLOCK_RECORD
  5
524
330
1
100
AcDbSymbolTableRecord
100
AcDbBlockTableRecord
  2
BLKF039
  0
BLOCK_RECORD
  5
530
330
1
100
AcDbSymbolTableRecord
100
AcDbBlockTableRecord
  2
BLKF040
  0
BLOCK_RECORD
  5
615
330
1
100
AcDbSymbolTableRecord
100
AcDbBlockTableRecord
  2
BLKF041
  0
BLOCK_RECORD
  5
623
330
1
100
AcDbSymbolTableRecord
100
AcDbBlockTableRecord
  2
BLKF042
  0
BLOCK_RECORD
  5
62B
330
1
100
AcDbSymbolTableRecord
100
AcDbBlockTableRecord
  2
BLKF043
  0
BLOCK_RECORD
  5
63D
330
1
100
AcDbSymbolTableRecord
100
AcDbBlockTableRecord
  2
BLKF044
  0
BLOCK_RECORD
  5
649
330
1
100
AcDbSymbolTableRecord
100
AcDbBlockTableRecord
  2
BLKF045
  0
BLOCK_RECORD
  5
659
330
1
100
AcDbSymbolTableRecord
100
AcDbBlockTableRecord
  2
BLKF046
  0
BLOCK_RECORD
  5
666
330
1
100
AcDbSymbolTableRecord
100
AcDbBlockTableRecord
  2
BLKF047
  0
BLOCK_RECORD
  5
672
330
1
100
AcDbSymbolTableRecord
100
AcDbBlockTableRecord
  2
BLKF048
  0
BLOCK_RECORD
  5
67F
330
1
100
AcDbSymbolTableRecord
100
AcDbBlockTableRecord
  2
BLKF049
  0
BLOCK_RECORD
  5
68E
330
1
100
AcDbSymbolTableRecord
100
AcDbBlockTableRecord
  2
BLKF050
  0
BLOCK_RECORD
  5
6AD
330
1
100
AcDbSymbolTableRecord
100
AcDbBlockTableRecord
  2
BLKF051
  0
BLOCK_RECORD
  5
6D7
330
1
100
AcDbSymbolTableRecord
100
AcDbBlockTableRecord
  2
BLKF052
  0
BLOCK_RECORD
  5
6E5
330
1
100
AcDbSymbolTableRecord
100
AcDbBlockTableRecord
  2
BLKF053
  0
BLOCK_RECORD
  5
6F4
330
1
100
AcDbSymbolTableRecord
100
AcDbBlockTableRecord
  2
BLKF054
  0
BLOCK_RECORD
  5
71C
330
1
100
AcDbSymbolTableRecord
100
AcDbBlockTableRecord
  2
BLKF055
  0
BLOCK_RECORD
  5
72A
330
1
100
AcDbSymbolTableRecord
100
AcDbBlockTableRecord
  2
BLKF056
  0
BLOCK_RECORD
  5
737
330
1
100
AcDbSymbolTableRecord
100
AcDbBlockTableRecord
  2
BLKF057
  0
BLOCK_RECORD
  5
743
330
1
100
AcDbSymbolTableRecord
100
AcDbBlockTableRecord
  2
BLKF058
  0
BLOCK_RECORD
  5
74B
330
1
100
AcDbSymbolTableRecord
100
AcDbBlockTableRecord
  2
BLKF059
  0
BLOCK_RECORD
  5
752
330
1
100
AcDbSymbolTableRecord
100
AcDbBlockTableRecord
  2
BLKF060
  0
BLOCK_RECORD
  5
776
330
1
100
AcDbSymbolTableRecord
100
AcDbBlockTableRecord
  2
BLKF061
  0
BLOCK_RECORD
  5
785
330
1
100
AcDbSymbolTableRecord
100
AcDbBlockTableRecord
  2
BLKF062
  0
ENDTAB
  0
ENDSEC
  0
SECTION
  2
BLOCKS
  0
BLOCK
  5
20
330
1F
100
AcDbEntity
  8
0
100
AcDbBlockBegin
  2
*MODEL_SPACE
 70
     0
 71
     0
 10
0.0
 20
0.0
 30
0.0
  3
*MODEL_SPACE
  1

  0
ENDBLK
  5
21
330
1F
100
AcDbEntity
  8
0
100
AcDbBlockEnd
  0
BLOCK
  5
1C
330
1B
100
AcDbEntity
 67
     1
  8
0
100
AcDbBlockBegin
  2
*PAPER_SPACE
 70
     0
 71
     0
 10
0.0
 20
0.0
 30
0.0
  3
*PAPER_SPACE
  1

  0
ENDBLK
  5
1D
330
1B
100
AcDbEntity
 67
     1
  8
0
100
AcDbBlockEnd
  0
BLOCK
  5
3F
330
3E
100
AcDbEntity
  8
0
100
AcDbBlockBegin
  2
EDTIP_ARROW_S
 70
     0
 71
     0
 10
0.0
 20
0.0
 30
0.0
  3
EDTIP_ARROW_S
  1

  0
LINE
  5
41
330
3E
100
AcDbEntity
  8
0
  6
CONTINUOUS
 62
     0
100
AcDbLine
 10
0.0
 20
0.0
 30
0.0
 11
-1.0
 21
0.0
 31
0.0
  0
LINE
  5
42
330
3E
100
AcDbEntity
  8
0
  6
CONTINUOUS
 62
     0
100
AcDbLine
 10
0.0
 20
0.0
 30
0.0
 11
-0.965926
 21
0.258819
 31
0.0
  0
LINE
  5
43
330
3E
100
AcDbEntity
  8
0
  6
CONTINUOUS
 62
     0
100
AcDbLine
 10
0.0
 20
0.0
 30
0.0
 11
-0.965926
 21
-0.258819
 31
0.0
  0
ENDBLK
  5
40
330
3E
100
AcDbEntity
  8
0
100
AcDbBlockEnd
  0
BLOCK
  5
45
330
44
100
AcDbEntity
  8
0
100
AcDbBlockBegin
  2
EDTIP_ARROW_E
 70
     0
 71
     0
 10
0.0
 20
0.0
 30
0.0
  3
EDTIP_ARROW_E
  1

  0
LINE
  5
47
330
44
100
AcDbEntity
  8
0
  6
CONTINUOUS
 62
     0
100
AcDbLine
 10
0.0
 20
0.0
 30
0.0
 11
-1.0
 21
0.0
 31
0.0
  0
LINE
  5
48
330
44
100
AcDbEntity
  8
0
  6
CONTINUOUS
 62
     0
100
AcDbLine
 10
0.0
 20
0.0
 30
0.0
 11
-0.965926
 21
-0.258819
 31
0.0
  0
LINE
  5
49
330
44
100
AcDbEntity
  8
0
  6
CONTINUOUS
 62
     0
100
AcDbLine
 10
0.0
 20
0.0
 30
0.0
 11
-0.965926
 21
0.258819
 31
0.0
  0
ENDBLK
  5
46
330
44
100
AcDbEntity
  8
0
100
AcDbBlockEnd
  0
BLOCK
  5
4B
330
4A
100
AcDbEntity
  8
0
100
AcDbBlockBegin
  2
EDTIP_BLACKDOT_S
 70
     0
 71
     0
 10
0.0
 20
0.0
 30
0.0
  3
EDTIP_BLACKDOT_S
  1

  0
LINE
  5
4D
330
4A
100
AcDbEntity
  8
0
  6
CONTINUOUS
 62
     0
100
AcDbLine
 10
0.0
 20
0.0
 30
0.0
 11
-1.0
 21
0.0
 31
0.0
  0
CIRCLE
  5
4E
330
4A
100
AcDbEntity
  8
0
  6
CONTINUOUS
 62
     0
100
AcDbCircle
 10
0.0
 20
0.0
 30
0.0
 40
0.5
  0
CIRCLE
  5
4F
330
4A
100
AcDbEntity
  8
0
  6
CONTINUOUS
 62
     0
100
AcDbCircle
 10
0.0
 20
0.0
 30
0.0
 40
0.25
  0
ENDBLK
  5
4C
330
4A
100
AcDbEntity
  8
0
100
AcDbBlockEnd
  0
BLOCK
  5
51
330
50
100
AcDbEntity
  8
0
100
AcDbBlockBegin
  2
EDTIP_BLACKDOT_E
 70
     0
 71
     0
 10
0.0
 20
0.0
 30
0.0
  3
EDTIP_BLACKDOT_E
  1

  0
LINE
  5
53
330
50
100
AcDbEntity
  8
0
  6
CONTINUOUS
 62
     0
100
AcDbLine
 10
0.0
 20
0.0
 30
0.0
 11
-1.0
 21
0.0
 31
0.0
  0
CIRCLE
  5
54
330
50
100
AcDbEntity
  8
0
  6
CONTINUOUS
 62
     0
100
AcDbCircle
 10
0.0
 20
0.0
 30
0.0
 40
0.5
  0
CIRCLE
  5
55
330
50
100
AcDbEntity
  8
0
  6
CONTINUOUS
 62
     0
100
AcDbCircle
 10
0.0
 20
0.0
 30
0.0
 40
0.25
  0
ENDBLK
  5
52
330
50
100
AcDbEntity
  8
0
100
AcDbBlockEnd
  0
BLOCK
  5
57
330
56
100
AcDbEntity
  8
0
100
AcDbBlockBegin
  2
EDTIP_ARCHITECT_S
 70
     0
 71
     0
 10
0.0
 20
0.0
 30
0.0
  3
EDTIP_ARCHITECT_S
  1

  0
LINE
  5
59
330
56
100
AcDbEntity
  8
0
  6
CONTINUOUS
 62
     0
100
AcDbLine
 10
0.0
 20
0.0
 30
0.0
 11
-1.0
 21
0.0
 31
0.0
  0
LINE
  5
5A
330
56
100
AcDbEntity
  8
0
  6
CONTINUOUS
 62
     0
100
AcDbLine
 10
0.0
 20
0.0
 30
0.0
 11
-0.707107
 21
-0.707107
 31
0.0
  0
LINE
  5
5B
330
56
100
AcDbEntity
  8
0
  6
CONTINUOUS
 62
     0
100
AcDbLine
 10
0.0
 20
0.0
 30
0.0
 11
0.707107
 21
0.707107
 31
0.0
  0
ENDBLK
  5
58
330
56
100
AcDbEntity
  8
0
100
AcDbBlockEnd
  0
BLOCK
  5
5D
330
5C
100
AcDbEntity
  8
0
100
AcDbBlockBegin
  2
EDTIP_ARCHITECT_E
 70
     0
 71
     0
 10
0.0
 20
0.0
 30
0.0
  3
EDTIP_ARCHITECT_E
  1

  0
LINE
  5
5F
330
5C
100
AcDbEntity
  8
0
  6
CONTINUOUS
 62
     0
100
AcDbLine
 10
0.0
 20
0.0
 30
0.0
 11
-1.0
 21
0.0
 31
0.0
  0
LINE
  5
60
330
5C
100
AcDbEntity
  8
0
  6
CONTINUOUS
 62
     0
100
AcDbLine
 10
0.0
 20
0.0
 30
0.0
 11
-0.707107
 21
-0.707107
 31
0.0
  0
LINE
  5
61
330
5C
100
AcDbEntity
  8
0
  6
CONTINUOUS
 62
     0
100
AcDbLine
 10
0.0
 20
0.0
 30
0.0
 11
0.707107
 21
0.707107
 31
0.0
  0
ENDBLK
  5
5E
330
5C
100
AcDbEntity
  8
0
100
AcDbBlockEnd
  0
BLOCK
  5
63
330
62
100
AcDbEntity
  8
0
100
AcDbBlockBegin
  2
EDTIP_CIVIL_S
 70
     0
 71
     0
 10
0.0
 20
0.0
 30
0.0
  3
EDTIP_CIVIL_S
  1

  0
LINE
  5
65
330
62
100
AcDbEntity
  8
0
  6
CONTINUOUS
 62
     0
100
AcDbLine
 10
0.0
 20
0.0
 30
0.0
 11
-1.0
 21
0.0
 31
0.0
  0
LINE
  5
66
330
62
100
AcDbEntity
  8
0
  6
CONTINUOUS
 62
     0
100
AcDbLine
 10
0.0
 20
-0.083333
 30
0.0
 11
-1.0
 21
-0.083333
 31
0.0
  0
LINE
  5
67
330
62
100
AcDbEntity
  8
0
  6
CONTINUOUS
 62
     0
100
AcDbLine
 10
0.0
 20
-0.166667
 30
0.0
 11
-1.0
 21
-0.166667
 31
0.0
  0
ENDBLK
  5
64
330
62
100
AcDbEntity
  8
0
100
AcDbBlockEnd
  0
BLOCK
  5
69
330
68
100
AcDbEntity
  8
0
100
AcDbBlockBegin
  2
EDTIP_CIVIL_E
 70
     0
 71
     0
 10
0.0
 20
0.0
 30
0.0
  3
EDTIP_CIVIL_E
  1

  0
LINE
  5
6B
330
68
100
AcDbEntity
  8
0
  6
CONTINUOUS
 62
     0
100
AcDbLine
 10
0.0
 20
0.0
 30
0.0
 11
-1.0
 21
0.0
 31
0.0
  0
LINE
  5
6C
330
68
100
AcDbEntity
  8
0
  6
CONTINUOUS
 62
     0
100
AcDbLine
 10
0.0
 20
0.083333
 30
0.0
 11
-1.0
 21
0.083333
 31
0.0
  0
LINE
  5
6D
330
68
100
AcDbEntity
  8
0
  6
CONTINUOUS
 62
     0
100
AcDbLine
 10
0.0
 20
0.166667
 30
0.0
 11
-1.0
 21
0.166667
 31
0.0
  0
ENDBLK
  5
6A
330
68
100
AcDbEntity
  8
0
100
AcDbBlockEnd
  0
BLOCK
  5
12D
330
12C
100
AcDbEntity
  8
0
100
AcDbBlockBegin
  2
BLKF011
 70
     0
 71
     0
 10
0.0
 20
0.0
 30
0.0
  3
BLKF011
  1

  0
LINE
  5
130
330
12C
100
AcDbEntity
  8
0
  6
CONTINUOUS
 62
     7
100
AcDbLine
 10
164.376118
 20
158.033775
 30
0.0
 11
164.299211
 21
158.13466
 31
0.0
  0
LINE
  5
131
330
12C
100
AcDbEntity
  8
0
  6
CONTINUOUS
 62
     7
100
AcDbLine
 10
164.299211
 20
158.13466
 30
0.0
 11
164.260442
 21
158.184743
 31
0.0
  0
LINE
  5
132
330
12C
100
AcDbEntity
  8
0
  6
CONTINUOUS
 62
     7
100
AcDbLine
 10
164.260442
 20
158.184743
 30
0.0
 11
164.221296
 21
158.234395
 31
0.0
  0
LINE
  5
133
330
12C
100
AcDbEntity
  8
0
  6
CONTINUOUS
 62
     7
100
AcDbLine
 10
164.221296
 20
158.234395
 30
0.0
 11
164.181646
 21
158.283471
 31
0.0
  0
LINE
  5
134
330
12C
100
AcDbEntity
  8
0
  6
CONTINUOUS
 62
     7
100
AcDbLine
 10
164.181646
 20
158.283471
 30
0.0
 11
164.141366
 21
158.331828
 31
0.0
  0
LINE
  5
135
330
12C
100
AcDbEntity
  8
0
  6
CONTINUOUS
 62
     7
100
AcDbLine
 10
164.141366
 20
158.331828
 30
0.0
 11
164.10033
 21
158.379322
 31
0.0
  0
LINE
  5
136
330
12C
100
AcDbEntity
  8
0
  6
CONTINUOUS
 62
     7
100
AcDbLine
 10
164.10033
 20
158.379322
 30
0.0
 11
164.058414
 21
158.42581
 31
0.0
  0
LINE
  5
137
330
12C
100
AcDbEntity
  8
0
  6
CONTINUOUS
 62
     7
100
AcDbLine
 10
164.058414
 20
158.42581
 30
0.0
 11
164.015489
 21
158.471146
 31
0.0
  0
LINE
  5
138
330
12C
100
AcDbEntity
  8
0
  6
CONTINUOUS
 62
     7
100
AcDbLine
 10
164.015489
 20
158.471146
 30
0.0
 11
163.971432
 21
158.515188
 31
0.0
  0
LINE
  5
139
330
12C
100
AcDbEntity
  8
0
  6
CONTINUOUS
 62
     7
100
AcDbLine
 10
163.971432
 20
158.515188
 30
0.0
 11
163.926115
 21
158.557792
 31
0.0
  0
LINE
  5
13A
330
12C
100
AcDbEntity
  8
0
  6
CONTINUOUS
 62
     7
100
AcDbLine
 10
163.926115
 20
158.557792
 30
0.0
 11
163.879413
 21
158.598814
 31
0.0
  0
LINE
  5
13B
330
12C
100
AcDbEntity
  8
0
  6
CONTINUOUS
 62
     7
100
AcDbLine
 10
163.879413
 20
158.598814
 30
0.0
 11
163.855503
 21
158.618686
 31
0.0
  0
LINE
  5
13C
330
12C
100
AcDbEntity
  8
0
  6
CONTINUOUS
 62
     7
100
AcDbLine
 10
163.855503
 20
158.618686
 30
0.0
 11
163.831199
 21
158.63811
 31
0.0
  0
LINE
  5
13D
330
12C
100
AcDbEntity
  8
0
  6
CONTINUOUS
 62
     7
100
AcDbLine
 10
163.831199
 20
158.63811
 30
0.0
 11
163.806487
 21
158.657065
 31
0.0
  0
LINE
  5
13E
330
12C
100
AcDbEntity
  8
0
  6
CONTINUOUS
 62
     7
100
AcDbLine
 10
163.806487
 20
158.657065
 30
0.0
 11
163.781349
 21
158.675535
 31
0.0
  0
LINE
  5
13F
330
12C
100
AcDbEntity
  8
0
  6
CONTINUOUS
 62
     7
100
AcDbLine
 10
163.781349
 20
158.675535
 30
0.0
 11
163.75577
 21
158.693502
 31
0.0
  0
LINE
  5
140
330
12C
100
AcDbEntity
  8
0
  6
CONTINUOUS
 62
     7
100
AcDbLine
 10
163.75577
 20
158.693502
 30
0.0
 11
163.729735
 21
158.710948
 31
0.0
  0
LINE
  5
141
330
12C
100
AcDbEntity
  8
0
  6
CONTINUOUS
 62
     7
100
AcDbLine
 10
163.729735
 20
158.710948
 30
0.0
 11
163.703228
 21
158.727854
 31
0.0
  0
LINE
  5
142
330
12C
100
AcDbEntity
  8
0
  6
CONTINUOUS
 62
     7
100
AcDbLine
 10
163.703228
 20
158.727854
 30
0.0
 11
163.676233
 21
158.744202
 31
0.0
  0
LINE
  5
143
330
12C
100
AcDbEntity
  8
0
  6
CONTINUOUS
 62
     7
100
AcDbLine
 10
163.676233
 20
158.744202
 30
0.0
 11
163.644507
 21
158.762324
 31
0.0
  0
LINE
  5
144
330
12C
100
AcDbEntity
  8
0
  6
CONTINUOUS
 62
     7
100
AcDbLine
 10
163.644507
 20
158.762324
 30
0.0
 11
163.612161
 21
158.779615
 31
0.0
  0
LINE
  5
145
330
12C
100
AcDbEntity
  8
0
  6
CONTINUOUS
 62
     7
100
AcDbLine
 10
163.612161
 20
158.779615
 30
0.0
 11
163.579247
 21
158.796012
 31
0.0
  0
LINE
  5
146
330
12C
100
AcDbEntity
  8
0
  6
CONTINUOUS
 62
     7
100
AcDbLine
 10
163.579247
 20
158.796012
 30
0.0
 11
163.545815
 21
158.811448
 31
0.0
  0
LINE
  5
147
330
12C
100
AcDbEntity
  8
0
  6
CONTINUOUS
 62
     7
100
AcDbLine
 10
163.545815
 20
158.811448
 30
0.0
 11
163.511915
 21
158.825858
 31
0.0
  0
LINE
  5
148
330
12C
100
AcDbEntity
  8
0
  6
CONTINUOUS
 62
     7
100
AcDbLine
 10
163.511915
 20
158.825858
 30
0.0
 11
163.477596
 21
158.839176
 31
0.0
  0
LINE
  5
149
330
12C
100
AcDbEntity
  8
0
  6
CONTINUOUS
 62
     7
100
AcDbLine
 10
163.477596
 20
158.839176
 30
0.0
 11
163.44291
 21
158.851337
 31
0.0
  0
LINE
  5
14A
330
12C
100
AcDbEntity
  8
0
  6
CONTINUOUS
 62
     7
100
AcDbLine
 10
163.44291
 20
158.851337
 30
0.0
 11
163.407906
 21
158.862276
 31
0.0
  0
LINE
  5
14B
330
12C
100
AcDbEntity
  8
0
  6
CONTINUOUS
 62
     7
100
AcDbLine
 10
163.407906
 20
158.862276
 30
0.0
 11
163.372635
 21
158.871927
 31
0.0
  0
LINE
  5
14C
330
12C
100
AcDbEntity
  8
0
  6
CONTINUOUS
 62
     7
100
AcDbLine
 10
163.372635
 20
158.871927
 30
0.0
 11
163.337147
 21
158.880225
 31
0.0
  0
LINE
  5
14D
330
12C
100
AcDbEntity
  8
0
  6
CONTINUOUS
 62
     7
100
AcDbLine
 10
163.337147
 20
158.880225
 30
0.0
 11
163.301493
 21
158.887103
 31
0.0
  0
LINE
  5
14E
330
12C
100
AcDbEntity
  8
0
  6
CONTINUOUS
 62
     7
100
AcDbLine
 10
163.301493
 20
158.887103
 30
0.0
 11
163.265722
 21
158.892498
 31
0.0
  0
LINE
  5
14F
330
12C
100
AcDbEntity
  8
0
  6
CONTINUOUS
 62
     7
100
AcDbLine
 10
163.265722
 20
158.892498
 30
0.0
 11
163.229884
 21
158.896342
 31
0.0
  0
LINE
  5
150
330
12C
100
AcDbEntity
  8
0
  6
CONTINUOUS
 62
     7
100
AcDbLine
 10
163.229884
 20
158.896342
 30
0.0
 11
163.194031
 21
158.898572
 31
0.0
  0
LINE
  5
151
330
12C
100
AcDbEntity
  8
0
  6
CONTINUOUS
 62
     7
100
AcDbLine
 10
163.194031
 20
158.898572
 30
0.0
 11
163.158211
 21
158.89912
 31
0.0
  0
LINE
  5
152
330
12C
100
AcDbEntity
  8
0
  6
CONTINUOUS
 62
     7
100
AcDbLine
 10
163.158211
 20
158.89912
 30
0.0
 11
163.122476
 21
158.897923
 31
0.0
  0
LINE
  5
153
330
12C
100
AcDbEntity
  8
0
  6
CONTINUOUS
 62
     7
100
AcDbLine
 10
163.122476
 20
158.897923
 30
0.0
 11
163.085781
 21
158.894818
 31
0.0
  0
LINE
  5
154
330
12C
100
AcDbEntity
  8
0
  6
CONTINUOUS
 62
     7
100
AcDbLine
 10
163.085781
 20
158.894818
 30
0.0
 11
163.049262
 21
158.88987
 31
0.0
  0
LINE
  5
155
330
12C
100
AcDbEntity
  8
0
  6
CONTINUOUS
 62
     7
100
AcDbLine
 10
163.049262
 20
158.88987
 30
0.0
 11
163.012949
 21
158.883164
 31
0.0
  0
LINE
  5
156
330
12C
100
AcDbEntity
  8
0
  6
CONTINUOUS
 62
     7
100
AcDbLine
 10
163.012949
 20
158.883164
 30
0.0
 11
162.976875
 21
158.874782
 31
0.0
  0
LINE
  5
157
330
12C
100
AcDbEntity
  8
0
  6
CONTINUOUS
 62
     7
100
AcDbLine
 10
162.976875
 20
158.874782
 30
0.0
 11
162.941072
 21
158.864806
 31
0.0
  0
LINE
  5
158
330
12C
100
AcDbEntity
  8
0
  6
CONTINUOUS
 62
     7
100
AcDbLine
 10
162.941072
 20
158.864806
 30
0.0
 11
162.905572
 21
158.853319
 31
0.0
  0
LINE
  5
159
330
12C
100
AcDbEntity
  8
0
  6
CONTINUOUS
 62
     7
100
AcDbLine
 10
162.905572
 20
158.853319
 30
0.0
 11
162.870407
 21
158.840404
 31
0.0
  0
LINE
  5
15A
330
12C
100
AcDbEntity
  8
0
  6
CONTINUOUS
 62
     7
100
AcDbLine
 10
162.870407
 20
158.840404
 30
0.0
 11
162.835609
 21
158.826143
 31
0.0
  0
LINE
  5
15B
330
12C
100
AcDbEntity
  8
0
  6
CONTINUOUS
 62
     7
100
AcDbLine
 10
162.835609
 20
158.826143
 30
0.0
 11
162.801209
 21
158.81062
 31
0.0
  0
LINE
  5
15C
330
12C
100
AcDbEntity
  8
0
  6
CONTINUOUS
 62
     7
100
AcDbLine
 10
162.801209
 20
158.81062
 30
0.0
 11
162.767241
 21
158.793917
 31
0.0
  0
LINE
  5
15D
330
12C
100
AcDbEntity
  8
0
  6
CONTINUOUS
 62
     7
100
AcDbLine
 10
162.767241
 20
158.793917
 30
0.0
 11
162.733735
 21
158.776117
 31
0.0
  0
LINE
  5
15E
330
12C
100
AcDbEntity
  8
0
  6
CONTINUOUS
 62
     7
100
AcDbLine
 10
162.733735
 20
158.776117
 30
0.0
 11
162.700724
 21
158.757303
 31
0.0
  0
LINE
  5
15F
330
12C
100
AcDbEntity
  8
0
  6
CONTINUOUS
 62
     7
100
AcDbLine
 10
162.700724
 20
158.757303
 30
0.0
 11
162.668239
 21
158.737556
 31
0.0
  0
LINE
  5
160
330
12C
100
AcDbEntity
  8
0
  6
CONTINUOUS
 62
     7
100
AcDbLine
 10
162.668239
 20
158.737556
 30
0.0
 11
162.636314
 21
158.716961
 31
0.0
  0
LINE
  5
161
330
12C
100
AcDbEntity
  8
0
  6
CONTINUOUS
 62
     7
100
AcDbLine
 10
162.636314
 20
158.716961
 30
0.0
 11
162.604979
 21
158.6956
 31
0.0
  0
LINE
  5
162
330
12C
100
AcDbEntity
  8
0
  6
CONTINUOUS
 62
     7
100
AcDbLine
 10
162.604979
 20
158.6956
 30
0.0
 11
162.574266
 21
158.673556
 31
0.0
  0
LINE
  5
163
330
12C
100
AcDbEntity
  8
0
  6
CONTINUOUS
 62
     7
100
AcDbLine
 10
162.574266
 20
158.673556
 30
0.0
 11
162.530102
 21
158.639909
 31
0.0
  0
LINE
  5
164
330
12C
100
AcDbEntity
  8
0
  6
CONTINUOUS
 62
     7
100
AcDbLine
 10
162.530102
 20
158.639909
 30
0.0
 11
162.487276
 21
158.605036
 31
0.0
  0
LINE
  5
165
330
12C
100
AcDbEntity
  8
0
  6
CONTINUOUS
 62
     7
100
AcDbLine
 10
162.487276
 20
158.605036
 30
0.0
 11
162.445698
 21
158.569017
 31
0.0
  0
LINE
  5
166
330
12C
100
AcDbEntity
  8
0
  6
CONTINUOUS
 62
     7
100
AcDbLine
 10
162.445698
 20
158.569017
 30
0.0
 11
162.405279
 21
158.531935
 31
0.0
  0
LINE
  5
167
330
12C
100
AcDbEntity
  8
0
  6
CONTINUOUS
 62
     7
100
AcDbLine
 10
162.405279
 20
158.531935
 30
0.0
 11
162.365929
 21
158.493871
 31
0.0
  0
LINE
  5
168
330
12C
100
AcDbEntity
  8
0
  6
CONTINUOUS
 62
     7
100
AcDbLine
 10
162.365929
 20
158.493871
 30
0.0
 11
162.327561
 21
158.454907
 31
0.0
  0
LINE
  5
169
330
12C
100
AcDbEntity
  8
0
  6
CONTINUOUS
 62
     7
100
AcDbLine
 10
162.327561
 20
158.454907
 30
0.0
 11
162.290084
 21
158.415125
 31
0.0
  0
LINE
  5
16A
330
12C
100
AcDbEntity
  8
0
  6
CONTINUOUS
 62
     7
100
AcDbLine
 10
162.290084
 20
158.415125
 30
0.0
 11
162.253409
 21
158.374607
 31
0.0
  0
LINE
  5
16B
330
12C
100
AcDbEntity
  8
0
  6
CONTINUOUS
 62
     7
100
AcDbLine
 10
162.253409
 20
158.374607
 30
0.0
 11
162.217448
 21
158.333435
 31
0.0
  0
LINE
  5
16C
330
12C
100
AcDbEntity
  8
0
  6
CONTINUOUS
 62
     7
100
AcDbLine
 10
162.217448
 20
158.333435
 30
0.0
 11
162.182111
 21
158.29169
 31
0.0
  0
LINE
  5
16D
330
12C
100
AcDbEntity
  8
0
  6
CONTINUOUS
 62
     7
100
AcDbLine
 10
162.182111
 20
158.29169
 30
0.0
 11
162.147309
 21
158.249454
 31
0.0
  0
LINE
  5
16E
330
12C
100
AcDbEntity
  8
0
  6
CONTINUOUS
 62
     7
100
AcDbLine
 10
162.147309
 20
158.249454
 30
0.0
 11
162.112952
 21
158.206809
 31
0.0
  0
LINE
  5
16F
330
12C
100
AcDbEntity
  8
0
  6
CONTINUOUS
 62
     7
100
AcDbLine
 10
162.112952
 20
158.206809
 30
0.0
 11
162.078952
 21
158.163836
 31
0.0
  0
LINE
  5
170
330
12C
100
AcDbEntity
  8
0
  6
CONTINUOUS
 62
     7
100
AcDbLine
 10
162.078952
 20
158.163836
 30
0.0
 11
162.04522
 21
158.120619
 31
0.0
  0
LINE
  5
171
330
12C
100
AcDbEntity
  8
0
  6
CONTINUOUS
 62
     7
100
AcDbLine
 10
162.04522
 20
158.120619
 30
0.0
 11
161.978201
 21
158.033775
 31
0.0
  0
ENDBLK
  5
12E
330
12C
100
AcDbEntity
  8
0
100
AcDbBlockEnd
  0
BLOCK
  5
175
330
174
100
AcDbEntity
  8
0
100
AcDbBlockBegin
  2
BLKF012
 70
     0
 71
     0
 10
0.0
 20
0.0
 30
0.0
  3
BLKF012
  1

  0
LINE
  5
178
330
174
100
AcDbEntity
  8
0
  6
CONTINUOUS
 62
     7
100
AcDbLine
 10
173.902397
 20
158.033775
 30
0.0
 11
173.886738
 21
158.055275
 31
0.0
  0
LINE
  5
179
330
174
100
AcDbEntity
  8
0
  6
CONTINUOUS
 62
     7
100
AcDbLine
 10
173.886738
 20
158.055275
 30
0.0
 11
173.871027
 21
158.07672
 31
0.0
  0
LINE
  5
17A
330
174
100
AcDbEntity
  8
0
  6
CONTINUOUS
 62
     7
100
AcDbLine
 10
173.871027
 20
158.07672
 30
0.0
 11
173.86041
 21
158.091082
 31
0.0
  0
LINE
  5
17B
330
174
100
AcDbEntity
  8
0
  6
CONTINUOUS
 62
     7
100
AcDbLine
 10
173.86041
 20
158.091082
 30
0.0
 11
173.849746
 21
158.105394
 31
0.0
  0
LINE
  5
17C
330
174
100
AcDbEntity
  8
0
  6
CONTINUOUS
 62
     7
100
AcDbLine
 10
173.849746
 20
158.105394
 30
0.0
 11
173.839031
 21
158.119656
 31
0.0
  0
LINE
  5
17D
330
174
100
AcDbEntity
  8
0
  6
CONTINUOUS
 62
     7
100
AcDbLine
 10
173.839031
 20
158.119656
 30
0.0
 11
173.828263
 21
158.133867
 31
0.0
  0
LINE
  5
17E
330
174
100
AcDbEntity
  8
0
  6
CONTINUOUS
 62
     7
100
AcDbLine
 10
173.828263
 20
158.133867
 30
0.0
 11
173.817441
 21
158.148027
 31
0.0
  0
LINE
  5
17F
330
174
100
AcDbEntity
  8
0
  6
CONTINUOUS
 62
     7
100
AcDbLine
 10
173.817441
 20
158.148027
 30
0.0
 11
173.806563
 21
158.162136
 31
0.0
  0
LINE
  5
180
330
174
100
AcDbEntity
  8
0
  6
CONTINUOUS
 62
     7
100
AcDbLine
 10
173.806563
 20
158.162136
 30
0.0
 11
173.795627
 21
158.176194
 31
0.0
  0
LINE
  5
181
330
174
100
AcDbEntity
  8
0
  6
CONTINUOUS
 62
     7
100
AcDbLine
 10
173.795627
 20
158.176194
 30
0.0
 11
173.78463
 21
158.1902
 31
0.0
  0
LINE
  5
182
330
174
100
AcDbEntity
  8
0
  6
CONTINUOUS
 62
     7
100
AcDbLine
 10
173.78463
 20
158.1902
 30
0.0
 11
173.773572
 21
158.204154
 31
0.0
  0
LINE
  5
183
330
174
100
AcDbEntity
  8
0
  6
CONTINUOUS
 62
     7
100
AcDbLine
 10
173.773572
 20
158.204154
 30
0.0
 11
173.76245
 21
158.218057
 31
0.0
  0
LINE
  5
184
330
174
100
AcDbEntity
  8
0
  6
CONTINUOUS
 62
     7
100
AcDbLine
 10
173.76245
 20
158.218057
 30
0.0
 11
173.751263
 21
158.231907
 31
0.0
  0
LINE
  5
185
330
174
100
AcDbEntity
  8
0
  6
CONTINUOUS
 62
     7
100
AcDbLine
 10
173.751263
 20
158.231907
 30
0.0
 11
173.740008
 21
158.245705
 31
0.0
  0
LINE
  5
186
330
174
100
AcDbEntity
  8
0
  6
CONTINUOUS
 62
     7
100
AcDbLine
 10
173.740008
 20
158.245705
 30
0.0
 11
173.728683
 21
158.25945
 31
0.0
  0
LINE
  5
187
330
174
100
AcDbEntity
  8
0
  6
CONTINUOUS
 62
     7
100
AcDbLine
 10
173.728683
 20
158.25945
 30
0.0
 11
173.717287
 21
158.273143
 31
0.0
  0
LINE
  5
188
330
174
100
AcDbEntity
  8
0
  6
CONTINUOUS
 62
     7
100
AcDbLine
 10
173.717287
 20
158.273143
 30
0.0
 11
173.705818
 21
158.286782
 31
0.0
  0
LINE
  5
189
330
174
100
AcDbEntity
  8
0
  6
CONTINUOUS
 62
     7
100
AcDbLine
 10
173.705818
 20
158.286782
 30
0.0
 11
173.694273
 21
158.300368
 31
0.0
  0
LINE
  5
18A
330
174
100
AcDbEntity
  8
0
  6
CONTINUOUS
 62
     7
100
AcDbLine
 10
173.694273
 20
158.300368
 30
0.0
 11
173.682652
 21
158.313901
 31
0.0
  0
LINE
  5
18B
330
174
100
AcDbEntity
  8
0
  6
CONTINUOUS
 62
     7
100
AcDbLine
 10
173.682652
 20
158.313901
 30
0.0
 11
173.670951
 21
158.32738
 31
0.0
  0
LINE
  5
18C
330
174
100
AcDbEntity
  8
0
  6
CONTINUOUS
 62
     7
100
AcDbLine
 10
173.670951
 20
158.32738
 30
0.0
 11
173.65917
 21
158.340805
 31
0.0
  0
LINE
  5
18D
330
174
100
AcDbEntity
  8
0
  6
CONTINUOUS
 62
     7
100
AcDbLine
 10
173.65917
 20
158.340805
 30
0.0
 11
173.647306
 21
158.354176
 31
0.0
  0
LINE
  5
18E
330
174
100
AcDbEntity
  8
0
  6
CONTINUOUS
 62
     7
100
AcDbLine
 10
173.647306
 20
158.354176
 30
0.0
 11
173.635358
 21
158.367493
 31
0.0
  0
LINE
  5
18F
330
174
100
AcDbEntity
  8
0
  6
CONTINUOUS
 62
     7
100
AcDbLine
 10
173.635358
 20
158.367493
 30
0.0
 11
173.623322
 21
158.380755
 31
0.0
  0
LINE
  5
190
330
174
100
AcDbEntity
  8
0
  6
CONTINUOUS
 62
     7
100
AcDbLine
 10
173.623322
 20
158.380755
 30
0.0
 11
173.611199
 21
158.393962
 31
0.0
  0
LINE
  5
191
330
174
100
AcDbEntity
  8
0
  6
CONTINUOUS
 62
     7
100
AcDbLine
 10
173.611199
 20
158.393962
 30
0.0
 11
173.598985
 21
158.407115
 31
0.0
  0
LINE
  5
192
330
174
100
AcDbEntity
  8
0
  6
CONTINUOUS
 62
     7
100
AcDbLine
 10
173.598985
 20
158.407115
 30
0.0
 11
173.586679
 21
158.420212
 31
0.0
  0
LINE
  5
193
330
174
100
AcDbEntity
  8
0
  6
CONTINUOUS
 62
     7
100
AcDbLine
 10
173.586679
 20
158.420212
 30
0.0
 11
173.574279
 21
158.433254
 31
0.0
  0
LINE
  5
194
330
174
100
AcDbEntity
  8
0
  6
CONTINUOUS
 62
     7
100
AcDbLine
 10
173.574279
 20
158.433254
 30
0.0
 11
173.561783
 21
158.44624
 31
0.0
  0
LINE
  5
195
330
174
100
AcDbEntity
  8
0
  6
CONTINUOUS
 62
     7
100
AcDbLine
 10
173.561783
 20
158.44624
 30
0.0
 11
173.549189
 21
158.45917
 31
0.0
  0
LINE
  5
196
330
174
100
AcDbEntity
  8
0
  6
CONTINUOUS
 62
     7
100
AcDbLine
 10
173.549189
 20
158.45917
 30
0.0
 11
173.536496
 21
158.472044
 31
0.0
  0
LINE
  5
197
330
174
100
AcDbEntity
  8
0
  6
CONTINUOUS
 62
     7
100
AcDbLine
 10
173.536496
 20
158.472044
 30
0.0
 11
173.5237
 21
158.484862
 31
0.0
  0
LINE
  5
198
330
174
100
AcDbEntity
  8
0
  6
CONTINUOUS
 62
     7
100
AcDbLine
 10
173.5237
 20
158.484862
 30
0.0
 11
173.510801
 21
158.497624
 31
0.0
  0
LINE
  5
199
330
174
100
AcDbEntity
  8
0
  6
CONTINUOUS
 62
     7
100
AcDbLine
 10
173.510801
 20
158.497624
 30
0.0
 11
173.497797
 21
158.510329
 31
0.0
  0
LINE
  5
19A
330
174
100
AcDbEntity
  8
0
  6
CONTINUOUS
 62
     7
100
AcDbLine
 10
173.497797
 20
158.510329
 30
0.0
 11
173.482234
 21
158.525322
 31
0.0
  0
LINE
  5
19B
330
174
100
AcDbEntity
  8
0
  6
CONTINUOUS
 62
     7
100
AcDbLine
 10
173.482234
 20
158.525322
 30
0.0
 11
173.466519
 21
158.54022
 31
0.0
  0
LINE
  5
19C
330
174
100
AcDbEntity
  8
0
  6
CONTINUOUS
 62
     7
100
AcDbLine
 10
173.466519
 20
158.54022
 30
0.0
 11
173.450652
 21
158.555009
 31
0.0
  0
LINE
  5
19D
330
174
100
AcDbEntity
  8
0
  6
CONTINUOUS
 62
     7
100
AcDbLine
 10
173.450652
 20
158.555009
 30
0.0
 11
173.434632
 21
158.569673
 31
0.0
  0
LINE
  5
19E
330
174
100
AcDbEntity
  8
0
  6
CONTINUOUS
 62
     7
100
AcDbLine
 10
173.434632
 20
158.569673
 30
0.0
 11
173.41846
 21
158.584198
 31
0.0
  0
LINE
  5
19F
330
174
100
AcDbEntity
  8
0
  6
CONTINUOUS
 62
     7
100
AcDbLine
 10
173.41846
 20
158.584198
 30
0.0
 11
173.402134
 21
158.598569
 31
0.0
  0
LINE
  5
1A0
330
174
100
AcDbEntity
  8
0
  6
CONTINUOUS
 62
     7
100
AcDbLine
 10
173.402134
 20
158.598569
 30
0.0
 11
173.385654
 21
158.612771
 31
0.0
  0
LINE
  5
1A1
330
174
100
AcDbEntity
  8
0
  6
CONTINUOUS
 62
     7
100
AcDbLine
 10
173.385654
 20
158.612771
 30
0.0
 11
173.369019
 21
158.62679
 31
0.0
  0
LINE
  5
1A2
330
174
100
AcDbEntity
  8
0
  6
CONTINUOUS
 62
     7
100
AcDbLine
 10
173.369019
 20
158.62679
 30
0.0
 11
173.35223
 21
158.64061
 31
0.0
  0
LINE
  5
1A3
330
174
100
AcDbEntity
  8
0
  6
CONTINUOUS
 62
     7
100
AcDbLine
 10
173.35223
 20
158.64061
 30
0.0
 11
173.335285
 21
158.654217
 31
0.0
  0
LINE
  5
1A4
330
174
100
AcDbEntity
  8
0
  6
CONTINUOUS
 62
     7
100
AcDbLine
 10
173.335285
 20
158.654217
 30
0.0
 11
173.318185
 21
158.667596
 31
0.0
  0
LINE
  5
1A5
330
174
100
AcDbEntity
  8
0
  6
CONTINUOUS
 62
     7
100
AcDbLine
 10
173.318185
 20
158.667596
 30
0.0
 11
173.300927
 21
158.680732
 31
0.0
  0
LINE
  5
1A6
330
174
100
AcDbEntity
  8
0
  6
CONTINUOUS
 62
     7
100
AcDbLine
 10
173.300927
 20
158.680732
 30
0.0
 11
173.283513
 21
158.693611
 31
0.0
  0
LINE
  5
1A7
330
174
100
AcDbEntity
  8
0
  6
CONTINUOUS
 62
     7
100
AcDbLine
 10
173.283513
 20
158.693611
 30
0.0
 11
173.265942
 21
158.706218
 31
0.0
  0
LINE
  5
1A8
330
174
100
AcDbEntity
  8
0
  6
CONTINUOUS
 62
     7
100
AcDbLine
 10
173.265942
 20
158.706218
 30
0.0
 11
173.248213
 21
158.718537
 31
0.0
  0
LINE
  5
1A9
330
174
100
AcDbEntity
  8
0
  6
CONTINUOUS
 62
     7
100
AcDbLine
 10
173.248213
 20
158.718537
 30
0.0
 11
173.230325
 21
158.730555
 31
0.0
  0
LINE
  5
1AA
330
174
100
AcDbEntity
  8
0
  6
CONTINUOUS
 62
     7
100
AcDbLine
 10
173.230325
 20
158.730555
 30
0.0
 11
173.212278
 21
158.742256
 31
0.0
  0
LINE
  5
1AB
330
174
100
AcDbEntity
  8
0
  6
CONTINUOUS
 62
     7
100
AcDbLine
 10
173.212278
 20
158.742256
 30
0.0
 11
173.194072
 21
158.753625
 31
0.0
  0
LINE
  5
1AC
330
174
100
AcDbEntity
  8
0
  6
CONTINUOUS
 62
     7
100
AcDbLine
 10
173.194072
 20
158.753625
 30
0.0
 11
173.175707
 21
158.764649
 31
0.0
  0
LINE
  5
1AD
330
174
100
AcDbEntity
  8
0
  6
CONTINUOUS
 62
     7
100
AcDbLine
 10
173.175707
 20
158.764649
 30
0.0
 11
173.166464
 21
158.770026
 31
0.0
  0
LINE
  5
1AE
330
174
100
AcDbEntity
  8
0
  6
CONTINUOUS
 62
     7
100
AcDbLine
 10
173.166464
 20
158.770026
 30
0.0
 11
173.157181
 21
158.775311
 31
0.0
  0
LINE
  5
1AF
330
174
100
AcDbEntity
  8
0
  6
CONTINUOUS
 62
     7
100
AcDbLine
 10
173.157181
 20
158.775311
 30
0.0
 11
173.147857
 21
158.780502
 31
0.0
  0
LINE
  5
1B0
330
174
100
AcDbEntity
  8
0
  6
CONTINUOUS
 62
     7
100
AcDbLine
 10
173.147857
 20
158.780502
 30
0.0
 11
173.138494
 21
158.785597
 31
0.0
  0
LINE
  5
1B1
330
174
100
AcDbEntity
  8
0
  6
CONTINUOUS
 62
     7
100
AcDbLine
 10
173.138494
 20
158.785597
 30
0.0
 11
173.12909
 21
158.790595
 31
0.0
  0
LINE
  5
1B2
330
174
100
AcDbEntity
  8
0
  6
CONTINUOUS
 62
     7
100
AcDbLine
 10
173.12909
 20
158.790595
 30
0.0
 11
173.119645
 21
158.795493
 31
0.0
  0
LINE
  5
1B3
330
174
100
AcDbEntity
  8
0
  6
CONTINUOUS
 62
     7
100
AcDbLine
 10
173.119645
 20
158.795493
 30
0.0
 11
173.11016
 21
158.80029
 31
0.0
  0
LINE
  5
1B4
330
174
100
AcDbEntity
  8
0
  6
CONTINUOUS
 62
     7
100
AcDbLine
 10
173.11016
 20
158.80029
 30
0.0
 11
173.100635
 21
158.804983
 31
0.0
  0
LINE
  5
1B5
330
174
100
AcDbEntity
  8
0
  6
CONTINUOUS
 62
     7
100
AcDbLine
 10
173.100635
 20
158.804983
 30
0.0
 11
173.091069
 21
158.809572
 31
0.0
  0
LINE
  5
1B6
330
174
100
AcDbEntity
  8
0
  6
CONTINUOUS
 62
     7
100
AcDbLine
 10
173.091069
 20
158.809572
 30
0.0
 11
173.081463
 21
158.814054
 31
0.0
  0
LINE
  5
1B7
330
174
100
AcDbEntity
  8
0
  6
CONTINUOUS
 62
     7
100
AcDbLine
 10
173.081463
 20
158.814054
 30
0.0
 11
173.071815
 21
158.818427
 31
0.0
  0
LINE
  5
1B8
330
174
100
AcDbEntity
  8
0
  6
CONTINUOUS
 62
     7
100
AcDbLine
 10
173.071815
 20
158.818427
 30
0.0
 11
173.062127
 21
158.822689
 31
0.0
  0
LINE
  5
1B9
330
174
100
AcDbEntity
  8
0
  6
CONTINUOUS
 62
     7
100
AcDbLine
 10
173.062127
 20
158.822689
 30
0.0
 11
173.052398
 21
158.826839
 31
0.0
  0
LINE
  5
1BA
330
174
100
AcDbEntity
  8
0
  6
CONTINUOUS
 62
     7
100
AcDbLine
 10
173.052398
 20
158.826839
 30
0.0
 11
173.042629
 21
158.830874
 31
0.0
  0
LINE
  5
1BB
330
174
100
AcDbEntity
  8
0
  6
CONTINUOUS
 62
     7
100
AcDbLine
 10
173.042629
 20
158.830874
 30
0.0
 11
173.032818
 21
158.834794
 31
0.0
  0
LINE
  5
1BC
330
174
100
AcDbEntity
  8
0
  6
CONTINUOUS
 62
     7
100
AcDbLine
 10
173.032818
 20
158.834794
 30
0.0
 11
173.022966
 21
158.838595
 31
0.0
  0
LINE
  5
1BD
330
174
100
AcDbEntity
  8
0
  6
CONTINUOUS
 62
     7
100
AcDbLine
 10
173.022966
 20
158.838595
 30
0.0
 11
173.013073
 21
158.842277
 31
0.0
  0
LINE
  5
1BE
330
174
100
AcDbEntity
  8
0
  6
CONTINUOUS
 62
     7
100
AcDbLine
 10
173.013073
 20
158.842277
 30
0.0
 11
173.00314
 21
158.845837
 31
0.0
  0
LINE
  5
1BF
330
174
100
AcDbEntity
  8
0
  6
CONTINUOUS
 62
     7
100
AcDbLine
 10
173.00314
 20
158.845837
 30
0.0
 11
172.993164
 21
158.849274
 31
0.0
  0
LINE
  5
1C0
330
174
100
AcDbEntity
  8
0
  6
CONTINUOUS
 62
     7
100
AcDbLine
 10
172.993164
 20
158.849274
 30
0.0
 11
172.983148
 21
158.852585
 31
0.0
  0
LINE
  5
1C1
330
174
100
AcDbEntity
  8
0
  6
CONTINUOUS
 62
     7
100
AcDbLine
 10
172.983148
 20
158.852585
 30
0.0
 11
172.97309
 21
158.855769
 31
0.0
  0
LINE
  5
1C2
330
174
100
AcDbEntity
  8
0
  6
CONTINUOUS
 62
     7
100
AcDbLine
 10
172.97309
 20
158.855769
 30
0.0
 11
172.962991
 21
158.858823
 31
0.0
  0
LINE
  5
1C3
330
174
100
AcDbEntity
  8
0
  6
CONTINUOUS
 62
     7
100
AcDbLine
 10
172.962991
 20
158.858823
 30
0.0
 11
172.952851
 21
158.861747
 31
0.0
  0
LINE
  5
1C4
330
174
100
AcDbEntity
  8
0
  6
CONTINUOUS
 62
     7
100
AcDbLine
 10
172.952851
 20
158.861747
 30
0.0
 11
172.942669
 21
158.864538
 31
0.0
  0
LINE
  5
1C5
330
174
100
AcDbEntity
  8
0
  6
CONTINUOUS
 62
     7
100
AcDbLine
 10
172.942669
 20
158.864538
 30
0.0
 11
172.932445
 21
158.867195
 31
0.0
  0
LINE
  5
1C6
330
174
100
AcDbEntity
  8
0
  6
CONTINUOUS
 62
     7
100
AcDbLine
 10
172.932445
 20
158.867195
 30
0.0
 11
172.92218
 21
158.869715
 31
0.0
  0
LINE
  5
1C7
330
174
100
AcDbEntity
  8
0
  6
CONTINUOUS
 62
     7
100
AcDbLine
 10
172.92218
 20
158.869715
 30
0.0
 11
172.912917
 21
158.871863
 31
0.0
  0
LINE
  5
1C8
330
174
100
AcDbEntity
  8
0
  6
CONTINUOUS
 62
     7
100
AcDbLine
 10
172.912917
 20
158.871863
 30
0.0
 11
172.903621
 21
158.873899
 31
0.0
  0
LINE
  5
1C9
330
174
100
AcDbEntity
  8
0
  6
CONTINUOUS
 62
     7
100
AcDbLine
 10
172.903621
 20
158.873899
 30
0.0
 11
172.894293
 21
158.875825
 31
0.0
  0
LINE
  5
1CA
330
174
100
AcDbEntity
  8
0
  6
CONTINUOUS
 62
     7
100
AcDbLine
 10
172.894293
 20
158.875825
 30
0.0
 11
172.884936
 21
158.877641
 31
0.0
  0
LINE
  5
1CB
330
174
100
AcDbEntity
  8
0
  6
CONTINUOUS
 62
     7
100
AcDbLine
 10
172.884936
 20
158.877641
 30
0.0
 11
172.87555
 21
158.879347
 31
0.0
  0
LINE
  5
1CC
330
174
100
AcDbEntity
  8
0
  6
CONTINUOUS
 62
     7
100
AcDbLine
 10
172.87555
 20
158.879347
 30
0.0
 11
172.866137
 21
158.880944
 31
0.0
  0
LINE
  5
1CD
330
174
100
AcDbEntity
  8
0
  6
CONTINUOUS
 62
     7
100
AcDbLine
 10
172.866137
 20
158.880944
 30
0.0
 11
172.847233
 21
158.883813
 31
0.0
  0
LINE
  5
1CE
330
174
100
AcDbEntity
  8
0
  6
CONTINUOUS
 62
     7
100
AcDbLine
 10
172.847233
 20
158.883813
 30
0.0
 11
172.828233
 21
158.886252
 31
0.0
  0
LINE
  5
1CF
330
174
100
AcDbEntity
  8
0
  6
CONTINUOUS
 62
     7
100
AcDbLine
 10
172.828233
 20
158.886252
 30
0.0
 11
172.809149
 21
158.888265
 31
0.0
  0
LINE
  5
1D0
330
174
100
AcDbEntity
  8
0
  6
CONTINUOUS
 62
     7
100
AcDbLine
 10
172.809149
 20
158.888265
 30
0.0
 11
172.789989
 21
158.889858
 31
0.0
  0
LINE
  5
1D1
330
174
100
AcDbEntity
  8
0
  6
CONTINUOUS
 62
     7
100
AcDbLine
 10
172.789989
 20
158.889858
 30
0.0
 11
172.770764
 21
158.891034
 31
0.0
  0
LINE
  5
1D2
330
174
100
AcDbEntity
  8
0
  6
CONTINUOUS
 62
     7
100
AcDbLine
 10
172.770764
 20
158.891034
 30
0.0
 11
172.751483
 21
158.891797
 31
0.0
  0
LINE
  5
1D3
330
174
100
AcDbEntity
  8
0
  6
CONTINUOUS
 62
     7
100
AcDbLine
 10
172.751483
 20
158.891797
 30
0.0
 11
172.732157
 21
158.892152
 31
0.0
  0
LINE
  5
1D4
330
174
100
AcDbEntity
  8
0
  6
CONTINUOUS
 62
     7
100
AcDbLine
 10
172.732157
 20
158.892152
 30
0.0
 11
172.712795
 21
158.892104
 31
0.0
  0
LINE
  5
1D5
330
174
100
AcDbEntity
  8
0
  6
CONTINUOUS
 62
     7
100
AcDbLine
 10
172.712795
 20
158.892104
 30
0.0
 11
172.693408
 21
158.891656
 31
0.0
  0
LINE
  5
1D6
330
174
100
AcDbEntity
  8
0
  6
CONTINUOUS
 62
     7
100
AcDbLine
 10
172.693408
 20
158.891656
 30
0.0
 11
172.674005
 21
158.890813
 31
0.0
  0
LINE
  5
1D7
330
174
100
AcDbEntity
  8
0
  6
CONTINUOUS
 62
     7
100
AcDbLine
 10
172.674005
 20
158.890813
 30
0.0
 11
172.654595
 21
158.889579
 31
0.0
  0
LINE
  5
1D8
330
174
100
AcDbEntity
  8
0
  6
CONTINUOUS
 62
     7
100
AcDbLine
 10
172.654595
 20
158.889579
 30
0.0
 11
172.63519
 21
158.887959
 31
0.0
  0
LINE
  5
1D9
330
174
100
AcDbEntity
  8
0
  6
CONTINUOUS
 62
     7
100
AcDbLine
 10
172.63519
 20
158.887959
 30
0.0
 11
172.615799
 21
158.885957
 31
0.0
  0
LINE
  5
1DA
330
174
100
AcDbEntity
  8
0
  6
CONTINUOUS
 62
     7
100
AcDbLine
 10
172.615799
 20
158.885957
 30
0.0
 11
172.596432
 21
158.883576
 31
0.0
  0
LINE
  5
1DB
330
174
100
AcDbEntity
  8
0
  6
CONTINUOUS
 62
     7
100
AcDbLine
 10
172.596432
 20
158.883576
 30
0.0
 11
172.577098
 21
158.880823
 31
0.0
  0
LINE
  5
1DC
330
174
100
AcDbEntity
  8
0
  6
CONTINUOUS
 62
     7
100
AcDbLine
 10
172.577098
 20
158.880823
 30
0.0
 11
172.557808
 21
158.8777
 31
0.0
  0
LINE
  5
1DD
330
174
100
AcDbEntity
  8
0
  6
CONTINUOUS
 62
     7
100
AcDbLine
 10
172.557808
 20
158.8777
 30
0.0
 11
172.538572
 21
158.874213
 31
0.0
  0
LINE
  5
1DE
330
174
100
AcDbEntity
  8
0
  6
CONTINUOUS
 62
     7
100
AcDbLine
 10
172.538572
 20
158.874213
 30
0.0
 11
172.5194
 21
158.870365
 31
0.0
  0
LINE
  5
1DF
330
174
100
AcDbEntity
  8
0
  6
CONTINUOUS
 62
     7
100
AcDbLine
 10
172.5194
 20
158.870365
 30
0.0
 11
172.5003
 21
158.866161
 31
0.0
  0
LINE
  5
1E0
330
174
100
AcDbEntity
  8
0
  6
CONTINUOUS
 62
     7
100
AcDbLine
 10
172.5003
 20
158.866161
 30
0.0
 11
172.481284
 21
158.861606
 31
0.0
  0
LINE
  5
1E1
330
174
100
AcDbEntity
  8
0
  6
CONTINUOUS
 62
     7
100
AcDbLine
 10
172.481284
 20
158.861606
 30
0.0
 11
172.462362
 21
158.856702
 31
0.0
  0
LINE
  5
1E2
330
174
100
AcDbEntity
  8
0
  6
CONTINUOUS
 62
     7
100
AcDbLine
 10
172.462362
 20
158.856702
 30
0.0
 11
172.443542
 21
158.851456
 31
0.0
  0
LINE
  5
1E3
330
174
100
AcDbEntity
  8
0
  6
CONTINUOUS
 62
     7
100
AcDbLine
 10
172.443542
 20
158.851456
 30
0.0
 11
172.424836
 21
158.845871
 31
0.0
  0
LINE
  5
1E4
330
174
100
AcDbEntity
  8
0
  6
CONTINUOUS
 62
     7
100
AcDbLine
 10
172.424836
 20
158.845871
 30
0.0
 11
172.406253
 21
158.839952
 31
0.0
  0
LINE
  5
1E5
330
174
100
AcDbEntity
  8
0
  6
CONTINUOUS
 62
     7
100
AcDbLine
 10
172.406253
 20
158.839952
 30
0.0
 11
172.387802
 21
158.833703
 31
0.0
  0
LINE
  5
1E6
330
174
100
AcDbEntity
  8
0
  6
CONTINUOUS
 62
     7
100
AcDbLine
 10
172.387802
 20
158.833703
 30
0.0
 11
172.369495
 21
158.827127
 31
0.0
  0
LINE
  5
1E7
330
174
100
AcDbEntity
  8
0
  6
CONTINUOUS
 62
     7
100
AcDbLine
 10
172.369495
 20
158.827127
 30
0.0
 11
172.35134
 21
158.820231
 31
0.0
  0
LINE
  5
1E8
330
174
100
AcDbEntity
  8
0
  6
CONTINUOUS
 62
     7
100
AcDbLine
 10
172.35134
 20
158.820231
 30
0.0
 11
172.333347
 21
158.813017
 31
0.0
  0
LINE
  5
1E9
330
174
100
AcDbEntity
  8
0
  6
CONTINUOUS
 62
     7
100
AcDbLine
 10
172.333347
 20
158.813017
 30
0.0
 11
172.315528
 21
158.805491
 31
0.0
  0
LINE
  5
1EA
330
174
100
AcDbEntity
  8
0
  6
CONTINUOUS
 62
     7
100
AcDbLine
 10
172.315528
 20
158.805491
 30
0.0
 11
172.302859
 21
158.799903
 31
0.0
  0
LINE
  5
1EB
330
174
100
AcDbEntity
  8
0
  6
CONTINUOUS
 62
     7
100
AcDbLine
 10
172.302859
 20
158.799903
 30
0.0
 11
172.290283
 21
158.794159
 31
0.0
  0
LINE
  5
1EC
330
174
100
AcDbEntity
  8
0
  6
CONTINUOUS
 62
     7
100
AcDbLine
 10
172.290283
 20
158.794159
 30
0.0
 11
172.2778
 21
158.788261
 31
0.0
  0
LINE
  5
1ED
330
174
100
AcDbEntity
  8
0
  6
CONTINUOUS
 62
     7
100
AcDbLine
 10
172.2778
 20
158.788261
 30
0.0
 11
172.265407
 21
158.782212
 31
0.0
  0
LINE
  5
1EE
330
174
100
AcDbEntity
  8
0
  6
CONTINUOUS
 62
     7
100
AcDbLine
 10
172.265407
 20
158.782212
 30
0.0
 11
172.253105
 21
158.776013
 31
0.0
  0
LINE
  5
1EF
330
174
100
AcDbEntity
  8
0
  6
CONTINUOUS
 62
     7
100
AcDbLine
 10
172.253105
 20
158.776013
 30
0.0
 11
172.240893
 21
158.769668
 31
0.0
  0
LINE
  5
1F0
330
174
100
AcDbEntity
  8
0
  6
CONTINUOUS
 62
     7
100
AcDbLine
 10
172.240893
 20
158.769668
 30
0.0
 11
172.228769
 21
158.763178
 31
0.0
  0
LINE
  5
1F1
330
174
100
AcDbEntity
  8
0
  6
CONTINUOUS
 62
     7
100
AcDbLine
 10
172.228769
 20
158.763178
 30
0.0
 11
172.216732
 21
158.756546
 31
0.0
  0
LINE
  5
1F2
330
174
100
AcDbEntity
  8
0
  6
CONTINUOUS
 62
     7
100
AcDbLine
 10
172.216732
 20
158.756546
 30
0.0
 11
172.204782
 21
158.749774
 31
0.0
  0
LINE
  5
1F3
330
174
100
AcDbEntity
  8
0
  6
CONTINUOUS
 62
     7
100
AcDbLine
 10
172.204782
 20
158.749774
 30
0.0
 11
172.192919
 21
158.742865
 31
0.0
  0
LINE
  5
1F4
330
174
100
AcDbEntity
  8
0
  6
CONTINUOUS
 62
     7
100
AcDbLine
 10
172.192919
 20
158.742865
 30
0.0
 11
172.18114
 21
158.735821
 31
0.0
  0
LINE
  5
1F5
330
174
100
AcDbEntity
  8
0
  6
CONTINUOUS
 62
     7
100
AcDbLine
 10
172.18114
 20
158.735821
 30
0.0
 11
172.169445
 21
158.728644
 31
0.0
  0
LINE
  5
1F6
330
174
100
AcDbEntity
  8
0
  6
CONTINUOUS
 62
     7
100
AcDbLine
 10
172.169445
 20
158.728644
 30
0.0
 11
172.157834
 21
158.721337
 31
0.0
  0
LINE
  5
1F7
330
174
100
AcDbEntity
  8
0
  6
CONTINUOUS
 62
     7
100
AcDbLine
 10
172.157834
 20
158.721337
 30
0.0
 11
172.146305
 21
158.713903
 31
0.0
  0
LINE
  5
1F8
330
174
100
AcDbEntity
  8
0
  6
CONTINUOUS
 62
     7
100
AcDbLine
 10
172.146305
 20
158.713903
 30
0.0
 11
172.134857
 21
158.706342
 31
0.0
  0
LINE
  5
1F9
330
174
100
AcDbEntity
  8
0
  6
CONTINUOUS
 62
     7
100
AcDbLine
 10
172.134857
 20
158.706342
 30
0.0
 11
172.12349
 21
158.698659
 31
0.0
  0
LINE
  5
1FA
330
174
100
AcDbEntity
  8
0
  6
CONTINUOUS
 62
     7
100
AcDbLine
 10
172.12349
 20
158.698659
 30
0.0
 11
172.112203
 21
158.690854
 31
0.0
  0
LINE
  5
1FB
330
174
100
AcDbEntity
  8
0
  6
CONTINUOUS
 62
     7
100
AcDbLine
 10
172.112203
 20
158.690854
 30
0.0
 11
172.100994
 21
158.682931
 31
0.0
  0
LINE
  5
1FC
330
174
100
AcDbEntity
  8
0
  6
CONTINUOUS
 62
     7
100
AcDbLine
 10
172.100994
 20
158.682931
 30
0.0
 11
172.089863
 21
158.674892
 31
0.0
  0
LINE
  5
1FD
330
174
100
AcDbEntity
  8
0
  6
CONTINUOUS
 62
     7
100
AcDbLine
 10
172.089863
 20
158.674892
 30
0.0
 11
172.07881
 21
158.66674
 31
0.0
  0
LINE
  5
1FE
330
174
100
AcDbEntity
  8
0
  6
CONTINUOUS
 62
     7
100
AcDbLine
 10
172.07881
 20
158.66674
 30
0.0
 11
172.067832
 21
158.658476
 31
0.0
  0
LINE
  5
1FF
330
174
100
AcDbEntity
  8
0
  6
CONTINUOUS
 62
     7
100
AcDbLine
 10
172.067832
 20
158.658476
 30
0.0
 11
172.05693
 21
158.650103
 31
0.0
  0
LINE
  5
200
330
174
100
AcDbEntity
  8
0
  6
CONTINUOUS
 62
     7
100
AcDbLine
 10
172.05693
 20
158.650103
 30
0.0
 11
172.046102
 21
158.641623
 31
0.0
  0
LINE
  5
201
330
174
100
AcDbEntity
  8
0
  6
CONTINUOUS
 62
     7
100
AcDbLine
 10
172.046102
 20
158.641623
 30
0.0
 11
172.035348
 21
158.633039
 31
0.0
  0
LINE
  5
202
330
174
100
AcDbEntity
  8
0
  6
CONTINUOUS
 62
     7
100
AcDbLine
 10
172.035348
 20
158.633039
 30
0.0
 11
172.024666
 21
158.624353
 31
0.0
  0
LINE
  5
203
330
174
100
AcDbEntity
  8
0
  6
CONTINUOUS
 62
     7
100
AcDbLine
 10
172.024666
 20
158.624353
 30
0.0
 11
172.014056
 21
158.615567
 31
0.0
  0
LINE
  5
204
330
174
100
AcDbEntity
  8
0
  6
CONTINUOUS
 62
     7
100
AcDbLine
 10
172.014056
 20
158.615567
 30
0.0
 11
172.003517
 21
158.606685
 31
0.0
  0
LINE
  5
205
330
174
100
AcDbEntity
  8
0
  6
CONTINUOUS
 62
     7
100
AcDbLine
 10
172.003517
 20
158.606685
 30
0.0
 11
171.993048
 21
158.597707
 31
0.0
  0
LINE
  5
206
330
174
100
AcDbEntity
  8
0
  6
CONTINUOUS
 62
     7
100
AcDbLine
 10
171.993048
 20
158.597707
 30
0.0
 11
171.982648
 21
158.588637
 31
0.0
  0
LINE
  5
207
330
174
100
AcDbEntity
  8
0
  6
CONTINUOUS
 62
     7
100
AcDbLine
 10
171.982648
 20
158.588637
 30
0.0
 11
171.972316
 21
158.579477
 31
0.0
  0
LINE
  5
208
330
174
100
AcDbEntity
  8
0
  6
CONTINUOUS
 62
     7
100
AcDbLine
 10
171.972316
 20
158.579477
 30
0.0
 11
171.962051
 21
158.570229
 31
0.0
  0
LINE
  5
209
330
174
100
AcDbEntity
  8
0
  6
CONTINUOUS
 62
     7
100
AcDbLine
 10
171.962051
 20
158.570229
 30
0.0
 11
171.951853
 21
158.560896
 31
0.0
  0
LINE
  5
20A
330
174
100
AcDbEntity
  8
0
  6
CONTINUOUS
 62
     7
100
AcDbLine
 10
171.951853
 20
158.560896
 30
0.0
 11
171.941721
 21
158.55148
 31
0.0
  0
LINE
  5
20B
330
174
100
AcDbEntity
  8
0
  6
CONTINUOUS
 62
     7
100
AcDbLine
 10
171.941721
 20
158.55148
 30
0.0
 11
171.931653
 21
158.541983
 31
0.0
  0
LINE
  5
20C
330
174
100
AcDbEntity
  8
0
  6
CONTINUOUS
 62
     7
100
AcDbLine
 10
171.931653
 20
158.541983
 30
0.0
 11
171.921648
 21
158.532408
 31
0.0
  0
LINE
  5
20D
330
174
100
AcDbEntity
  8
0
  6
CONTINUOUS
 62
     7
100
AcDbLine
 10
171.921648
 20
158.532408
 30
0.0
 11
171.911707
 21
158.522757
 31
0.0
  0
LINE
  5
20E
330
174
100
AcDbEntity
  8
0
  6
CONTINUOUS
 62
     7
100
AcDbLine
 10
171.911707
 20
158.522757
 30
0.0
 11
171.901827
 21
158.513032
 31
0.0
  0
LINE
  5
20F
330
174
100
AcDbEntity
  8
0
  6
CONTINUOUS
 62
     7
100
AcDbLine
 10
171.901827
 20
158.513032
 30
0.0
 11
171.892009
 21
158.503236
 31
0.0
  0
LINE
  5
210
330
174
100
AcDbEntity
  8
0
  6
CONTINUOUS
 62
     7
100
AcDbLine
 10
171.892009
 20
158.503236
 30
0.0
 11
171.882251
 21
158.493371
 31
0.0
  0
LINE
  5
211
330
174
100
AcDbEntity
  8
0
  6
CONTINUOUS
 62
     7
100
AcDbLine
 10
171.882251
 20
158.493371
 30
0.0
 11
171.872552
 21
158.48344
 31
0.0
  0
LINE
  5
212
330
174
100
AcDbEntity
  8
0
  6
CONTINUOUS
 62
     7
100
AcDbLine
 10
171.872552
 20
158.48344
 30
0.0
 11
171.862912
 21
158.473445
 31
0.0
  0
LINE
  5
213
330
174
100
AcDbEntity
  8
0
  6
CONTINUOUS
 62
     7
100
AcDbLine
 10
171.862912
 20
158.473445
 30
0.0
 11
171.853329
 21
158.463388
 31
0.0
  0
LINE
  5
214
330
174
100
AcDbEntity
  8
0
  6
CONTINUOUS
 62
     7
100
AcDbLine
 10
171.853329
 20
158.463388
 30
0.0
 11
171.843803
 21
158.453271
 31
0.0
  0
LINE
  5
215
330
174
100
AcDbEntity
  8
0
  6
CONTINUOUS
 62
     7
100
AcDbLine
 10
171.843803
 20
158.453271
 30
0.0
 11
171.834332
 21
158.443098
 31
0.0
  0
LINE
  5
216
330
174
100
AcDbEntity
  8
0
  6
CONTINUOUS
 62
     7
100
AcDbLine
 10
171.834332
 20
158.443098
 30
0.0
 11
171.815555
 21
158.422589
 31
0.0
  0
LINE
  5
217
330
174
100
AcDbEntity
  8
0
  6
CONTINUOUS
 62
     7
100
AcDbLine
 10
171.815555
 20
158.422589
 30
0.0
 11
171.796991
 21
158.40188
 31
0.0
  0
LINE
  5
218
330
174
100
AcDbEntity
  8
0
  6
CONTINUOUS
 62
     7
100
AcDbLine
 10
171.796991
 20
158.40188
 30
0.0
 11
171.778632
 21
158.380991
 31
0.0
  0
LINE
  5
219
330
174
100
AcDbEntity
  8
0
  6
CONTINUOUS
 62
     7
100
AcDbLine
 10
171.778632
 20
158.380991
 30
0.0
 11
171.760471
 21
158.35994
 31
0.0
  0
LINE
  5
21A
330
174
100
AcDbEntity
  8
0
  6
CONTINUOUS
 62
     7
100
AcDbLine
 10
171.760471
 20
158.35994
 30
0.0
 11
171.742502
 21
158.338746
 31
0.0
  0
LINE
  5
21B
330
174
100
AcDbEntity
  8
0
  6
CONTINUOUS
 62
     7
100
AcDbLine
 10
171.742502
 20
158.338746
 30
0.0
 11
171.724717
 21
158.317427
 31
0.0
  0
LINE
  5
21C
330
174
100
AcDbEntity
  8
0
  6
CONTINUOUS
 62
     7
100
AcDbLine
 10
171.724717
 20
158.317427
 30
0.0
 11
171.707109
 21
158.296003
 31
0.0
  0
LINE
  5
21D
330
174
100
AcDbEntity
  8
0
  6
CONTINUOUS
 62
     7
100
AcDbLine
 10
171.707109
 20
158.296003
 30
0.0
 11
171.68967
 21
158.274493
 31
0.0
  0
LINE
  5
21E
330
174
100
AcDbEntity
  8
0
  6
CONTINUOUS
 62
     7
100
AcDbLine
 10
171.68967
 20
158.274493
 30
0.0
 11
171.672395
 21
158.252916
 31
0.0
  0
LINE
  5
21F
330
174
100
AcDbEntity
  8
0
  6
CONTINUOUS
 62
     7
100
AcDbLine
 10
171.672395
 20
158.252916
 30
0.0
 11
171.655276
 21
158.231289
 31
0.0
  0
LINE
  5
220
330
174
100
AcDbEntity
  8
0
  6
CONTINUOUS
 62
     7
100
AcDbLine
 10
171.655276
 20
158.231289
 30
0.0
 11
171.636007
 21
158.206684
 31
0.0
  0
LINE
  5
221
330
174
100
AcDbEntity
  8
0
  6
CONTINUOUS
 62
     7
100
AcDbLine
 10
171.636007
 20
158.206684
 30
0.0
 11
171.616905
 21
158.182045
 31
0.0
  0
LINE
  5
222
330
174
100
AcDbEntity
  8
0
  6
CONTINUOUS
 62
     7
100
AcDbLine
 10
171.616905
 20
158.182045
 30
0.0
 11
171.597948
 21
158.157377
 31
0.0
  0
LINE
  5
223
330
174
100
AcDbEntity
  8
0
  6
CONTINUOUS
 62
     7
100
AcDbLine
 10
171.597948
 20
158.157377
 30
0.0
 11
171.57911
 21
158.132685
 31
0.0
  0
LINE
  5
224
330
174
100
AcDbEntity
  8
0
  6
CONTINUOUS
 62
     7
100
AcDbLine
 10
171.57911
 20
158.132685
 30
0.0
 11
171.560369
 21
158.107974
 31
0.0
  0
LINE
  5
225
330
174
100
AcDbEntity
  8
0
  6
CONTINUOUS
 62
     7
100
AcDbLine
 10
171.560369
 20
158.107974
 30
0.0
 11
171.541699
 21
158.083249
 31
0.0
  0
LINE
  5
226
330
174
100
AcDbEntity
  8
0
  6
CONTINUOUS
 62
     7
100
AcDbLine
 10
171.541699
 20
158.083249
 30
0.0
 11
171.50448
 21
158.033775
 31
0.0
  0
ENDBLK
  5
176
330
174
100
AcDbEntity
  8
0
100
AcDbBlockEnd
  0
BLOCK
  5
229
330
228
100
AcDbEntity
  8
0
100
AcDbBlockBegin
  2
BLKF013
 70
     0
 71
     0
 10
0.0
 20
0.0
 30
0.0
  3
BLKF013
  1

  0
LINE
  5
22C
330
228
100
AcDbEntity
  8
0
  6
CONTINUOUS
 62
     7
100
AcDbLine
 10
170.338215
 20
158.033775
 30
0.0
 11
170.168957
 21
158.137018
 31
0.0
  0
LINE
  5
22D
330
228
100
AcDbEntity
  8
0
  6
CONTINUOUS
 62
     7
100
AcDbLine
 10
170.168957
 20
158.137018
 30
0.0
 11
170.084159
 21
158.188209
 31
0.0
  0
LINE
  5
22E
330
228
100
AcDbEntity
  8
0
  6
CONTINUOUS
 62
     7
100
AcDbLine
 10
170.084159
 20
158.188209
 30
0.0
 11
169.999156
 21
158.238885
 31
0.0
  0
LINE
  5
22F
330
228
100
AcDbEntity
  8
0
  6
CONTINUOUS
 62
     7
100
AcDbLine
 10
169.999156
 20
158.238885
 30
0.0
 11
169.913881
 21
158.288874
 31
0.0
  0
LINE
  5
230
330
228
100
AcDbEntity
  8
0
  6
CONTINUOUS
 62
     7
100
AcDbLine
 10
169.913881
 20
158.288874
 30
0.0
 11
169.828266
 21
158.338003
 31
0.0
  0
LINE
  5
231
330
228
100
AcDbEntity
  8
0
  6
CONTINUOUS
 62
     7
100
AcDbLine
 10
169.828266
 20
158.338003
 30
0.0
 11
169.742243
 21
158.3861
 31
0.0
  0
LINE
  5
232
330
228
100
AcDbEntity
  8
0
  6
CONTINUOUS
 62
     7
100
AcDbLine
 10
169.742243
 20
158.3861
 30
0.0
 11
169.655744
 21
158.432994
 31
0.0
  0
LINE
  5
233
330
228
100
AcDbEntity
  8
0
  6
CONTINUOUS
 62
     7
100
AcDbLine
 10
169.655744
 20
158.432994
 30
0.0
 11
169.568701
 21
158.478514
 31
0.0
  0
LINE
  5
234
330
228
100
AcDbEntity
  8
0
  6
CONTINUOUS
 62
     7
100
AcDbLine
 10
169.568701
 20
158.478514
 30
0.0
 11
169.481045
 21
158.522486
 31
0.0
  0
LINE
  5
235
330
228
100
AcDbEntity
  8
0
  6
CONTINUOUS
 62
     7
100
AcDbLine
 10
169.481045
 20
158.522486
 30
0.0
 11
169.392709
 21
158.564739
 31
0.0
  0
LINE
  5
236
330
228
100
AcDbEntity
  8
0
  6
CONTINUOUS
 62
     7
100
AcDbLine
 10
169.392709
 20
158.564739
 30
0.0
 11
169.303625
 21
158.605101
 31
0.0
  0
LINE
  5
237
330
228
100
AcDbEntity
  8
0
  6
CONTINUOUS
 62
     7
100
AcDbLine
 10
169.303625
 20
158.605101
 30
0.0
 11
169.258781
 21
158.624519
 31
0.0
  0
LINE
  5
238
330
228
100
AcDbEntity
  8
0
  6
CONTINUOUS
 62
     7
100
AcDbLine
 10
169.258781
 20
158.624519
 30
0.0
 11
169.213724
 21
158.6434
 31
0.0
  0
LINE
  5
239
330
228
100
AcDbEntity
  8
0
  6
CONTINUOUS
 62
     7
100
AcDbLine
 10
169.213724
 20
158.6434
 30
0.0
 11
169.168446
 21
158.661722
 31
0.0
  0
LINE
  5
23A
330
228
100
AcDbEntity
  8
0
  6
CONTINUOUS
 62
     7
100
AcDbLine
 10
169.168446
 20
158.661722
 30
0.0
 11
169.122939
 21
158.679465
 31
0.0
  0
LINE
  5
23B
330
228
100
AcDbEntity
  8
0
  6
CONTINUOUS
 62
     7
100
AcDbLine
 10
169.122939
 20
158.679465
 30
0.0
 11
169.077194
 21
158.696605
 31
0.0
  0
LINE
  5
23C
330
228
100
AcDbEntity
  8
0
  6
CONTINUOUS
 62
     7
100
AcDbLine
 10
169.077194
 20
158.696605
 30
0.0
 11
169.031202
 21
158.713123
 31
0.0
  0
LINE
  5
23D
330
228
100
AcDbEntity
  8
0
  6
CONTINUOUS
 62
     7
100
AcDbLine
 10
169.031202
 20
158.713123
 30
0.0
 11
168.984955
 21
158.728996
 31
0.0
  0
LINE
  5
23E
330
228
100
AcDbEntity
  8
0
  6
CONTINUOUS
 62
     7
100
AcDbLine
 10
168.984955
 20
158.728996
 30
0.0
 11
168.938444
 21
158.744202
 31
0.0
  0
LINE
  5
23F
330
228
100
AcDbEntity
  8
0
  6
CONTINUOUS
 62
     7
100
AcDbLine
 10
168.938444
 20
158.744202
 30
0.0
 11
168.871723
 21
158.764682
 31
0.0
  0
LINE
  5
240
330
228
100
AcDbEntity
  8
0
  6
CONTINUOUS
 62
     7
100
AcDbLine
 10
168.871723
 20
158.764682
 30
0.0
 11
168.804488
 21
158.783757
 31
0.0
  0
LINE
  5
241
330
228
100
AcDbEntity
  8
0
  6
CONTINUOUS
 62
     7
100
AcDbLine
 10
168.804488
 20
158.783757
 30
0.0
 11
168.736779
 21
158.801417
 31
0.0
  0
LINE
  5
242
330
228
100
AcDbEntity
  8
0
  6
CONTINUOUS
 62
     7
100
AcDbLine
 10
168.736779
 20
158.801417
 30
0.0
 11
168.668633
 21
158.817653
 31
0.0
  0
LINE
  5
243
330
228
100
AcDbEntity
  8
0
  6
CONTINUOUS
 62
     7
100
AcDbLine
 10
168.668633
 20
158.817653
 30
0.0
 11
168.600089
 21
158.832455
 31
0.0
  0
LINE
  5
244
330
228
100
AcDbEntity
  8
0
  6
CONTINUOUS
 62
     7
100
AcDbLine
 10
168.600089
 20
158.832455
 30
0.0
 11
168.531187
 21
158.845814
 31
0.0
  0
LINE
  5
245
330
228
100
AcDbEntity
  8
0
  6
CONTINUOUS
 62
     7
100
AcDbLine
 10
168.531187
 20
158.845814
 30
0.0
 11
168.461964
 21
158.85772
 31
0.0
  0
LINE
  5
246
330
228
100
AcDbEntity
  8
0
  6
CONTINUOUS
 62
     7
100
AcDbLine
 10
168.461964
 20
158.85772
 30
0.0
 11
168.39246
 21
158.868164
 31
0.0
  0
LINE
  5
247
330
228
100
AcDbEntity
  8
0
  6
CONTINUOUS
 62
     7
100
AcDbLine
 10
168.39246
 20
158.868164
 30
0.0
 11
168.322713
 21
158.877136
 31
0.0
  0
LINE
  5
248
330
228
100
AcDbEntity
  8
0
  6
CONTINUOUS
 62
     7
100
AcDbLine
 10
168.322713
 20
158.877136
 30
0.0
 11
168.252762
 21
158.884626
 31
0.0
  0
LINE
  5
249
330
228
100
AcDbEntity
  8
0
  6
CONTINUOUS
 62
     7
100
AcDbLine
 10
168.252762
 20
158.884626
 30
0.0
 11
168.182645
 21
158.890626
 31
0.0
  0
LINE
  5
24A
330
228
100
AcDbEntity
  8
0
  6
CONTINUOUS
 62
     7
100
AcDbLine
 10
168.182645
 20
158.890626
 30
0.0
 11
168.112401
 21
158.895124
 31
0.0
  0
LINE
  5
24B
330
228
100
AcDbEntity
  8
0
  6
CONTINUOUS
 62
     7
100
AcDbLine
 10
168.112401
 20
158.895124
 30
0.0
 11
168.042069
 21
158.898113
 31
0.0
  0
LINE
  5
24C
330
228
100
AcDbEntity
  8
0
  6
CONTINUOUS
 62
     7
100
AcDbLine
 10
168.042069
 20
158.898113
 30
0.0
 11
167.971688
 21
158.899582
 31
0.0
  0
LINE
  5
24D
330
228
100
AcDbEntity
  8
0
  6
CONTINUOUS
 62
     7
100
AcDbLine
 10
167.971688
 20
158.899582
 30
0.0
 11
167.901295
 21
158.899522
 31
0.0
  0
LINE
  5
24E
330
228
100
AcDbEntity
  8
0
  6
CONTINUOUS
 62
     7
100
AcDbLine
 10
167.901295
 20
158.899522
 30
0.0
 11
167.83093
 21
158.897923
 31
0.0
  0
LINE
  5
24F
330
228
100
AcDbEntity
  8
0
  6
CONTINUOUS
 62
     7
100
AcDbLine
 10
167.83093
 20
158.897923
 30
0.0
 11
167.760567
 21
158.894776
 31
0.0
  0
LINE
  5
250
330
228
100
AcDbEntity
  8
0
  6
CONTINUOUS
 62
     7
100
AcDbLine
 10
167.760567
 20
158.894776
 30
0.0
 11
167.690303
 21
158.890097
 31
0.0
  0
LINE
  5
251
330
228
100
AcDbEntity
  8
0
  6
CONTINUOUS
 62
     7
100
AcDbLine
 10
167.690303
 20
158.890097
 30
0.0
 11
167.620167
 21
158.883901
 31
0.0
  0
LINE
  5
252
330
228
100
AcDbEntity
  8
0
  6
CONTINUOUS
 62
     7
100
AcDbLine
 10
167.620167
 20
158.883901
 30
0.0
 11
167.550193
 21
158.876209
 31
0.0
  0
LINE
  5
253
330
228
100
AcDbEntity
  8
0
  6
CONTINUOUS
 62
     7
100
AcDbLine
 10
167.550193
 20
158.876209
 30
0.0
 11
167.480411
 21
158.867036
 31
0.0
  0
LINE
  5
254
330
228
100
AcDbEntity
  8
0
  6
CONTINUOUS
 62
     7
100
AcDbLine
 10
167.480411
 20
158.867036
 30
0.0
 11
167.410853
 21
158.856401
 31
0.0
  0
LINE
  5
255
330
228
100
AcDbEntity
  8
0
  6
CONTINUOUS
 62
     7
100
AcDbLine
 10
167.410853
 20
158.856401
 30
0.0
 11
167.341551
 21
158.844322
 31
0.0
  0
LINE
  5
256
330
228
100
AcDbEntity
  8
0
  6
CONTINUOUS
 62
     7
100
AcDbLine
 10
167.341551
 20
158.844322
 30
0.0
 11
167.272535
 21
158.830816
 31
0.0
  0
LINE
  5
257
330
228
100
AcDbEntity
  8
0
  6
CONTINUOUS
 62
     7
100
AcDbLine
 10
167.272535
 20
158.830816
 30
0.0
 11
167.203837
 21
158.815902
 31
0.0
  0
LINE
  5
258
330
228
100
AcDbEntity
  8
0
  6
CONTINUOUS
 62
     7
100
AcDbLine
 10
167.203837
 20
158.815902
 30
0.0
 11
167.13549
 21
158.799597
 31
0.0
  0
LINE
  5
259
330
228
100
AcDbEntity
  8
0
  6
CONTINUOUS
 62
     7
100
AcDbLine
 10
167.13549
 20
158.799597
 30
0.0
 11
167.067524
 21
158.781919
 31
0.0
  0
LINE
  5
25A
330
228
100
AcDbEntity
  8
0
  6
CONTINUOUS
 62
     7
100
AcDbLine
 10
167.067524
 20
158.781919
 30
0.0
 11
166.99997
 21
158.762885
 31
0.0
  0
LINE
  5
25B
330
228
100
AcDbEntity
  8
0
  6
CONTINUOUS
 62
     7
100
AcDbLine
 10
166.99997
 20
158.762885
 30
0.0
 11
166.932861
 21
158.742514
 31
0.0
  0
LINE
  5
25C
330
228
100
AcDbEntity
  8
0
  6
CONTINUOUS
 62
     7
100
AcDbLine
 10
166.932861
 20
158.742514
 30
0.0
 11
166.866228
 21
158.720824
 31
0.0
  0
LINE
  5
25D
330
228
100
AcDbEntity
  8
0
  6
CONTINUOUS
 62
     7
100
AcDbLine
 10
166.866228
 20
158.720824
 30
0.0
 11
166.800102
 21
158.697832
 31
0.0
  0
LINE
  5
25E
330
228
100
AcDbEntity
  8
0
  6
CONTINUOUS
 62
     7
100
AcDbLine
 10
166.800102
 20
158.697832
 30
0.0
 11
166.734514
 21
158.673556
 31
0.0
  0
LINE
  5
25F
330
228
100
AcDbEntity
  8
0
  6
CONTINUOUS
 62
     7
100
AcDbLine
 10
166.734514
 20
158.673556
 30
0.0
 11
166.65597
 21
158.642533
 31
0.0
  0
LINE
  5
260
330
228
100
AcDbEntity
  8
0
  6
CONTINUOUS
 62
     7
100
AcDbLine
 10
166.65597
 20
158.642533
 30
0.0
 11
166.578206
 21
158.609775
 31
0.0
  0
LINE
  5
261
330
228
100
AcDbEntity
  8
0
  6
CONTINUOUS
 62
     7
100
AcDbLine
 10
166.578206
 20
158.609775
 30
0.0
 11
166.501172
 21
158.575398
 31
0.0
  0
LINE
  5
262
330
228
100
AcDbEntity
  8
0
  6
CONTINUOUS
 62
     7
100
AcDbLine
 10
166.501172
 20
158.575398
 30
0.0
 11
166.424815
 21
158.539518
 31
0.0
  0
LINE
  5
263
330
228
100
AcDbEntity
  8
0
  6
CONTINUOUS
 62
     7
100
AcDbLine
 10
166.424815
 20
158.539518
 30
0.0
 11
166.349083
 21
158.502249
 31
0.0
  0
LINE
  5
264
330
228
100
AcDbEntity
  8
0
  6
CONTINUOUS
 62
     7
100
AcDbLine
 10
166.349083
 20
158.502249
 30
0.0
 11
166.273924
 21
158.463709
 31
0.0
  0
LINE
  5
265
330
228
100
AcDbEntity
  8
0
  6
CONTINUOUS
 62
     7
100
AcDbLine
 10
166.273924
 20
158.463709
 30
0.0
 11
166.199286
 21
158.424011
 31
0.0
  0
LINE
  5
266
330
228
100
AcDbEntity
  8
0
  6
CONTINUOUS
 62
     7
100
AcDbLine
 10
166.199286
 20
158.424011
 30
0.0
 11
166.125116
 21
158.383273
 31
0.0
  0
LINE
  5
267
330
228
100
AcDbEntity
  8
0
  6
CONTINUOUS
 62
     7
100
AcDbLine
 10
166.125116
 20
158.383273
 30
0.0
 11
166.051363
 21
158.34161
 31
0.0
  0
LINE
  5
268
330
228
100
AcDbEntity
  8
0
  6
CONTINUOUS
 62
     7
100
AcDbLine
 10
166.051363
 20
158.34161
 30
0.0
 11
165.977975
 21
158.299137
 31
0.0
  0
LINE
  5
269
330
228
100
AcDbEntity
  8
0
  6
CONTINUOUS
 62
     7
100
AcDbLine
 10
165.977975
 20
158.299137
 30
0.0
 11
165.904899
 21
158.25597
 31
0.0
  0
LINE
  5
26A
330
228
100
AcDbEntity
  8
0
  6
CONTINUOUS
 62
     7
100
AcDbLine
 10
165.904899
 20
158.25597
 30
0.0
 11
165.832083
 21
158.212225
 31
0.0
  0
LINE
  5
26B
330
228
100
AcDbEntity
  8
0
  6
CONTINUOUS
 62
     7
100
AcDbLine
 10
165.832083
 20
158.212225
 30
0.0
 11
165.759476
 21
158.168017
 31
0.0
  0
LINE
  5
26C
330
228
100
AcDbEntity
  8
0
  6
CONTINUOUS
 62
     7
100
AcDbLine
 10
165.759476
 20
158.168017
 30
0.0
 11
165.687025
 21
158.123462
 31
0.0
  0
LINE
  5
26D
330
228
100
AcDbEntity
  8
0
  6
CONTINUOUS
 62
     7
100
AcDbLine
 10
165.687025
 20
158.123462
 30
0.0
 11
165.542384
 21
158.033775
 31
0.0
  0
ENDBLK
  5
22A
330
228
100
AcDbEntity
  8
0
100
AcDbBlockEnd
  0
BLOCK
  5
289
330
288
100
AcDbEntity
  8
0
100
AcDbBlockBegin
  2
BLKF014
 70
     0
 71
     0
 10
0.0
 20
0.0
 30
0.0
  3
BLKF014
  1

  0
LINE
  5
28C
330
288
100
AcDbEntity
  8
0
  6
CONTINUOUS
 62
     7
100
AcDbLine
 10
165.542384
 20
145.06583
 30
0.0
 11
165.642494
 21
145.028594
 31
0.0
  0
LINE
  5
28D
330
288
100
AcDbEntity
  8
0
  6
CONTINUOUS
 62
     7
100
AcDbLine
 10
165.642494
 20
145.028594
 30
0.0
 11
165.692575
 21
145.010062
 31
0.0
  0
LINE
  5
28E
330
288
100
AcDbEntity
  8
0
  6
CONTINUOUS
 62
     7
100
AcDbLine
 10
165.692575
 20
145.010062
 30
0.0
 11
165.742687
 21
144.991633
 31
0.0
  0
LINE
  5
28F
330
288
100
AcDbEntity
  8
0
  6
CONTINUOUS
 62
     7
100
AcDbLine
 10
165.742687
 20
144.991633
 30
0.0
 11
165.792842
 21
144.973342
 31
0.0
  0
LINE
  5
290
330
288
100
AcDbEntity
  8
0
  6
CONTINUOUS
 62
     7
100
AcDbLine
 10
165.792842
 20
144.973342
 30
0.0
 11
165.843049
 21
144.955222
 31
0.0
  0
LINE
  5
291
330
288
100
AcDbEntity
  8
0
  6
CONTINUOUS
 62
     7
100
AcDbLine
 10
165.843049
 20
144.955222
 30
0.0
 11
165.893318
 21
144.937308
 31
0.0
  0
LINE
  5
292
330
288
100
AcDbEntity
  8
0
  6
CONTINUOUS
 62
     7
100
AcDbLine
 10
165.893318
 20
144.937308
 30
0.0
 11
165.943661
 21
144.919636
 31
0.0
  0
LINE
  5
293
330
288
100
AcDbEntity
  8
0
  6
CONTINUOUS
 62
     7
100
AcDbLine
 10
165.943661
 20
144.919636
 30
0.0
 11
165.968864
 21
144.9109
 31
0.0
  0
LINE
  5
294
330
288
100
AcDbEntity
  8
0
  6
CONTINUOUS
 62
     7
100
AcDbLine
 10
165.968864
 20
144.9109
 30
0.0
 11
165.994088
 21
144.902238
 31
0.0
  0
LINE
  5
295
330
288
100
AcDbEntity
  8
0
  6
CONTINUOUS
 62
     7
100
AcDbLine
 10
165.994088
 20
144.902238
 30
0.0
 11
166.019336
 21
144.893653
 31
0.0
  0
LINE
  5
296
330
288
100
AcDbEntity
  8
0
  6
CONTINUOUS
 62
     7
100
AcDbLine
 10
166.019336
 20
144.893653
 30
0.0
 11
166.044609
 21
144.885149
 31
0.0
  0
LINE
  5
297
330
288
100
AcDbEntity
  8
0
  6
CONTINUOUS
 62
     7
100
AcDbLine
 10
166.044609
 20
144.885149
 30
0.0
 11
166.069908
 21
144.876732
 31
0.0
  0
LINE
  5
298
330
288
100
AcDbEntity
  8
0
  6
CONTINUOUS
 62
     7
100
AcDbLine
 10
166.069908
 20
144.876732
 30
0.0
 11
166.095235
 21
144.868404
 31
0.0
  0
LINE
  5
299
330
288
100
AcDbEntity
  8
0
  6
CONTINUOUS
 62
     7
100
AcDbLine
 10
166.095235
 20
144.868404
 30
0.0
 11
166.120591
 21
144.860171
 31
0.0
  0
LINE
  5
29A
330
288
100
AcDbEntity
  8
0
  6
CONTINUOUS
 62
     7
100
AcDbLine
 10
166.120591
 20
144.860171
 30
0.0
 11
166.145976
 21
144.852037
 31
0.0
  0
LINE
  5
29B
330
288
100
AcDbEntity
  8
0
  6
CONTINUOUS
 62
     7
100
AcDbLine
 10
166.145976
 20
144.852037
 30
0.0
 11
166.171393
 21
144.844006
 31
0.0
  0
LINE
  5
29C
330
288
100
AcDbEntity
  8
0
  6
CONTINUOUS
 62
     7
100
AcDbLine
 10
166.171393
 20
144.844006
 30
0.0
 11
166.196843
 21
144.836083
 31
0.0
  0
LINE
  5
29D
330
288
100
AcDbEntity
  8
0
  6
CONTINUOUS
 62
     7
100
AcDbLine
 10
166.196843
 20
144.836083
 30
0.0
 11
166.222327
 21
144.828271
 31
0.0
  0
LINE
  5
29E
330
288
100
AcDbEntity
  8
0
  6
CONTINUOUS
 62
     7
100
AcDbLine
 10
166.222327
 20
144.828271
 30
0.0
 11
166.247846
 21
144.820575
 31
0.0
  0
LINE
  5
29F
330
288
100
AcDbEntity
  8
0
  6
CONTINUOUS
 62
     7
100
AcDbLine
 10
166.247846
 20
144.820575
 30
0.0
 11
166.273402
 21
144.813
 31
0.0
  0
LINE
  5
2A0
330
288
100
AcDbEntity
  8
0
  6
CONTINUOUS
 62
     7
100
AcDbLine
 10
166.273402
 20
144.813
 30
0.0
 11
166.298996
 21
144.805549
 31
0.0
  0
LINE
  5
2A1
330
288
100
AcDbEntity
  8
0
  6
CONTINUOUS
 62
     7
100
AcDbLine
 10
166.298996
 20
144.805549
 30
0.0
 11
166.324629
 21
144.798227
 31
0.0
  0
LINE
  5
2A2
330
288
100
AcDbEntity
  8
0
  6
CONTINUOUS
 62
     7
100
AcDbLine
 10
166.324629
 20
144.798227
 30
0.0
 11
166.350302
 21
144.791038
 31
0.0
  0
LINE
  5
2A3
330
288
100
AcDbEntity
  8
0
  6
CONTINUOUS
 62
     7
100
AcDbLine
 10
166.350302
 20
144.791038
 30
0.0
 11
166.373606
 21
144.784636
 31
0.0
  0
LINE
  5
2A4
330
288
100
AcDbEntity
  8
0
  6
CONTINUOUS
 62
     7
100
AcDbLine
 10
166.373606
 20
144.784636
 30
0.0
 11
166.396935
 21
144.778319
 31
0.0
  0
LINE
  5
2A5
330
288
100
AcDbEntity
  8
0
  6
CONTINUOUS
 62
     7
100
AcDbLine
 10
166.396935
 20
144.778319
 30
0.0
 11
166.443636
 21
144.765825
 31
0.0
  0
ENDBLK
  5
28A
330
288
100
AcDbEntity
  8
0
100
AcDbBlockEnd
  0
BLOCK
  5
2A8
330
2A7
100
AcDbEntity
  8
0
100
AcDbBlockBegin
  2
BLKF015
 70
     0
 71
     0
 10
0.0
 20
0.0
 30
0.0
  3
BLKF015
  1

  0
LINE
  5
2AB
330
2A7
100
AcDbEntity
  8
0
  6
CONTINUOUS
 62
     7
100
AcDbLine
 10
167.940297
 20
155.265824
 30
0.0
 11
167.814754
 21
155.253298
 31
0.0
  0
LINE
  5
2AC
330
2A7
100
AcDbEntity
  8
0
  6
CONTINUOUS
 62
     7
100
AcDbLine
 10
167.814754
 20
155.253298
 30
0.0
 11
167.689267
 21
155.240563
 31
0.0
  0
LINE
  5
2AD
330
2A7
100
AcDbEntity
  8
0
  6
CONTINUOUS
 62
     7
100
AcDbLine
 10
167.689267
 20
155.240563
 30
0.0
 11
167.563893
 21
155.22741
 31
0.0
  0
LINE
  5
2AE
330
2A7
100
AcDbEntity
  8
0
  6
CONTINUOUS
 62
     7
100
AcDbLine
 10
167.563893
 20
155.22741
 30
0.0
 11
167.501265
 21
155.220612
 31
0.0
  0
LINE
  5
2AF
330
2A7
100
AcDbEntity
  8
0
  6
CONTINUOUS
 62
     7
100
AcDbLine
 10
167.501265
 20
155.220612
 30
0.0
 11
167.438686
 21
155.213631
 31
0.0
  0
LINE
  5
2B0
330
2A7
100
AcDbEntity
  8
0
  6
CONTINUOUS
 62
     7
100
AcDbLine
 10
167.438686
 20
155.213631
 30
0.0
 11
167.376164
 21
155.206442
 31
0.0
  0
LINE
  5
2B1
330
2A7
100
AcDbEntity
  8
0
  6
CONTINUOUS
 62
     7
100
AcDbLine
 10
167.376164
 20
155.206442
 30
0.0
 11
167.313704
 21
155.199018
 31
0.0
  0
LINE
  5
2B2
330
2A7
100
AcDbEntity
  8
0
  6
CONTINUOUS
 62
     7
100
AcDbLine
 10
167.313704
 20
155.199018
 30
0.0
 11
167.251315
 21
155.191333
 31
0.0
  0
LINE
  5
2B3
330
2A7
100
AcDbEntity
  8
0
  6
CONTINUOUS
 62
     7
100
AcDbLine
 10
167.251315
 20
155.191333
 30
0.0
 11
167.189003
 21
155.183361
 31
0.0
  0
LINE
  5
2B4
330
2A7
100
AcDbEntity
  8
0
  6
CONTINUOUS
 62
     7
100
AcDbLine
 10
167.189003
 20
155.183361
 30
0.0
 11
167.126775
 21
155.175076
 31
0.0
  0
LINE
  5
2B5
330
2A7
100
AcDbEntity
  8
0
  6
CONTINUOUS
 62
     7
100
AcDbLine
 10
167.126775
 20
155.175076
 30
0.0
 11
167.064639
 21
155.166451
 31
0.0
  0
LINE
  5
2B6
330
2A7
100
AcDbEntity
  8
0
  6
CONTINUOUS
 62
     7
100
AcDbLine
 10
167.064639
 20
155.166451
 30
0.0
 11
167.0026
 21
155.157462
 31
0.0
  0
LINE
  5
2B7
330
2A7
100
AcDbEntity
  8
0
  6
CONTINUOUS
 62
     7
100
AcDbLine
 10
167.0026
 20
155.157462
 30
0.0
 11
166.940667
 21
155.148081
 31
0.0
  0
LINE
  5
2B8
330
2A7
100
AcDbEntity
  8
0
  6
CONTINUOUS
 62
     7
100
AcDbLine
 10
166.940667
 20
155.148081
 30
0.0
 11
166.878846
 21
155.138283
 31
0.0
  0
LINE
  5
2B9
330
2A7
100
AcDbEntity
  8
0
  6
CONTINUOUS
 62
     7
100
AcDbLine
 10
166.878846
 20
155.138283
 30
0.0
 11
166.817144
 21
155.128042
 31
0.0
  0
LINE
  5
2BA
330
2A7
100
AcDbEntity
  8
0
  6
CONTINUOUS
 62
     7
100
AcDbLine
 10
166.817144
 20
155.128042
 30
0.0
 11
166.755569
 21
155.117331
 31
0.0
  0
LINE
  5
2BB
330
2A7
100
AcDbEntity
  8
0
  6
CONTINUOUS
 62
     7
100
AcDbLine
 10
166.755569
 20
155.117331
 30
0.0
 11
166.694127
 21
155.106124
 31
0.0
  0
LINE
  5
2BC
330
2A7
100
AcDbEntity
  8
0
  6
CONTINUOUS
 62
     7
100
AcDbLine
 10
166.694127
 20
155.106124
 30
0.0
 11
166.632825
 21
155.094395
 31
0.0
  0
LINE
  5
2BD
330
2A7
100
AcDbEntity
  8
0
  6
CONTINUOUS
 62
     7
100
AcDbLine
 10
166.632825
 20
155.094395
 30
0.0
 11
166.57167
 21
155.082119
 31
0.0
  0
LINE
  5
2BE
330
2A7
100
AcDbEntity
  8
0
  6
CONTINUOUS
 62
     7
100
AcDbLine
 10
166.57167
 20
155.082119
 30
0.0
 11
166.51067
 21
155.069269
 31
0.0
  0
LINE
  5
2BF
330
2A7
100
AcDbEntity
  8
0
  6
CONTINUOUS
 62
     7
100
AcDbLine
 10
166.51067
 20
155.069269
 30
0.0
 11
166.449831
 21
155.055818
 31
0.0
  0
LINE
  5
2C0
330
2A7
100
AcDbEntity
  8
0
  6
CONTINUOUS
 62
     7
100
AcDbLine
 10
166.449831
 20
155.055818
 30
0.0
 11
166.389161
 21
155.041742
 31
0.0
  0
LINE
  5
2C1
330
2A7
100
AcDbEntity
  8
0
  6
CONTINUOUS
 62
     7
100
AcDbLine
 10
166.389161
 20
155.041742
 30
0.0
 11
166.328666
 21
155.027013
 31
0.0
  0
LINE
  5
2C2
330
2A7
100
AcDbEntity
  8
0
  6
CONTINUOUS
 62
     7
100
AcDbLine
 10
166.328666
 20
155.027013
 30
0.0
 11
166.268353
 21
155.011606
 31
0.0
  0
LINE
  5
2C3
330
2A7
100
AcDbEntity
  8
0
  6
CONTINUOUS
 62
     7
100
AcDbLine
 10
166.268353
 20
155.011606
 30
0.0
 11
166.20823
 21
154.995495
 31
0.0
  0
LINE
  5
2C4
330
2A7
100
AcDbEntity
  8
0
  6
CONTINUOUS
 62
     7
100
AcDbLine
 10
166.20823
 20
154.995495
 30
0.0
 11
166.148303
 21
154.978654
 31
0.0
  0
LINE
  5
2C5
330
2A7
100
AcDbEntity
  8
0
  6
CONTINUOUS
 62
     7
100
AcDbLine
 10
166.148303
 20
154.978654
 30
0.0
 11
166.08858
 21
154.961055
 31
0.0
  0
LINE
  5
2C6
330
2A7
100
AcDbEntity
  8
0
  6
CONTINUOUS
 62
     7
100
AcDbLine
 10
166.08858
 20
154.961055
 30
0.0
 11
166.029067
 21
154.942675
 31
0.0
  0
LINE
  5
2C7
330
2A7
100
AcDbEntity
  8
0
  6
CONTINUOUS
 62
     7
100
AcDbLine
 10
166.029067
 20
154.942675
 30
0.0
 11
165.969771
 21
154.923485
 31
0.0
  0
LINE
  5
2C8
330
2A7
100
AcDbEntity
  8
0
  6
CONTINUOUS
 62
     7
100
AcDbLine
 10
165.969771
 20
154.923485
 30
0.0
 11
165.91594
 21
154.905294
 31
0.0
  0
LINE
  5
2C9
330
2A7
100
AcDbEntity
  8
0
  6
CONTINUOUS
 62
     7
100
AcDbLine
 10
165.91594
 20
154.905294
 30
0.0
 11
165.862272
 21
154.886497
 31
0.0
  0
LINE
  5
2CA
330
2A7
100
AcDbEntity
  8
0
  6
CONTINUOUS
 62
     7
100
AcDbLine
 10
165.862272
 20
154.886497
 30
0.0
 11
165.808744
 21
154.86718
 31
0.0
  0
LINE
  5
2CB
330
2A7
100
AcDbEntity
  8
0
  6
CONTINUOUS
 62
     7
100
AcDbLine
 10
165.808744
 20
154.86718
 30
0.0
 11
165.755332
 21
154.847429
 31
0.0
  0
LINE
  5
2CC
330
2A7
100
AcDbEntity
  8
0
  6
CONTINUOUS
 62
     7
100
AcDbLine
 10
165.755332
 20
154.847429
 30
0.0
 11
165.702014
 21
154.827333
 31
0.0
  0
LINE
  5
2CD
330
2A7
100
AcDbEntity
  8
0
  6
CONTINUOUS
 62
     7
100
AcDbLine
 10
165.702014
 20
154.827333
 30
0.0
 11
165.648765
 21
154.806977
 31
0.0
  0
LINE
  5
2CE
330
2A7
100
AcDbEntity
  8
0
  6
CONTINUOUS
 62
     7
100
AcDbLine
 10
165.648765
 20
154.806977
 30
0.0
 11
165.542384
 21
154.765831
 31
0.0
  0
ENDBLK
  5
2A9
330
2A7
100
AcDbEntity
  8
0
100
AcDbBlockEnd
  0
BLOCK
  5
2D0
330
2CF
100
AcDbEntity
  8
0
100
AcDbBlockBegin
  2
BLKF016
 70
     0
 71
     0
 10
0.0
 20
0.0
 30
0.0
  3
BLKF016
  1

  0
LINE
  5
2D3
330
2CF
100
AcDbEntity
  8
0
  6
CONTINUOUS
 62
     7
100
AcDbLine
 10
170.338215
 20
154.765831
 30
0.0
 11
170.195343
 21
154.817847
 31
0.0
  0
LINE
  5
2D4
330
2CF
100
AcDbEntity
  8
0
  6
CONTINUOUS
 62
     7
100
AcDbLine
 10
170.195343
 20
154.817847
 30
0.0
 11
170.052334
 21
154.869209
 31
0.0
  0
LINE
  5
2D5
330
2CF
100
AcDbEntity
  8
0
  6
CONTINUOUS
 62
     7
100
AcDbLine
 10
170.052334
 20
154.869209
 30
0.0
 11
169.980736
 21
154.894441
 31
0.0
  0
LINE
  5
2D6
330
2CF
100
AcDbEntity
  8
0
  6
CONTINUOUS
 62
     7
100
AcDbLine
 10
169.980736
 20
154.894441
 30
0.0
 11
169.909051
 21
154.919264
 31
0.0
  0
LINE
  5
2D7
330
2CF
100
AcDbEntity
  8
0
  6
CONTINUOUS
 62
     7
100
AcDbLine
 10
169.909051
 20
154.919264
 30
0.0
 11
169.837263
 21
154.943596
 31
0.0
  0
LINE
  5
2D8
330
2CF
100
AcDbEntity
  8
0
  6
CONTINUOUS
 62
     7
100
AcDbLine
 10
169.837263
 20
154.943596
 30
0.0
 11
169.765355
 21
154.967357
 31
0.0
  0
LINE
  5
2D9
330
2CF
100
AcDbEntity
  8
0
  6
CONTINUOUS
 62
     7
100
AcDbLine
 10
169.765355
 20
154.967357
 30
0.0
 11
169.693309
 21
154.990463
 31
0.0
  0
LINE
  5
2DA
330
2CF
100
AcDbEntity
  8
0
  6
CONTINUOUS
 62
     7
100
AcDbLine
 10
169.693309
 20
154.990463
 30
0.0
 11
169.621109
 21
155.012834
 31
0.0
  0
LINE
  5
2DB
330
2CF
100
AcDbEntity
  8
0
  6
CONTINUOUS
 62
     7
100
AcDbLine
 10
169.621109
 20
155.012834
 30
0.0
 11
169.548737
 21
155.034388
 31
0.0
  0
LINE
  5
2DC
330
2CF
100
AcDbEntity
  8
0
  6
CONTINUOUS
 62
     7
100
AcDbLine
 10
169.548737
 20
155.034388
 30
0.0
 11
169.476176
 21
155.055042
 31
0.0
  0
LINE
  5
2DD
330
2CF
100
AcDbEntity
  8
0
  6
CONTINUOUS
 62
     7
100
AcDbLine
 10
169.476176
 20
155.055042
 30
0.0
 11
169.403409
 21
155.074716
 31
0.0
  0
LINE
  5
2DE
330
2CF
100
AcDbEntity
  8
0
  6
CONTINUOUS
 62
     7
100
AcDbLine
 10
169.403409
 20
155.074716
 30
0.0
 11
169.330418
 21
155.093327
 31
0.0
  0
LINE
  5
2DF
330
2CF
100
AcDbEntity
  8
0
  6
CONTINUOUS
 62
     7
100
AcDbLine
 10
169.330418
 20
155.093327
 30
0.0
 11
169.257187
 21
155.110794
 31
0.0
  0
LINE
  5
2E0
330
2CF
100
AcDbEntity
  8
0
  6
CONTINUOUS
 62
     7
100
AcDbLine
 10
169.257187
 20
155.110794
 30
0.0
 11
169.183699
 21
155.127035
 31
0.0
  0
LINE
  5
2E1
330
2CF
100
AcDbEntity
  8
0
  6
CONTINUOUS
 62
     7
100
AcDbLine
 10
169.183699
 20
155.127035
 30
0.0
 11
169.10741
 21
155.142485
 31
0.0
  0
LINE
  5
2E2
330
2CF
100
AcDbEntity
  8
0
  6
CONTINUOUS
 62
     7
100
AcDbLine
 10
169.10741
 20
155.142485
 30
0.0
 11
169.030846
 21
155.156623
 31
0.0
  0
LINE
  5
2E3
330
2CF
100
AcDbEntity
  8
0
  6
CONTINUOUS
 62
     7
100
AcDbLine
 10
169.030846
 20
155.156623
 30
0.0
 11
168.954025
 21
155.169538
 31
0.0
  0
LINE
  5
2E4
330
2CF
100
AcDbEntity
  8
0
  6
CONTINUOUS
 62
     7
100
AcDbLine
 10
168.954025
 20
155.169538
 30
0.0
 11
168.876965
 21
155.181316
 31
0.0
  0
LINE
  5
2E5
330
2CF
100
AcDbEntity
  8
0
  6
CONTINUOUS
 62
     7
100
AcDbLine
 10
168.876965
 20
155.181316
 30
0.0
 11
168.799684
 21
155.192045
 31
0.0
  0
LINE
  5
2E6
330
2CF
100
AcDbEntity
  8
0
  6
CONTINUOUS
 62
     7
100
AcDbLine
 10
168.799684
 20
155.192045
 30
0.0
 11
168.722201
 21
155.201812
 31
0.0
  0
LINE
  5
2E7
330
2CF
100
AcDbEntity
  8
0
  6
CONTINUOUS
 62
     7
100
AcDbLine
 10
168.722201
 20
155.201812
 30
0.0
 11
168.644535
 21
155.210705
 31
0.0
  0
LINE
  5
2E8
330
2CF
100
AcDbEntity
  8
0
  6
CONTINUOUS
 62
     7
100
AcDbLine
 10
168.644535
 20
155.210705
 30
0.0
 11
168.566703
 21
155.218811
 31
0.0
  0
LINE
  5
2E9
330
2CF
100
AcDbEntity
  8
0
  6
CONTINUOUS
 62
     7
100
AcDbLine
 10
168.566703
 20
155.218811
 30
0.0
 11
168.488724
 21
155.226218
 31
0.0
  0
LINE
  5
2EA
330
2CF
100
AcDbEntity
  8
0
  6
CONTINUOUS
 62
     7
100
AcDbLine
 10
168.488724
 20
155.226218
 30
0.0
 11
168.410616
 21
155.233012
 31
0.0
  0
LINE
  5
2EB
330
2CF
100
AcDbEntity
  8
0
  6
CONTINUOUS
 62
     7
100
AcDbLine
 10
168.410616
 20
155.233012
 30
0.0
 11
168.332398
 21
155.239282
 31
0.0
  0
LINE
  5
2EC
330
2CF
100
AcDbEntity
  8
0
  6
CONTINUOUS
 62
     7
100
AcDbLine
 10
168.332398
 20
155.239282
 30
0.0
 11
168.254088
 21
155.245115
 31
0.0
  0
LINE
  5
2ED
330
2CF
100
AcDbEntity
  8
0
  6
CONTINUOUS
 62
     7
100
AcDbLine
 10
168.254088
 20
155.245115
 30
0.0
 11
168.097266
 21
155.25582
 31
0.0
  0
LINE
  5
2EE
330
2CF
100
AcDbEntity
  8
0
  6
CONTINUOUS
 62
     7
100
AcDbLine
 10
168.097266
 20
155.25582
 30
0.0
 11
167.940297
 21
155.265824
 31
0.0
  0
ENDBLK
  5
2D1
330
2CF
100
AcDbEntity
  8
0
100
AcDbBlockEnd
  0
BLOCK
  5
2F2
330
2F1
100
AcDbEntity
  8
0
100
AcDbBlockBegin
  2
BLKF017
 70
     0
 71
     0
 10
0.0
 20
0.0
 30
0.0
  3
BLKF017
  1

  0
LINE
  5
2F5
330
2F1
100
AcDbEntity
  8
0
  6
CONTINUOUS
 62
     7
100
AcDbLine
 10
172.703439
 20
155.265824
 30
0.0
 11
172.638239
 21
155.251298
 31
0.0
  0
LINE
  5
2F6
330
2F1
100
AcDbEntity
  8
0
  6
CONTINUOUS
 62
     7
100
AcDbLine
 10
172.638239
 20
155.251298
 30
0.0
 11
172.573125
 21
155.23661
 31
0.0
  0
LINE
  5
2F7
330
2F1
100
AcDbEntity
  8
0
  6
CONTINUOUS
 62
     7
100
AcDbLine
 10
172.573125
 20
155.23661
 30
0.0
 11
172.508181
 21
155.221599
 31
0.0
  0
LINE
  5
2F8
330
2F1
100
AcDbEntity
  8
0
  6
CONTINUOUS
 62
     7
100
AcDbLine
 10
172.508181
 20
155.221599
 30
0.0
 11
172.443492
 21
155.206103
 31
0.0
  0
LINE
  5
2F9
330
2F1
100
AcDbEntity
  8
0
  6
CONTINUOUS
 62
     7
100
AcDbLine
 10
172.443492
 20
155.206103
 30
0.0
 11
172.411271
 21
155.198123
 31
0.0
  0
LINE
  5
2FA
330
2F1
100
AcDbEntity
  8
0
  6
CONTINUOUS
 62
     7
100
AcDbLine
 10
172.411271
 20
155.198123
 30
0.0
 11
172.379145
 21
155.18996
 31
0.0
  0
LINE
  5
2FB
330
2F1
100
AcDbEntity
  8
0
  6
CONTINUOUS
 62
     7
100
AcDbLine
 10
172.379145
 20
155.18996
 30
0.0
 11
172.347125
 21
155.181596
 31
0.0
  0
LINE
  5
2FC
330
2F1
100
AcDbEntity
  8
0
  6
CONTINUOUS
 62
     7
100
AcDbLine
 10
172.347125
 20
155.181596
 30
0.0
 11
172.315223
 21
155.173009
 31
0.0
  0
LINE
  5
2FD
330
2F1
100
AcDbEntity
  8
0
  6
CONTINUOUS
 62
     7
100
AcDbLine
 10
172.315223
 20
155.173009
 30
0.0
 11
172.283448
 21
155.16418
 31
0.0
  0
LINE
  5
2FE
330
2F1
100
AcDbEntity
  8
0
  6
CONTINUOUS
 62
     7
100
AcDbLine
 10
172.283448
 20
155.16418
 30
0.0
 11
172.251812
 21
155.155089
 31
0.0
  0
LINE
  5
2FF
330
2F1
100
AcDbEntity
  8
0
  6
CONTINUOUS
 62
     7
100
AcDbLine
 10
172.251812
 20
155.155089
 30
0.0
 11
172.220325
 21
155.145714
 31
0.0
  0
LINE
  5
300
330
2F1
100
AcDbEntity
  8
0
  6
CONTINUOUS
 62
     7
100
AcDbLine
 10
172.220325
 20
155.145714
 30
0.0
 11
172.188998
 21
155.136036
 31
0.0
  0
LINE
  5
301
330
2F1
100
AcDbEntity
  8
0
  6
CONTINUOUS
 62
     7
100
AcDbLine
 10
172.188998
 20
155.136036
 30
0.0
 11
172.157841
 21
155.126035
 31
0.0
  0
LINE
  5
302
330
2F1
100
AcDbEntity
  8
0
  6
CONTINUOUS
 62
     7
100
AcDbLine
 10
172.157841
 20
155.126035
 30
0.0
 11
172.126865
 21
155.115691
 31
0.0
  0
LINE
  5
303
330
2F1
100
AcDbEntity
  8
0
  6
CONTINUOUS
 62
     7
100
AcDbLine
 10
172.126865
 20
155.115691
 30
0.0
 11
172.096081
 21
155.104983
 31
0.0
  0
LINE
  5
304
330
2F1
100
AcDbEntity
  8
0
  6
CONTINUOUS
 62
     7
100
AcDbLine
 10
172.096081
 20
155.104983
 30
0.0
 11
172.065499
 21
155.09389
 31
0.0
  0
LINE
  5
305
330
2F1
100
AcDbEntity
  8
0
  6
CONTINUOUS
 62
     7
100
AcDbLine
 10
172.065499
 20
155.09389
 30
0.0
 11
172.03513
 21
155.082394
 31
0.0
  0
LINE
  5
306
330
2F1
100
AcDbEntity
  8
0
  6
CONTINUOUS
 62
     7
100
AcDbLine
 10
172.03513
 20
155.082394
 30
0.0
 11
172.004985
 21
155.070474
 31
0.0
  0
LINE
  5
307
330
2F1
100
AcDbEntity
  8
0
  6
CONTINUOUS
 62
     7
100
AcDbLine
 10
172.004985
 20
155.070474
 30
0.0
 11
171.975074
 21
155.058109
 31
0.0
  0
LINE
  5
308
330
2F1
100
AcDbEntity
  8
0
  6
CONTINUOUS
 62
     7
100
AcDbLine
 10
171.975074
 20
155.058109
 30
0.0
 11
171.945408
 21
155.045279
 31
0.0
  0
LINE
  5
309
330
2F1
100
AcDbEntity
  8
0
  6
CONTINUOUS
 62
     7
100
AcDbLine
 10
171.945408
 20
155.045279
 30
0.0
 11
171.915997
 21
155.031964
 31
0.0
  0
LINE
  5
30A
330
2F1
100
AcDbEntity
  8
0
  6
CONTINUOUS
 62
     7
100
AcDbLine
 10
171.915997
 20
155.031964
 30
0.0
 11
171.886853
 21
155.018144
 31
0.0
  0
LINE
  5
30B
330
2F1
100
AcDbEntity
  8
0
  6
CONTINUOUS
 62
     7
100
AcDbLine
 10
171.886853
 20
155.018144
 30
0.0
 11
171.857985
 21
155.003799
 31
0.0
  0
LINE
  5
30C
330
2F1
100
AcDbEntity
  8
0
  6
CONTINUOUS
 62
     7
100
AcDbLine
 10
171.857985
 20
155.003799
 30
0.0
 11
171.829406
 21
154.988908
 31
0.0
  0
LINE
  5
30D
330
2F1
100
AcDbEntity
  8
0
  6
CONTINUOUS
 62
     7
100
AcDbLine
 10
171.829406
 20
154.988908
 30
0.0
 11
171.801124
 21
154.973451
 31
0.0
  0
LINE
  5
30E
330
2F1
100
AcDbEntity
  8
0
  6
CONTINUOUS
 62
     7
100
AcDbLine
 10
171.801124
 20
154.973451
 30
0.0
 11
171.773151
 21
154.957409
 31
0.0
  0
LINE
  5
30F
330
2F1
100
AcDbEntity
  8
0
  6
CONTINUOUS
 62
     7
100
AcDbLine
 10
171.773151
 20
154.957409
 30
0.0
 11
171.745497
 21
154.94076
 31
0.0
  0
LINE
  5
310
330
2F1
100
AcDbEntity
  8
0
  6
CONTINUOUS
 62
     7
100
AcDbLine
 10
171.745497
 20
154.94076
 30
0.0
 11
171.718174
 21
154.923485
 31
0.0
  0
LINE
  5
311
330
2F1
100
AcDbEntity
  8
0
  6
CONTINUOUS
 62
     7
100
AcDbLine
 10
171.718174
 20
154.923485
 30
0.0
 11
171.690689
 21
154.905245
 31
0.0
  0
LINE
  5
312
330
2F1
100
AcDbEntity
  8
0
  6
CONTINUOUS
 62
     7
100
AcDbLine
 10
171.690689
 20
154.905245
 30
0.0
 11
171.663513
 21
154.886418
 31
0.0
  0
LINE
  5
313
330
2F1
100
AcDbEntity
  8
0
  6
CONTINUOUS
 62
     7
100
AcDbLine
 10
171.663513
 20
154.886418
 30
0.0
 11
171.636603
 21
154.867089
 31
0.0
  0
LINE
  5
314
330
2F1
100
AcDbEntity
  8
0
  6
CONTINUOUS
 62
     7
100
AcDbLine
 10
171.636603
 20
154.867089
 30
0.0
 11
171.609913
 21
154.84734
 31
0.0
  0
LINE
  5
315
330
2F1
100
AcDbEntity
  8
0
  6
CONTINUOUS
 62
     7
100
AcDbLine
 10
171.609913
 20
154.84734
 30
0.0
 11
171.5834
 21
154.827256
 31
0.0
  0
LINE
  5
316
330
2F1
100
AcDbEntity
  8
0
  6
CONTINUOUS
 62
     7
100
AcDbLine
 10
171.5834
 20
154.827256
 30
0.0
 11
171.55702
 21
154.806921
 31
0.0
  0
LINE
  5
317
330
2F1
100
AcDbEntity
  8
0
  6
CONTINUOUS
 62
     7
100
AcDbLine
 10
171.55702
 20
154.806921
 30
0.0
 11
171.50448
 21
154.765831
 31
0.0
  0
ENDBLK
  5
2F3
330
2F1
100
AcDbEntity
  8
0
100
AcDbBlockEnd
  0
BLOCK
  5
31A
330
319
100
AcDbEntity
  8
0
100
AcDbBlockBegin
  2
BLKF018
 70
     0
 71
     0
 10
0.0
 20
0.0
 30
0.0
  3
BLKF018
  1

  0
LINE
  5
31D
330
319
100
AcDbEntity
  8
0
  6
CONTINUOUS
 62
     7
100
AcDbLine
 10
164.376118
 20
154.765831
 30
0.0
 11
164.306737
 21
154.817747
 31
0.0
  0
LINE
  5
31E
330
319
100
AcDbEntity
  8
0
  6
CONTINUOUS
 62
     7
100
AcDbLine
 10
164.306737
 20
154.817747
 30
0.0
 11
164.237091
 21
154.869019
 31
0.0
  0
LINE
  5
31F
330
319
100
AcDbEntity
  8
0
  6
CONTINUOUS
 62
     7
100
AcDbLine
 10
164.237091
 20
154.869019
 30
0.0
 11
164.202087
 21
154.894212
 31
0.0
  0
LINE
  5
320
330
319
100
AcDbEntity
  8
0
  6
CONTINUOUS
 62
     7
100
AcDbLine
 10
164.202087
 20
154.894212
 30
0.0
 11
164.166917
 21
154.919002
 31
0.0
  0
LINE
  5
321
330
319
100
AcDbEntity
  8
0
  6
CONTINUOUS
 62
     7
100
AcDbLine
 10
164.166917
 20
154.919002
 30
0.0
 11
164.131549
 21
154.943309
 31
0.0
  0
LINE
  5
322
330
319
100
AcDbEntity
  8
0
  6
CONTINUOUS
 62
     7
100
AcDbLine
 10
164.131549
 20
154.943309
 30
0.0
 11
164.095949
 21
154.967052
 31
0.0
  0
LINE
  5
323
330
319
100
AcDbEntity
  8
0
  6
CONTINUOUS
 62
     7
100
AcDbLine
 10
164.095949
 20
154.967052
 30
0.0
 11
164.060085
 21
154.990151
 31
0.0
  0
LINE
  5
324
330
319
100
AcDbEntity
  8
0
  6
CONTINUOUS
 62
     7
100
AcDbLine
 10
164.060085
 20
154.990151
 30
0.0
 11
164.023924
 21
155.012525
 31
0.0
  0
LINE
  5
325
330
319
100
AcDbEntity
  8
0
  6
CONTINUOUS
 62
     7
100
AcDbLine
 10
164.023924
 20
155.012525
 30
0.0
 11
163.987432
 21
155.034093
 31
0.0
  0
LINE
  5
326
330
319
100
AcDbEntity
  8
0
  6
CONTINUOUS
 62
     7
100
AcDbLine
 10
163.987432
 20
155.034093
 30
0.0
 11
163.950577
 21
155.054776
 31
0.0
  0
LINE
  5
327
330
319
100
AcDbEntity
  8
0
  6
CONTINUOUS
 62
     7
100
AcDbLine
 10
163.950577
 20
155.054776
 30
0.0
 11
163.913325
 21
155.074491
 31
0.0
  0
LINE
  5
328
330
319
100
AcDbEntity
  8
0
  6
CONTINUOUS
 62
     7
100
AcDbLine
 10
163.913325
 20
155.074491
 30
0.0
 11
163.875643
 21
155.09316
 31
0.0
  0
LINE
  5
329
330
319
100
AcDbEntity
  8
0
  6
CONTINUOUS
 62
     7
100
AcDbLine
 10
163.875643
 20
155.09316
 30
0.0
 11
163.837499
 21
155.110702
 31
0.0
  0
LINE
  5
32A
330
319
100
AcDbEntity
  8
0
  6
CONTINUOUS
 62
     7
100
AcDbLine
 10
163.837499
 20
155.110702
 30
0.0
 11
163.798859
 21
155.127035
 31
0.0
  0
LINE
  5
32B
330
319
100
AcDbEntity
  8
0
  6
CONTINUOUS
 62
     7
100
AcDbLine
 10
163.798859
 20
155.127035
 30
0.0
 11
163.762244
 21
155.141172
 31
0.0
  0
LINE
  5
32C
330
319
100
AcDbEntity
  8
0
  6
CONTINUOUS
 62
     7
100
AcDbLine
 10
163.762244
 20
155.141172
 30
0.0
 11
163.725195
 21
155.154251
 31
0.0
  0
LINE
  5
32D
330
319
100
AcDbEntity
  8
0
  6
CONTINUOUS
 62
     7
100
AcDbLine
 10
163.725195
 20
155.154251
 30
0.0
 11
163.687742
 21
155.166344
 31
0.0
  0
LINE
  5
32E
330
319
100
AcDbEntity
  8
0
  6
CONTINUOUS
 62
     7
100
AcDbLine
 10
163.687742
 20
155.166344
 30
0.0
 11
163.649912
 21
155.17752
 31
0.0
  0
LINE
  5
32F
330
319
100
AcDbEntity
  8
0
  6
CONTINUOUS
 62
     7
100
AcDbLine
 10
163.649912
 20
155.17752
 30
0.0
 11
163.611736
 21
155.187851
 31
0.0
  0
LINE
  5
330
330
319
100
AcDbEntity
  8
0
  6
CONTINUOUS
 62
     7
100
AcDbLine
 10
163.611736
 20
155.187851
 30
0.0
 11
163.573241
 21
155.197406
 31
0.0
  0
LINE
  5
331
330
319
100
AcDbEntity
  8
0
  6
CONTINUOUS
 62
     7
100
AcDbLine
 10
163.573241
 20
155.197406
 30
0.0
 11
163.534457
 21
155.206257
 31
0.0
  0
LINE
  5
332
330
319
100
AcDbEntity
  8
0
  6
CONTINUOUS
 62
     7
100
AcDbLine
 10
163.534457
 20
155.206257
 30
0.0
 11
163.495413
 21
155.214473
 31
0.0
  0
LINE
  5
333
330
319
100
AcDbEntity
  8
0
  6
CONTINUOUS
 62
     7
100
AcDbLine
 10
163.495413
 20
155.214473
 30
0.0
 11
163.456137
 21
155.222125
 31
0.0
  0
LINE
  5
334
330
319
100
AcDbEntity
  8
0
  6
CONTINUOUS
 62
     7
100
AcDbLine
 10
163.456137
 20
155.222125
 30
0.0
 11
163.416659
 21
155.229284
 31
0.0
  0
LINE
  5
335
330
319
100
AcDbEntity
  8
0
  6
CONTINUOUS
 62
     7
100
AcDbLine
 10
163.416659
 20
155.229284
 30
0.0
 11
163.377008
 21
155.23602
 31
0.0
  0
LINE
  5
336
330
319
100
AcDbEntity
  8
0
  6
CONTINUOUS
 62
     7
100
AcDbLine
 10
163.377008
 20
155.23602
 30
0.0
 11
163.337212
 21
155.242404
 31
0.0
  0
LINE
  5
337
330
319
100
AcDbEntity
  8
0
  6
CONTINUOUS
 62
     7
100
AcDbLine
 10
163.337212
 20
155.242404
 30
0.0
 11
163.257301
 21
155.254396
 31
0.0
  0
LINE
  5
338
330
319
100
AcDbEntity
  8
0
  6
CONTINUOUS
 62
     7
100
AcDbLine
 10
163.257301
 20
155.254396
 30
0.0
 11
163.17716
 21
155.265824
 31
0.0
  0
ENDBLK
  5
31B
330
319
100
AcDbEntity
  8
0
100
AcDbBlockEnd
  0
BLOCK
  5
341
330
340
100
AcDbEntity
  8
0
100
AcDbBlockBegin
  2
BLKF019
 70
     0
 71
     0
 10
0.0
 20
0.0
 30
0.0
  3
BLKF019
  1

  0
LINE
  5
344
330
340
100
AcDbEntity
  8
0
  6
CONTINUOUS
 62
     7
100
AcDbLine
 10
173.902397
 20
154.765831
 30
0.0
 11
173.833016
 21
154.817747
 31
0.0
  0
LINE
  5
345
330
340
100
AcDbEntity
  8
0
  6
CONTINUOUS
 62
     7
100
AcDbLine
 10
173.833016
 20
154.817747
 30
0.0
 11
173.76337
 21
154.869019
 31
0.0
  0
LINE
  5
346
330
340
100
AcDbEntity
  8
0
  6
CONTINUOUS
 62
     7
100
AcDbLine
 10
173.76337
 20
154.869019
 30
0.0
 11
173.728365
 21
154.894212
 31
0.0
  0
LINE
  5
347
330
340
100
AcDbEntity
  8
0
  6
CONTINUOUS
 62
     7
100
AcDbLine
 10
173.728365
 20
154.894212
 30
0.0
 11
173.693196
 21
154.919002
 31
0.0
  0
LINE
  5
348
330
340
100
AcDbEntity
  8
0
  6
CONTINUOUS
 62
     7
100
AcDbLine
 10
173.693196
 20
154.919002
 30
0.0
 11
173.657827
 21
154.943309
 31
0.0
  0
LINE
  5
349
330
340
100
AcDbEntity
  8
0
  6
CONTINUOUS
 62
     7
100
AcDbLine
 10
173.657827
 20
154.943309
 30
0.0
 11
173.622228
 21
154.967052
 31
0.0
  0
LINE
  5
34A
330
340
100
AcDbEntity
  8
0
  6
CONTINUOUS
 62
     7
100
AcDbLine
 10
173.622228
 20
154.967052
 30
0.0
 11
173.586364
 21
154.990151
 31
0.0
  0
LINE
  5
34B
330
340
100
AcDbEntity
  8
0
  6
CONTINUOUS
 62
     7
100
AcDbLine
 10
173.586364
 20
154.990151
 30
0.0
 11
173.550203
 21
155.012525
 31
0.0
  0
LINE
  5
34C
330
340
100
AcDbEntity
  8
0
  6
CONTINUOUS
 62
     7
100
AcDbLine
 10
173.550203
 20
155.012525
 30
0.0
 11
173.513711
 21
155.034093
 31
0.0
  0
LINE
  5
34D
330
340
100
AcDbEntity
  8
0
  6
CONTINUOUS
 62
     7
100
AcDbLine
 10
173.513711
 20
155.034093
 30
0.0
 11
173.476855
 21
155.054776
 31
0.0
  0
LINE
  5
34E
330
340
100
AcDbEntity
  8
0
  6
CONTINUOUS
 62
     7
100
AcDbLine
 10
173.476855
 20
155.054776
 30
0.0
 11
173.439603
 21
155.074491
 31
0.0
  0
LINE
  5
34F
330
340
100
AcDbEntity
  8
0
  6
CONTINUOUS
 62
     7
100
AcDbLine
 10
173.439603
 20
155.074491
 30
0.0
 11
173.401922
 21
155.09316
 31
0.0
  0
LINE
  5
350
330
340
100
AcDbEntity
  8
0
  6
CONTINUOUS
 62
     7
100
AcDbLine
 10
173.401922
 20
155.09316
 30
0.0
 11
173.363777
 21
155.110702
 31
0.0
  0
LINE
  5
351
330
340
100
AcDbEntity
  8
0
  6
CONTINUOUS
 62
     7
100
AcDbLine
 10
173.363777
 20
155.110702
 30
0.0
 11
173.325137
 21
155.127035
 31
0.0
  0
LINE
  5
352
330
340
100
AcDbEntity
  8
0
  6
CONTINUOUS
 62
     7
100
AcDbLine
 10
173.325137
 20
155.127035
 30
0.0
 11
173.288523
 21
155.141172
 31
0.0
  0
LINE
  5
353
330
340
100
AcDbEntity
  8
0
  6
CONTINUOUS
 62
     7
100
AcDbLine
 10
173.288523
 20
155.141172
 30
0.0
 11
173.251474
 21
155.154251
 31
0.0
  0
LINE
  5
354
330
340
100
AcDbEntity
  8
0
  6
CONTINUOUS
 62
     7
100
AcDbLine
 10
173.251474
 20
155.154251
 30
0.0
 11
173.21402
 21
155.166344
 31
0.0
  0
LINE
  5
355
330
340
100
AcDbEntity
  8
0
  6
CONTINUOUS
 62
     7
100
AcDbLine
 10
173.21402
 20
155.166344
 30
0.0
 11
173.176191
 21
155.17752
 31
0.0
  0
LINE
  5
356
330
340
100
AcDbEntity
  8
0
  6
CONTINUOUS
 62
     7
100
AcDbLine
 10
173.176191
 20
155.17752
 30
0.0
 11
173.138014
 21
155.187851
 31
0.0
  0
LINE
  5
357
330
340
100
AcDbEntity
  8
0
  6
CONTINUOUS
 62
     7
100
AcDbLine
 10
173.138014
 20
155.187851
 30
0.0
 11
173.09952
 21
155.197406
 31
0.0
  0
LINE
  5
358
330
340
100
AcDbEntity
  8
0
  6
CONTINUOUS
 62
     7
100
AcDbLine
 10
173.09952
 20
155.197406
 30
0.0
 11
173.060736
 21
155.206257
 31
0.0
  0
LINE
  5
359
330
340
100
AcDbEntity
  8
0
  6
CONTINUOUS
 62
     7
100
AcDbLine
 10
173.060736
 20
155.206257
 30
0.0
 11
173.021692
 21
155.214473
 31
0.0
  0
LINE
  5
35A
330
340
100
AcDbEntity
  8
0
  6
CONTINUOUS
 62
     7
100
AcDbLine
 10
173.021692
 20
155.214473
 30
0.0
 11
172.982416
 21
155.222125
 31
0.0
  0
LINE
  5
35B
330
340
100
AcDbEntity
  8
0
  6
CONTINUOUS
 62
     7
100
AcDbLine
 10
172.982416
 20
155.222125
 30
0.0
 11
172.942938
 21
155.229284
 31
0.0
  0
LINE
  5
35C
330
340
100
AcDbEntity
  8
0
  6
CONTINUOUS
 62
     7
100
AcDbLine
 10
172.942938
 20
155.229284
 30
0.0
 11
172.903287
 21
155.23602
 31
0.0
  0
LINE
  5
35D
330
340
100
AcDbEntity
  8
0
  6
CONTINUOUS
 62
     7
100
AcDbLine
 10
172.903287
 20
155.23602
 30
0.0
 11
172.863491
 21
155.242404
 31
0.0
  0
LINE
  5
35E
330
340
100
AcDbEntity
  8
0
  6
CONTINUOUS
 62
     7
100
AcDbLine
 10
172.863491
 20
155.242404
 30
0.0
 11
172.78358
 21
155.254396
 31
0.0
  0
LINE
  5
35F
330
340
100
AcDbEntity
  8
0
  6
CONTINUOUS
 62
     7
100
AcDbLine
 10
172.78358
 20
155.254396
 30
0.0
 11
172.703439
 21
155.265824
 31
0.0
  0
ENDBLK
  5
342
330
340
100
AcDbEntity
  8
0
100
AcDbBlockEnd
  0
BLOCK
  5
362
330
361
100
AcDbEntity
  8
0
100
AcDbBlockBegin
  2
BLKF020
 70
     0
 71
     0
 10
0.0
 20
0.0
 30
0.0
  3
BLKF020
  1

  0
LINE
  5
365
330
361
100
AcDbEntity
  8
0
  6
CONTINUOUS
 62
     7
100
AcDbLine
 10
161.978201
 20
145.06583
 30
0.0
 11
162.02726
 21
145.029119
 31
0.0
  0
LINE
  5
366
330
361
100
AcDbEntity
  8
0
  6
CONTINUOUS
 62
     7
100
AcDbLine
 10
162.02726
 20
145.029119
 30
0.0
 11
162.051832
 21
145.010834
 31
0.0
  0
LINE
  5
367
330
361
100
AcDbEntity
  8
0
  6
CONTINUOUS
 62
     7
100
AcDbLine
 10
162.051832
 20
145.010834
 30
0.0
 11
162.076455
 21
144.992633
 31
0.0
  0
LINE
  5
368
330
361
100
AcDbEntity
  8
0
  6
CONTINUOUS
 62
     7
100
AcDbLine
 10
162.076455
 20
144.992633
 30
0.0
 11
162.101147
 21
144.974545
 31
0.0
  0
LINE
  5
369
330
361
100
AcDbEntity
  8
0
  6
CONTINUOUS
 62
     7
100
AcDbLine
 10
162.101147
 20
144.974545
 30
0.0
 11
162.125924
 21
144.956597
 31
0.0
  0
LINE
  5
36A
330
361
100
AcDbEntity
  8
0
  6
CONTINUOUS
 62
     7
100
AcDbLine
 10
162.125924
 20
144.956597
 30
0.0
 11
162.150804
 21
144.938818
 31
0.0
  0
LINE
  5
36B
330
361
100
AcDbEntity
  8
0
  6
CONTINUOUS
 62
     7
100
AcDbLine
 10
162.150804
 20
144.938818
 30
0.0
 11
162.175803
 21
144.921236
 31
0.0
  0
LINE
  5
36C
330
361
100
AcDbEntity
  8
0
  6
CONTINUOUS
 62
     7
100
AcDbLine
 10
162.175803
 20
144.921236
 30
0.0
 11
162.188353
 21
144.912527
 31
0.0
  0
LINE
  5
36D
330
361
100
AcDbEntity
  8
0
  6
CONTINUOUS
 62
     7
100
AcDbLine
 10
162.188353
 20
144.912527
 30
0.0
 11
162.20094
 21
144.903878
 31
0.0
  0
LINE
  5
36E
330
361
100
AcDbEntity
  8
0
  6
CONTINUOUS
 62
     7
100
AcDbLine
 10
162.20094
 20
144.903878
 30
0.0
 11
162.213564
 21
144.895293
 31
0.0
  0
LINE
  5
36F
330
361
100
AcDbEntity
  8
0
  6
CONTINUOUS
 62
     7
100
AcDbLine
 10
162.213564
 20
144.895293
 30
0.0
 11
162.22623
 21
144.886774
 31
0.0
  0
LINE
  5
370
330
361
100
AcDbEntity
  8
0
  6
CONTINUOUS
 62
     7
100
AcDbLine
 10
162.22623
 20
144.886774
 30
0.0
 11
162.238938
 21
144.878326
 31
0.0
  0
LINE
  5
371
330
361
100
AcDbEntity
  8
0
  6
CONTINUOUS
 62
     7
100
AcDbLine
 10
162.238938
 20
144.878326
 30
0.0
 11
162.251691
 21
144.869951
 31
0.0
  0
LINE
  5
372
330
361
100
AcDbEntity
  8
0
  6
CONTINUOUS
 62
     7
100
AcDbLine
 10
162.251691
 20
144.869951
 30
0.0
 11
162.264491
 21
144.861654
 31
0.0
  0
LINE
  5
373
330
361
100
AcDbEntity
  8
0
  6
CONTINUOUS
 62
     7
100
AcDbLine
 10
162.264491
 20
144.861654
 30
0.0
 11
162.27734
 21
144.853437
 31
0.0
  0
LINE
  5
374
330
361
100
AcDbEntity
  8
0
  6
CONTINUOUS
 62
     7
100
AcDbLine
 10
162.27734
 20
144.853437
 30
0.0
 11
162.290241
 21
144.845305
 31
0.0
  0
LINE
  5
375
330
361
100
AcDbEntity
  8
0
  6
CONTINUOUS
 62
     7
100
AcDbLine
 10
162.290241
 20
144.845305
 30
0.0
 11
162.303195
 21
144.837261
 31
0.0
  0
LINE
  5
376
330
361
100
AcDbEntity
  8
0
  6
CONTINUOUS
 62
     7
100
AcDbLine
 10
162.303195
 20
144.837261
 30
0.0
 11
162.316204
 21
144.829308
 31
0.0
  0
LINE
  5
377
330
361
100
AcDbEntity
  8
0
  6
CONTINUOUS
 62
     7
100
AcDbLine
 10
162.316204
 20
144.829308
 30
0.0
 11
162.329272
 21
144.82145
 31
0.0
  0
LINE
  5
378
330
361
100
AcDbEntity
  8
0
  6
CONTINUOUS
 62
     7
100
AcDbLine
 10
162.329272
 20
144.82145
 30
0.0
 11
162.342399
 21
144.813691
 31
0.0
  0
LINE
  5
379
330
361
100
AcDbEntity
  8
0
  6
CONTINUOUS
 62
     7
100
AcDbLine
 10
162.342399
 20
144.813691
 30
0.0
 11
162.355588
 21
144.806033
 31
0.0
  0
LINE
  5
37A
330
361
100
AcDbEntity
  8
0
  6
CONTINUOUS
 62
     7
100
AcDbLine
 10
162.355588
 20
144.806033
 30
0.0
 11
162.368841
 21
144.798481
 31
0.0
  0
LINE
  5
37B
330
361
100
AcDbEntity
  8
0
  6
CONTINUOUS
 62
     7
100
AcDbLine
 10
162.368841
 20
144.798481
 30
0.0
 11
162.38216
 21
144.791038
 31
0.0
  0
LINE
  5
37C
330
361
100
AcDbEntity
  8
0
  6
CONTINUOUS
 62
     7
100
AcDbLine
 10
162.38216
 20
144.791038
 30
0.0
 11
162.405442
 21
144.778347
 31
0.0
  0
LINE
  5
37D
330
361
100
AcDbEntity
  8
0
  6
CONTINUOUS
 62
     7
100
AcDbLine
 10
162.405442
 20
144.778347
 30
0.0
 11
162.428827
 21
144.765825
 31
0.0
  0
ENDBLK
  5
363
330
361
100
AcDbEntity
  8
0
100
AcDbBlockEnd
  0
BLOCK
  5
380
330
37F
100
AcDbEntity
  8
0
100
AcDbBlockBegin
  2
BLKF021
 70
     0
 71
     0
 10
0.0
 20
0.0
 30
0.0
  3
BLKF021
  1

  0
LINE
  5
383
330
37F
100
AcDbEntity
  8
0
  6
CONTINUOUS
 62
     7
100
AcDbLine
 10
163.17716
 20
155.265824
 30
0.0
 11
163.114489
 21
155.258712
 31
0.0
  0
LINE
  5
384
330
37F
100
AcDbEntity
  8
0
  6
CONTINUOUS
 62
     7
100
AcDbLine
 10
163.114489
 20
155.258712
 30
0.0
 11
163.051923
 21
155.251234
 31
0.0
  0
LINE
  5
385
330
37F
100
AcDbEntity
  8
0
  6
CONTINUOUS
 62
     7
100
AcDbLine
 10
163.051923
 20
155.251234
 30
0.0
 11
163.020711
 21
155.247244
 31
0.0
  0
LINE
  5
386
330
37F
100
AcDbEntity
  8
0
  6
CONTINUOUS
 62
     7
100
AcDbLine
 10
163.020711
 20
155.247244
 30
0.0
 11
162.989564
 21
155.243027
 31
0.0
  0
LINE
  5
387
330
37F
100
AcDbEntity
  8
0
  6
CONTINUOUS
 62
     7
100
AcDbLine
 10
162.989564
 20
155.243027
 30
0.0
 11
162.958496
 21
155.238536
 31
0.0
  0
LINE
  5
388
330
37F
100
AcDbEntity
  8
0
  6
CONTINUOUS
 62
     7
100
AcDbLine
 10
162.958496
 20
155.238536
 30
0.0
 11
162.927518
 21
155.233725
 31
0.0
  0
LINE
  5
389
330
37F
100
AcDbEntity
  8
0
  6
CONTINUOUS
 62
     7
100
AcDbLine
 10
162.927518
 20
155.233725
 30
0.0
 11
162.896644
 21
155.22855
 31
0.0
  0
LINE
  5
38A
330
37F
100
AcDbEntity
  8
0
  6
CONTINUOUS
 62
     7
100
AcDbLine
 10
162.896644
 20
155.22855
 30
0.0
 11
162.865887
 21
155.222965
 31
0.0
  0
LINE
  5
38B
330
37F
100
AcDbEntity
  8
0
  6
CONTINUOUS
 62
     7
100
AcDbLine
 10
162.865887
 20
155.222965
 30
0.0
 11
162.835259
 21
155.216923
 31
0.0
  0
LINE
  5
38C
330
37F
100
AcDbEntity
  8
0
  6
CONTINUOUS
 62
     7
100
AcDbLine
 10
162.835259
 20
155.216923
 30
0.0
 11
162.804775
 21
155.21038
 31
0.0
  0
LINE
  5
38D
330
37F
100
AcDbEntity
  8
0
  6
CONTINUOUS
 62
     7
100
AcDbLine
 10
162.804775
 20
155.21038
 30
0.0
 11
162.774447
 21
155.20329
 31
0.0
  0
LINE
  5
38E
330
37F
100
AcDbEntity
  8
0
  6
CONTINUOUS
 62
     7
100
AcDbLine
 10
162.774447
 20
155.20329
 30
0.0
 11
162.744288
 21
155.195607
 31
0.0
  0
LINE
  5
38F
330
37F
100
AcDbEntity
  8
0
  6
CONTINUOUS
 62
     7
100
AcDbLine
 10
162.744288
 20
155.195607
 30
0.0
 11
162.71431
 21
155.187285
 31
0.0
  0
LINE
  5
390
330
37F
100
AcDbEntity
  8
0
  6
CONTINUOUS
 62
     7
100
AcDbLine
 10
162.71431
 20
155.187285
 30
0.0
 11
162.684527
 21
155.17828
 31
0.0
  0
LINE
  5
391
330
37F
100
AcDbEntity
  8
0
  6
CONTINUOUS
 62
     7
100
AcDbLine
 10
162.684527
 20
155.17828
 30
0.0
 11
162.651755
 21
155.16746
 31
0.0
  0
LINE
  5
392
330
37F
100
AcDbEntity
  8
0
  6
CONTINUOUS
 62
     7
100
AcDbLine
 10
162.651755
 20
155.16746
 30
0.0
 11
162.61924
 21
155.155782
 31
0.0
  0
LINE
  5
393
330
37F
100
AcDbEntity
  8
0
  6
CONTINUOUS
 62
     7
100
AcDbLine
 10
162.61924
 20
155.155782
 30
0.0
 11
162.586983
 21
155.143283
 31
0.0
  0
LINE
  5
394
330
37F
100
AcDbEntity
  8
0
  6
CONTINUOUS
 62
     7
100
AcDbLine
 10
162.586983
 20
155.143283
 30
0.0
 11
162.554986
 21
155.130002
 31
0.0
  0
LINE
  5
395
330
37F
100
AcDbEntity
  8
0
  6
CONTINUOUS
 62
     7
100
AcDbLine
 10
162.554986
 20
155.130002
 30
0.0
 11
162.523251
 21
155.115977
 31
0.0
  0
LINE
  5
396
330
37F
100
AcDbEntity
  8
0
  6
CONTINUOUS
 62
     7
100
AcDbLine
 10
162.523251
 20
155.115977
 30
0.0
 11
162.49178
 21
155.101246
 31
0.0
  0
LINE
  5
397
330
37F
100
AcDbEntity
  8
0
  6
CONTINUOUS
 62
     7
100
AcDbLine
 10
162.49178
 20
155.101246
 30
0.0
 11
162.460573
 21
155.085847
 31
0.0
  0
LINE
  5
398
330
37F
100
AcDbEntity
  8
0
  6
CONTINUOUS
 62
     7
100
AcDbLine
 10
162.460573
 20
155.085847
 30
0.0
 11
162.429633
 21
155.069818
 31
0.0
  0
LINE
  5
399
330
37F
100
AcDbEntity
  8
0
  6
CONTINUOUS
 62
     7
100
AcDbLine
 10
162.429633
 20
155.069818
 30
0.0
 11
162.398961
 21
155.053198
 31
0.0
  0
LINE
  5
39A
330
37F
100
AcDbEntity
  8
0
  6
CONTINUOUS
 62
     7
100
AcDbLine
 10
162.398961
 20
155.053198
 30
0.0
 11
162.368558
 21
155.036024
 31
0.0
  0
LINE
  5
39B
330
37F
100
AcDbEntity
  8
0
  6
CONTINUOUS
 62
     7
100
AcDbLine
 10
162.368558
 20
155.036024
 30
0.0
 11
162.338427
 21
155.018334
 31
0.0
  0
LINE
  5
39C
330
37F
100
AcDbEntity
  8
0
  6
CONTINUOUS
 62
     7
100
AcDbLine
 10
162.338427
 20
155.018334
 30
0.0
 11
162.308569
 21
155.000167
 31
0.0
  0
LINE
  5
39D
330
37F
100
AcDbEntity
  8
0
  6
CONTINUOUS
 62
     7
100
AcDbLine
 10
162.308569
 20
155.000167
 30
0.0
 11
162.278985
 21
154.98156
 31
0.0
  0
LINE
  5
39E
330
37F
100
AcDbEntity
  8
0
  6
CONTINUOUS
 62
     7
100
AcDbLine
 10
162.278985
 20
154.98156
 30
0.0
 11
162.249677
 21
154.962552
 31
0.0
  0
LINE
  5
39F
330
37F
100
AcDbEntity
  8
0
  6
CONTINUOUS
 62
     7
100
AcDbLine
 10
162.249677
 20
154.962552
 30
0.0
 11
162.220646
 21
154.943181
 31
0.0
  0
LINE
  5
3A0
330
37F
100
AcDbEntity
  8
0
  6
CONTINUOUS
 62
     7
100
AcDbLine
 10
162.220646
 20
154.943181
 30
0.0
 11
162.191895
 21
154.923485
 31
0.0
  0
LINE
  5
3A1
330
37F
100
AcDbEntity
  8
0
  6
CONTINUOUS
 62
     7
100
AcDbLine
 10
162.191895
 20
154.923485
 30
0.0
 11
162.16462
 21
154.904354
 31
0.0
  0
LINE
  5
3A2
330
37F
100
AcDbEntity
  8
0
  6
CONTINUOUS
 62
     7
100
AcDbLine
 10
162.16462
 20
154.904354
 30
0.0
 11
162.13757
 21
154.884993
 31
0.0
  0
LINE
  5
3A3
330
37F
100
AcDbEntity
  8
0
  6
CONTINUOUS
 62
     7
100
AcDbLine
 10
162.13757
 20
154.884993
 30
0.0
 11
162.110714
 21
154.865434
 31
0.0
  0
LINE
  5
3A4
330
37F
100
AcDbEntity
  8
0
  6
CONTINUOUS
 62
     7
100
AcDbLine
 10
162.110714
 20
154.865434
 30
0.0
 11
162.084018
 21
154.845711
 31
0.0
  0
LINE
  5
3A5
330
37F
100
AcDbEntity
  8
0
  6
CONTINUOUS
 62
     7
100
AcDbLine
 10
162.084018
 20
154.845711
 30
0.0
 11
162.030981
 21
154.805902
 31
0.0
  0
LINE
  5
3A6
330
37F
100
AcDbEntity
  8
0
  6
CONTINUOUS
 62
     7
100
AcDbLine
 10
162.030981
 20
154.805902
 30
0.0
 11
161.978201
 21
154.765831
 31
0.0
  0
ENDBLK
  5
381
330
37F
100
AcDbEntity
  8
0
100
AcDbBlockEnd
  0
BLOCK
  5
3C0
330
3BF
100
AcDbEntity
  8
0
100
AcDbBlockBegin
  2
BLKF022
 70
     0
 71
     0
 10
0.0
 20
0.0
 30
0.0
  3
BLKF022
  1

  0
LINE
  5
3C3
330
3BF
100
AcDbEntity
  8
CSLAYER3
  6
CONTINUOUS
 62
     3
100
AcDbLine
 10
109.618796
 20
156.408737
 30
0.0
 11
111.618796
 21
155.872839
 31
0.0
  0
LINE
  5
3C4
330
3BF
100
AcDbEntity
  8
CSLAYER3
  6
CONTINUOUS
 62
     3
100
AcDbLine
 10
111.618796
 20
155.872839
 30
0.0
 11
109.618796
 21
155.336941
 31
0.0
  0
LINE
  5
3C5
330
3BF
100
AcDbEntity
  8
CSLAYER3
  6
CONTINUOUS
 62
     3
100
AcDbLine
 10
111.618796
 20
155.872839
 30
0.0
 11
109.618796
 21
155.872839
 31
0.0
  0
LINE
  5
3C6
330
3BF
100
AcDbEntity
  8
CSLAYER3
  6
CONTINUOUS
 62
     3
100
AcDbLine
 10
73.018796
 20
155.336941
 30
0.0
 11
71.018796
 21
155.872839
 31
0.0
  0
LINE
  5
3C7
330
3BF
100
AcDbEntity
  8
CSLAYER3
  6
CONTINUOUS
 62
     3
100
AcDbLine
 10
71.018796
 20
155.872839
 30
0.0
 11
73.018796
 21
156.408737
 31
0.0
  0
LINE
  5
3C8
330
3BF
100
AcDbEntity
  8
CSLAYER3
  6
CONTINUOUS
 62
     3
100
AcDbLine
 10
71.018796
 20
155.872839
 30
0.0
 11
73.018796
 21
155.872839
 31
0.0
  0
LINE
  5
3C9
330
3BF
100
AcDbEntity
  8
CSLAYER3
  6
CONTINUOUS
 62
     3
100
AcDbLine
 10
111.618796
 20
147.494996
 30
0.0
 11
111.618796
 21
156.672839
 31
0.0
  0
LINE
  5
3CA
330
3BF
100
AcDbEntity
  8
CSLAYER3
  6
CONTINUOUS
 62
     3
100
AcDbLine
 10
71.018796
 20
140.917646
 30
0.0
 11
71.018796
 21
156.672839
 31
0.0
  0
LINE
  5
3CB
330
3BF
100
AcDbEntity
  8
CSLAYER3
  6
CONTINUOUS
 62
     3
100
AcDbLine
 10
111.618796
 20
155.872839
 30
0.0
 11
71.018796
 21
155.872839
 31
0.0
  0
TEXT
  5
3CC
330
3BF
100
AcDbEntity
  8
CSLAYER3
 62
     3
100
AcDbText
 10
73.727142
 20
156.363754
 30
0.0
 40
3.0
  1
(
 41
1.336364
  7
ED_VECTOR
 72
     5
 11
75.827142
 21
156.363754
 31
0.0
100
AcDbText
  0
TEXT
  5
3CD
330
3BF
100
AcDbEntity
  8
CSLAYER3
 62
     3
100
AcDbText
 10
74.78907
 20
156.363754
 30
0.0
 40
3.0
  1
40.6
 41
0.877612
  7
ED_VECTOR
 72
     5
 11
83.18907
 21
156.363754
 31
0.0
100
AcDbText
  0
TEXT
  5
3CE
330
3BF
100
AcDbEntity
  8
CSLAYER3
 62
     3
100
AcDbText
 10
80.733765
 20
156.363754
 30
0.0
 40
3.0
  1
)工具入れ込み長さ
 41
0.853548
  7
ED_VECTOR
 72
     5
 11
99.633764
 21
156.363754
 31
0.0
100
AcDbText
  0
ENDBLK
  5
3C1
330
3BF
100
AcDbEntity
  8
0
100
AcDbBlockEnd
  0
BLOCK
  5
3D0
330
3CF
100
AcDbEntity
  8
0
100
AcDbBlockBegin
  2
BLKF023
 70
     0
 71
     0
 10
0.0
 20
0.0
 30
0.0
  3
BLKF023
  1

  0
LINE
  5
3D3
330
3CF
100
AcDbEntity
  8
CSLAYER3
  6
CONTINUOUS
 62
     3
100
AcDbLine
 10
105.540299
 20
120.178841
 30
0.0
 11
107.540299
 21
119.642943
 31
0.0
  0
LINE
  5
3D4
330
3CF
100
AcDbEntity
  8
CSLAYER3
  6
CONTINUOUS
 62
     3
100
AcDbLine
 10
107.540299
 20
119.642943
 30
0.0
 11
105.540299
 21
119.107045
 31
0.0
  0
LINE
  5
3D5
330
3CF
100
AcDbEntity
  8
CSLAYER3
  6
CONTINUOUS
 62
     3
100
AcDbLine
 10
107.540299
 20
119.642943
 30
0.0
 11
105.540299
 21
119.642943
 31
0.0
  0
LINE
  5
3D6
330
3CF
100
AcDbEntity
  8
CSLAYER3
  6
CONTINUOUS
 62
     3
100
AcDbLine
 10
87.540299
 20
119.107045
 30
0.0
 11
85.540299
 21
119.642943
 31
0.0
  0
LINE
  5
3D7
330
3CF
100
AcDbEntity
  8
CSLAYER3
  6
CONTINUOUS
 62
     3
100
AcDbLine
 10
85.540299
 20
119.642943
 30
0.0
 11
87.540299
 21
120.178841
 31
0.0
  0
LINE
  5
3D8
330
3CF
100
AcDbEntity
  8
CSLAYER3
  6
CONTINUOUS
 62
     3
100
AcDbLine
 10
85.540299
 20
119.642943
 30
0.0
 11
87.540299
 21
119.642943
 31
0.0
  0
LINE
  5
3D9
330
3CF
100
AcDbEntity
  8
CSLAYER3
  6
CONTINUOUS
 62
     3
100
AcDbLine
 10
107.540299
 20
127.474996
 30
0.0
 11
107.540299
 21
118.842943
 31
0.0
  0
LINE
  5
3DA
330
3CF
100
AcDbEntity
  8
CSLAYER3
  6
CONTINUOUS
 62
     3
100
AcDbLine
 10
85.540299
 20
128.224996
 30
0.0
 11
85.540299
 21
118.842943
 31
0.0
  0
LINE
  5
3DB
330
3CF
100
AcDbEntity
  8
CSLAYER3
  6
CONTINUOUS
 62
     3
100
AcDbLine
 10
107.540299
 20
119.642943
 30
0.0
 11
85.540299
 21
119.642943
 31
0.0
  0
TEXT
  5
3DC
330
3CF
100
AcDbEntity
  8
CSLAYER3
 62
     3
100
AcDbText
 10
94.794571
 20
120.13385
 30
0.0
 40
3.0
  1
22
 41
0.794595
  7
ED_VECTOR
 72
     5
 11
98.994571
 21
120.13385
 31
0.0
100
AcDbText
  0
ENDBLK
  5
3D1
330
3CF
100
AcDbEntity
  8
0
100
AcDbBlockEnd
  0
BLOCK
  5
3DE
330
3DD
100
AcDbEntity
  8
0
100
AcDbBlockBegin
  2
BLKF024
 70
     0
 71
     0
 10
0.0
 20
0.0
 30
0.0
  3
BLKF024
  1

  0
LINE
  5
3E1
330
3DD
100
AcDbEntity
  8
CSLAYER3
  6
CONTINUOUS
 62
     3
100
AcDbLine
 10
109.540299
 20
119.107045
 30
0.0
 11
107.540299
 21
119.642943
 31
0.0
  0
LINE
  5
3E2
330
3DD
100
AcDbEntity
  8
CSLAYER3
  6
CONTINUOUS
 62
     3
100
AcDbLine
 10
107.540299
 20
119.642943
 30
0.0
 11
109.540299
 21
120.178841
 31
0.0
  0
LINE
  5
3E3
330
3DD
100
AcDbEntity
  8
CSLAYER3
  6
CONTINUOUS
 62
     3
100
AcDbLine
 10
107.540299
 20
119.642943
 30
0.0
 11
109.540299
 21
119.642943
 31
0.0
  0
LINE
  5
3E4
330
3DD
100
AcDbEntity
  8
CSLAYER3
  6
CONTINUOUS
 62
     3
100
AcDbLine
 10
146.040299
 20
120.178841
 30
0.0
 11
148.040299
 21
119.642943
 31
0.0
  0
LINE
  5
3E5
330
3DD
100
AcDbEntity
  8
CSLAYER3
  6
CONTINUOUS
 62
     3
100
AcDbLine
 10
148.040299
 20
119.642943
 30
0.0
 11
146.040299
 21
119.107045
 31
0.0
  0
LINE
  5
3E6
330
3DD
100
AcDbEntity
  8
CSLAYER3
  6
CONTINUOUS
 62
     3
100
AcDbLine
 10
148.040299
 20
119.642943
 30
0.0
 11
146.040299
 21
119.642943
 31
0.0
  0
LINE
  5
3E7
330
3DD
100
AcDbEntity
  8
CSLAYER3
  6
CONTINUOUS
 62
     3
100
AcDbLine
 10
107.540299
 20
127.474996
 30
0.0
 11
107.540299
 21
118.842943
 31
0.0
  0
LINE
  5
3E8
330
3DD
100
AcDbEntity
  8
CSLAYER3
  6
CONTINUOUS
 62
     3
100
AcDbLine
 10
148.040299
 20
127.474996
 30
0.0
 11
148.040299
 21
118.842943
 31
0.0
  0
LINE
  5
3E9
330
3DD
100
AcDbEntity
  8
CSLAYER3
  6
CONTINUOUS
 62
     3
100
AcDbLine
 10
107.540299
 20
119.642943
 30
0.0
 11
148.040299
 21
119.642943
 31
0.0
  0
TEXT
  5
3EA
330
3DD
100
AcDbEntity
  8
CSLAYER3
 62
     3
100
AcDbText
 10
111.835014
 20
120.13385
 30
0.0
 40
3.0
  1
40.5
 41
0.877612
  7
ED_VECTOR
 72
     5
 11
120.235014
 21
120.13385
 31
0.0
100
AcDbText
  0
TEXT
  5
3EB
330
3DD
100
AcDbEntity
  8
CSLAYER3
 62
     3
100
AcDbText
 10
117.779709
 20
120.13385
 30
0.0
 40
3.0
  1
（クランフﾟ推奨範囲）
 41
0.829231
  7
ED_VECTOR
 72
     5
 11
140.879708
 21
120.13385
 31
0.0
100
AcDbText
  0
ENDBLK
  5
3DF
330
3DD
100
AcDbEntity
  8
0
100
AcDbBlockEnd
  0
BLOCK
  5
3ED
330
3EC
100
AcDbEntity
  8
0
100
AcDbBlockBegin
  2
BLKF025
 70
     0
 71
     0
 10
0.0
 20
0.0
 30
0.0
  3
BLKF025
  1

  0
ARC
  5
3F0
330
3EC
100
AcDbEntity
  8
CSLAYER3
  6
CONTINUOUS
 62
     3
100
AcDbCircle
 10
197.487451
 20
206.103049
 30
0.0
 40
3.903563668498623
100
AcDbArc
 50
243.434949
 51
296.565051
  0
ARC
  5
3F1
330
3EC
100
AcDbEntity
  8
CSLAYER3
  6
CONTINUOUS
 62
     3
100
AcDbCircle
 10
197.487451
 20
207.531005
 30
0.0
 40
3.903563668498623
100
AcDbArc
 50
63.434949
 51
116.565051
  0
LINE
  5
3F2
330
3EC
100
AcDbEntity
  8
CSLAYER3
  6
CONTINUOUS
 62
     3
100
AcDbLine
 10
199.769075
 20
146.767616
 30
0.0
 11
199.233177
 21
144.767616
 31
0.0
  0
LINE
  5
3F3
330
3EC
100
AcDbEntity
  8
CSLAYER3
  6
CONTINUOUS
 62
     3
100
AcDbLine
 10
199.233177
 20
144.767616
 30
0.0
 11
198.697279
 21
146.767616
 31
0.0
  0
LINE
  5
3F4
330
3EC
100
AcDbEntity
  8
CSLAYER3
  6
CONTINUOUS
 62
     3
100
AcDbLine
 10
199.233177
 20
144.767616
 30
0.0
 11
199.233177
 21
146.767616
 31
0.0
  0
LINE
  5
3F5
330
3EC
100
AcDbEntity
  8
CSLAYER3
  6
CONTINUOUS
 62
     3
100
AcDbLine
 10
198.697279
 20
266.797624
 30
0.0
 11
199.233177
 21
268.797624
 31
0.0
  0
LINE
  5
3F6
330
3EC
100
AcDbEntity
  8
CSLAYER3
  6
CONTINUOUS
 62
     3
100
AcDbLine
 10
199.233177
 20
268.797624
 30
0.0
 11
199.769075
 21
266.797624
 31
0.0
  0
LINE
  5
3F7
330
3EC
100
AcDbEntity
  8
CSLAYER3
  6
CONTINUOUS
 62
     3
100
AcDbLine
 10
199.233177
 20
268.797624
 30
0.0
 11
199.233177
 21
266.797624
 31
0.0
  0
LINE
  5
3F8
330
3EC
100
AcDbEntity
  8
CSLAYER3
  6
CONTINUOUS
 62
     3
100
AcDbLine
 10
173.850299
 20
144.767616
 30
0.0
 11
200.033177
 21
144.767616
 31
0.0
  0
LINE
  5
3F9
330
3EC
100
AcDbEntity
  8
CSLAYER3
  6
CONTINUOUS
 62
     3
100
AcDbLine
 10
167.950299
 20
268.797624
 30
0.0
 11
200.033177
 21
268.797624
 31
0.0
  0
LINE
  5
3FA
330
3EC
100
AcDbEntity
  8
CSLAYER3
  6
CONTINUOUS
 62
     3
100
AcDbLine
 10
199.233177
 20
144.767616
 30
0.0
 11
199.233177
 21
268.797624
 31
0.0
  0
TEXT
  5
3FB
330
3EC
100
AcDbEntity
  8
CSLAYER3
 62
     3
100
AcDbText
 10
198.742264
 20
204.199097
 30
0.0
 40
3.0
  1
500
 50
90.0
 41
0.773684
  7
ED_VECTOR
 72
     5
 11
198.742264
 21
210.499096
 31
0.0
100
AcDbText
  0
ENDBLK
  5
3EE
330
3EC
100
AcDbEntity
  8
0
100
AcDbBlockEnd
  0
BLOCK
  5
3FD
330
3FC
100
AcDbEntity
  8
0
100
AcDbBlockBegin
  2
BLKF026
 70
     0
 71
     0
 10
0.0
 20
0.0
 30
0.0
  3
BLKF026
  1

  0
ARC
  5
400
330
3FC
100
AcDbEntity
  8
CSLAYER3
  6
CONTINUOUS
 62
     3
100
AcDbCircle
 10
121.81557
 20
106.210173
 30
0.0
 40
3.903563668498635
100
AcDbArc
 50
153.434949
 51
206.565051
  0
ARC
  5
401
330
3FC
100
AcDbEntity
  8
CSLAYER3
  6
CONTINUOUS
 62
     3
100
AcDbCircle
 10
123.243525
 20
106.210173
 30
0.0
 40
3.903563668498623
100
AcDbArc
 50
-26.565051
 51
26.565051
  0
LINE
  5
402
330
3FC
100
AcDbEntity
  8
CSLAYER3
  6
CONTINUOUS
 62
     3
100
AcDbLine
 10
73.018796
 20
103.928548
 30
0.0
 11
71.018796
 21
104.464446
 31
0.0
  0
LINE
  5
403
330
3FC
100
AcDbEntity
  8
CSLAYER3
  6
CONTINUOUS
 62
     3
100
AcDbLine
 10
71.018796
 20
104.464446
 30
0.0
 11
73.018796
 21
105.000344
 31
0.0
  0
LINE
  5
404
330
3FC
100
AcDbEntity
  8
CSLAYER3
  6
CONTINUOUS
 62
     3
100
AcDbLine
 10
71.018796
 20
104.464446
 30
0.0
 11
73.018796
 21
104.464446
 31
0.0
  0
LINE
  5
405
330
3FC
100
AcDbEntity
  8
CSLAYER3
  6
CONTINUOUS
 62
     3
100
AcDbLine
 10
172.040299
 20
105.000344
 30
0.0
 11
174.040299
 21
104.464446
 31
0.0
  0
LINE
  5
406
330
3FC
100
AcDbEntity
  8
CSLAYER3
  6
CONTINUOUS
 62
     3
100
AcDbLine
 10
174.040299
 20
104.464446
 30
0.0
 11
172.040299
 21
103.928548
 31
0.0
  0
LINE
  5
407
330
3FC
100
AcDbEntity
  8
CSLAYER3
  6
CONTINUOUS
 62
     3
100
AcDbLine
 10
174.040299
 20
104.464446
 30
0.0
 11
172.040299
 21
104.464446
 31
0.0
  0
LINE
  5
408
330
3FC
100
AcDbEntity
  8
CSLAYER3
  6
CONTINUOUS
 62
     3
100
AcDbLine
 10
71.018796
 20
137.526336
 30
0.0
 11
71.018796
 21
103.771626
 31
0.0
  0
LINE
  5
409
330
3FC
100
AcDbEntity
  8
CSLAYER3
  6
CONTINUOUS
 62
     3
100
AcDbLine
 10
174.040299
 20
137.526336
 30
0.0
 11
174.040299
 21
103.771626
 31
0.0
  0
LINE
  5
40A
330
3FC
100
AcDbEntity
  8
CSLAYER3
  6
CONTINUOUS
 62
     3
100
AcDbLine
 10
71.018796
 20
104.464446
 30
0.0
 11
174.040299
 21
104.464446
 31
0.0
  0
TEXT
  5
40B
330
3FC
100
AcDbEntity
  8
CSLAYER3
 62
     3
100
AcDbText
 10
119.911613
 20
104.955353
 30
0.0
 40
3.0
  1
103
 41
0.773684
  7
ED_VECTOR
 72
     5
 11
126.211613
 21
104.955353
 31
0.0
100
AcDbText
  0
ENDBLK
  5
3FE
330
3FC
100
AcDbEntity
  8
0
100
AcDbBlockEnd
  0
BLOCK
  5
40D
330
40C
100
AcDbEntity
  8
0
100
AcDbBlockBegin
  2
BLKF027
 70
     0
 71
     0
 10
0.0
 20
0.0
 30
0.0
  3
BLKF027
  1

  0
ARC
  5
410
330
40C
100
AcDbEntity
  8
CSLAYER3
  6
CONTINUOUS
 62
     3
100
AcDbCircle
 10
77.211154
 20
113.47421
 30
0.0
 40
3.903563668498621
100
AcDbArc
 50
153.434949
 51
206.565051
  0
ARC
  5
411
330
40C
100
AcDbEntity
  8
CSLAYER3
  6
CONTINUOUS
 62
     3
100
AcDbCircle
 10
79.347941
 20
113.47421
 30
0.0
 40
3.903563668498621
100
AcDbArc
 50
-26.565051
 51
26.565051
  0
LINE
  5
412
330
40C
100
AcDbEntity
  8
CSLAYER3
  6
CONTINUOUS
 62
     3
100
AcDbLine
 10
73.018796
 20
111.192585
 30
0.0
 11
71.018796
 21
111.728483
 31
0.0
  0
LINE
  5
413
330
40C
100
AcDbEntity
  8
CSLAYER3
  6
CONTINUOUS
 62
     3
100
AcDbLine
 10
71.018796
 20
111.728483
 30
0.0
 11
73.018796
 21
112.264381
 31
0.0
  0
LINE
  5
414
330
40C
100
AcDbEntity
  8
CSLAYER3
  6
CONTINUOUS
 62
     3
100
AcDbLine
 10
71.018796
 20
111.728483
 30
0.0
 11
73.018796
 21
111.728483
 31
0.0
  0
LINE
  5
415
330
40C
100
AcDbEntity
  8
CSLAYER3
  6
CONTINUOUS
 62
     3
100
AcDbLine
 10
83.540299
 20
112.264381
 30
0.0
 11
85.540299
 21
111.728483
 31
0.0
  0
LINE
  5
416
330
40C
100
AcDbEntity
  8
CSLAYER3
  6
CONTINUOUS
 62
     3
100
AcDbLine
 10
85.540299
 20
111.728483
 30
0.0
 11
83.540299
 21
111.192585
 31
0.0
  0
LINE
  5
417
330
40C
100
AcDbEntity
  8
CSLAYER3
  6
CONTINUOUS
 62
     3
100
AcDbLine
 10
85.540299
 20
111.728483
 30
0.0
 11
83.540299
 21
111.728483
 31
0.0
  0
LINE
  5
418
330
40C
100
AcDbEntity
  8
CSLAYER3
  6
CONTINUOUS
 62
     3
100
AcDbLine
 10
71.018796
 20
137.526336
 30
0.0
 11
71.018796
 21
111.035662
 31
0.0
  0
LINE
  5
419
330
40C
100
AcDbEntity
  8
CSLAYER3
  6
CONTINUOUS
 62
     3
100
AcDbLine
 10
85.540299
 20
137.526336
 30
0.0
 11
85.540299
 21
111.035662
 31
0.0
  0
LINE
  5
41A
330
40C
100
AcDbEntity
  8
CSLAYER3
  6
CONTINUOUS
 62
     3
100
AcDbLine
 10
71.018796
 20
111.728483
 30
0.0
 11
85.540299
 21
111.728483
 31
0.0
  0
TEXT
  5
41B
330
40C
100
AcDbEntity
  8
CSLAYER3
 62
     3
100
AcDbText
 10
75.307198
 20
112.219391
 30
0.0
 40
3.0
  1
14.5
 41
0.877612
  7
ED_VECTOR
 72
     5
 11
83.707197
 21
112.219391
 31
0.0
100
AcDbText
  0
ENDBLK
  5
40E
330
40C
100
AcDbEntity
  8
0
100
AcDbBlockEnd
  0
BLOCK
  5
41D
330
41C
100
AcDbEntity
  8
0
100
AcDbBlockBegin
  2
BLKF028
 70
     0
 71
     0
 10
0.0
 20
0.0
 30
0.0
  3
BLKF028
  1

  0
LINE
  5
420
330
41C
100
AcDbEntity
  8
CSLAYER3
  6
CONTINUOUS
 62
     3
100
AcDbLine
 10
73.018796
 20
119.107045
 30
0.0
 11
71.018796
 21
119.642943
 31
0.0
  0
LINE
  5
421
330
41C
100
AcDbEntity
  8
CSLAYER3
  6
CONTINUOUS
 62
     3
100
AcDbLine
 10
71.018796
 20
119.642943
 30
0.0
 11
73.018796
 21
120.178841
 31
0.0
  0
LINE
  5
422
330
41C
100
AcDbEntity
  8
CSLAYER3
  6
CONTINUOUS
 62
     3
100
AcDbLine
 10
71.018796
 20
119.642943
 30
0.0
 11
73.018796
 21
119.642943
 31
0.0
  0
LINE
  5
423
330
41C
100
AcDbEntity
  8
CSLAYER3
  6
CONTINUOUS
 62
     3
100
AcDbLine
 10
80.518796
 20
120.178841
 30
0.0
 11
82.518796
 21
119.642943
 31
0.0
  0
LINE
  5
424
330
41C
100
AcDbEntity
  8
CSLAYER3
  6
CONTINUOUS
 62
     3
100
AcDbLine
 10
82.518796
 20
119.642943
 30
0.0
 11
80.518796
 21
119.107045
 31
0.0
  0
LINE
  5
425
330
41C
100
AcDbEntity
  8
CSLAYER3
  6
CONTINUOUS
 62
     3
100
AcDbLine
 10
82.518796
 20
119.642943
 30
0.0
 11
80.518796
 21
119.642943
 31
0.0
  0
LINE
  5
426
330
41C
100
AcDbEntity
  8
CSLAYER3
  6
CONTINUOUS
 62
     3
100
AcDbLine
 10
71.018796
 20
137.526336
 30
0.0
 11
71.018796
 21
118.950123
 31
0.0
  0
LINE
  5
427
330
41C
100
AcDbEntity
  8
CSLAYER3
  6
CONTINUOUS
 62
     3
100
AcDbLine
 10
82.518796
 20
137.526336
 30
0.0
 11
82.518796
 21
118.950123
 31
0.0
  0
LINE
  5
428
330
41C
100
AcDbEntity
  8
CSLAYER3
  6
CONTINUOUS
 62
     3
100
AcDbLine
 10
71.018796
 20
119.642943
 30
0.0
 11
82.518796
 21
119.642943
 31
0.0
  0
TEXT
  5
429
330
41C
100
AcDbEntity
  8
CSLAYER3
 62
     3
100
AcDbText
 10
73.796448
 20
120.13385
 30
0.0
 40
3.0
  1
11.5
 41
0.877612
  7
ED_VECTOR
 72
     5
 11
82.196447
 21
120.13385
 31
0.0
100
AcDbText
  0
ENDBLK
  5
41E
330
41C
100
AcDbEntity
  8
0
100
AcDbBlockEnd
  0
BLOCK
  5
42B
330
42A
100
AcDbEntity
  8
0
100
AcDbBlockBegin
  2
BLKF029
 70
     0
 71
     0
 10
0.0
 20
0.0
 30
0.0
  3
BLKF029
  1

  0
LINE
  5
42E
330
42A
100
AcDbEntity
  8
CSLAYER3
  6
CONTINUOUS
 62
     3
100
AcDbLine
 10
87.540299
 20
111.192585
 30
0.0
 11
85.540299
 21
111.728483
 31
0.0
  0
LINE
  5
42F
330
42A
100
AcDbEntity
  8
CSLAYER3
  6
CONTINUOUS
 62
     3
100
AcDbLine
 10
85.540299
 20
111.728483
 30
0.0
 11
87.540299
 21
112.264381
 31
0.0
  0
LINE
  5
430
330
42A
100
AcDbEntity
  8
CSLAYER3
  6
CONTINUOUS
 62
     3
100
AcDbLine
 10
85.540299
 20
111.728483
 30
0.0
 11
87.540299
 21
111.728483
 31
0.0
  0
LINE
  5
431
330
42A
100
AcDbEntity
  8
CSLAYER3
  6
CONTINUOUS
 62
     3
100
AcDbLine
 10
172.040299
 20
112.264381
 30
0.0
 11
174.040299
 21
111.728483
 31
0.0
  0
LINE
  5
432
330
42A
100
AcDbEntity
  8
CSLAYER3
  6
CONTINUOUS
 62
     3
100
AcDbLine
 10
174.040299
 20
111.728483
 30
0.0
 11
172.040299
 21
111.192585
 31
0.0
  0
LINE
  5
433
330
42A
100
AcDbEntity
  8
CSLAYER3
  6
CONTINUOUS
 62
     3
100
AcDbLine
 10
174.040299
 20
111.728483
 30
0.0
 11
172.040299
 21
111.728483
 31
0.0
  0
LINE
  5
434
330
42A
100
AcDbEntity
  8
CSLAYER3
  6
CONTINUOUS
 62
     3
100
AcDbLine
 10
85.540299
 20
137.526336
 30
0.0
 11
85.540299
 21
111.035662
 31
0.0
  0
LINE
  5
435
330
42A
100
AcDbEntity
  8
CSLAYER3
  6
CONTINUOUS
 62
     3
100
AcDbLine
 10
174.040299
 20
137.526336
 30
0.0
 11
174.040299
 21
111.035662
 31
0.0
  0
LINE
  5
436
330
42A
100
AcDbEntity
  8
CSLAYER3
  6
CONTINUOUS
 62
     3
100
AcDbLine
 10
85.540299
 20
111.728483
 30
0.0
 11
174.040299
 21
111.728483
 31
0.0
  0
TEXT
  5
437
330
42A
100
AcDbEntity
  8
CSLAYER3
 62
     3
100
AcDbText
 10
126.817955
 20
112.219391
 30
0.0
 40
3.0
  1
88.5
 41
0.877612
  7
ED_VECTOR
 72
     5
 11
135.217955
 21
112.219391
 31
0.0
100
AcDbText
  0
ENDBLK
  5
42C
330
42A
100
AcDbEntity
  8
0
100
AcDbBlockEnd
  0
BLOCK
  5
439
330
438
100
AcDbEntity
  8
0
100
AcDbBlockBegin
  2
BLKF030
 70
     0
 71
     0
 10
0.0
 20
0.0
 30
0.0
  3
BLKF030
  1

  0
LINE
  5
43C
330
438
100
AcDbEntity
  8
CSLAYER3
  6
CONTINUOUS
 62
     3
100
AcDbLine
 10
52.554694
 20
129.484996
 30
0.0
 11
52.018796
 21
127.484996
 31
0.0
  0
LINE
  5
43D
330
438
100
AcDbEntity
  8
CSLAYER3
  6
CONTINUOUS
 62
     3
100
AcDbLine
 10
52.018796
 20
127.484996
 30
0.0
 11
51.482898
 21
129.484996
 31
0.0
  0
LINE
  5
43E
330
438
100
AcDbEntity
  8
CSLAYER3
  6
CONTINUOUS
 62
     3
100
AcDbLine
 10
52.018796
 20
127.484996
 30
0.0
 11
52.018796
 21
129.484996
 31
0.0
  0
LINE
  5
43F
330
438
100
AcDbEntity
  8
CSLAYER3
  6
CONTINUOUS
 62
     3
100
AcDbLine
 10
51.482898
 20
145.484996
 30
0.0
 11
52.018796
 21
147.484996
 31
0.0
  0
LINE
  5
440
330
438
100
AcDbEntity
  8
CSLAYER3
  6
CONTINUOUS
 62
     3
100
AcDbLine
 10
52.018796
 20
147.484996
 30
0.0
 11
52.554694
 21
145.484996
 31
0.0
  0
LINE
  5
441
330
438
100
AcDbEntity
  8
CSLAYER3
  6
CONTINUOUS
 62
     3
100
AcDbLine
 10
52.018796
 20
147.484996
 30
0.0
 11
52.018796
 21
145.484996
 31
0.0
  0
LINE
  5
442
330
438
100
AcDbEntity
  8
CSLAYER3
  6
CONTINUOUS
 62
     3
100
AcDbLine
 10
91.930299
 20
127.484996
 30
0.0
 11
51.218796
 21
127.484996
 31
0.0
  0
LINE
  5
443
330
438
100
AcDbEntity
  8
CSLAYER3
  6
CONTINUOUS
 62
     3
100
AcDbLine
 10
91.930299
 20
147.484996
 30
0.0
 11
51.218796
 21
147.484996
 31
0.0
  0
LINE
  5
444
330
438
100
AcDbEntity
  8
CSLAYER3
  6
CONTINUOUS
 62
     3
100
AcDbLine
 10
52.018796
 20
127.484996
 30
0.0
 11
52.018796
 21
147.484996
 31
0.0
  0
TEXT
  5
445
330
438
100
AcDbEntity
  8
CSLAYER3
 62
     3
100
AcDbText
 10
51.527885
 20
130.581146
 30
0.0
 40
3.0
  1
%%c
 50
90.0
 41
0.864706
  7
ED_VECTOR
 72
     5
 11
51.527885
 21
132.681146
 31
0.0
100
AcDbText
  0
TEXT
  5
446
330
438
100
AcDbEntity
  8
CSLAYER3
 62
     3
100
AcDbText
 10
51.527885
 20
133.896042
 30
0.0
 40
3.0
  1
20
 50
90.0
 41
0.794595
  7
ED_VECTOR
 72
     5
 11
51.527885
 21
138.096042
 31
0.0
100
AcDbText
  0
TEXT
  5
447
330
438
100
AcDbEntity
  8
CSLAYER3
 62
     3
100
AcDbText
 10
51.528572
 20
138.235992
 30
0.0
 40
2.4
  1
-
 50
90.0
 41
0.668182
  7
ED_VECTOR
 72
     5
 11
51.528572
 21
139.915992
 31
0.0
100
AcDbText
  0
TEXT
  5
448
330
438
100
AcDbEntity
  8
CSLAYER3
 62
     3
100
AcDbText
 10
51.528572
 20
139.632568
 30
0.0
 40
2.4
  1
0.01
 50
90.0
 41
0.963934
  7
ED_VECTOR
 72
     5
 11
51.528572
 21
146.352568
 31
0.0
100
AcDbText
  0
TEXT
  5
449
330
438
100
AcDbEntity
  8
CSLAYER3
 62
     3
100
AcDbText
 10
48.735409
 20
139.632568
 30
0.0
 40
2.4
  1
0
 50
90.0
 41
0.864706
  7
ED_VECTOR
 72
     5
 11
48.735409
 21
141.312568
 31
0.0
100
AcDbText
  0
ENDBLK
  5
43A
330
438
100
AcDbEntity
  8
0
100
AcDbBlockEnd
  0
BLOCK
  5
44B
330
44A
100
AcDbEntity
  8
0
100
AcDbBlockBegin
  2
BLKF031
 70
     0
 71
     0
 10
0.0
 20
0.0
 30
0.0
  3
BLKF031
  1

  0
LINE
  5
44E
330
44A
100
AcDbEntity
  8
CSLAYER3
  6
CONTINUOUS
 62
     3
100
AcDbLine
 10
61.635379
 20
141.384996
 30
0.0
 11
62.171277
 21
143.384996
 31
0.0
  0
LINE
  5
44F
330
44A
100
AcDbEntity
  8
CSLAYER3
  6
CONTINUOUS
 62
     3
100
AcDbLine
 10
62.171277
 20
143.384996
 30
0.0
 11
62.707175
 21
141.384996
 31
0.0
  0
LINE
  5
450
330
44A
100
AcDbEntity
  8
CSLAYER3
  6
CONTINUOUS
 62
     3
100
AcDbLine
 10
62.171277
 20
143.384996
 30
0.0
 11
62.171277
 21
141.384996
 31
0.0
  0
LINE
  5
451
330
44A
100
AcDbEntity
  8
CSLAYER3
  6
CONTINUOUS
 62
     3
100
AcDbLine
 10
62.707175
 20
133.584996
 30
0.0
 11
62.171277
 21
131.584996
 31
0.0
  0
LINE
  5
452
330
44A
100
AcDbEntity
  8
CSLAYER3
  6
CONTINUOUS
 62
     3
100
AcDbLine
 10
62.171277
 20
131.584996
 30
0.0
 11
61.635379
 21
133.584996
 31
0.0
  0
LINE
  5
453
330
44A
100
AcDbEntity
  8
CSLAYER3
  6
CONTINUOUS
 62
     3
100
AcDbLine
 10
62.171277
 20
131.584996
 30
0.0
 11
62.171277
 21
133.584996
 31
0.0
  0
LINE
  5
454
330
44A
100
AcDbEntity
  8
CSLAYER3
  6
CONTINUOUS
 62
     3
100
AcDbLine
 10
78.159199
 20
143.384996
 30
0.0
 11
61.371277
 21
143.384996
 31
0.0
  0
LINE
  5
455
330
44A
100
AcDbEntity
  8
CSLAYER3
  6
CONTINUOUS
 62
     3
100
AcDbLine
 10
78.159199
 20
131.584996
 30
0.0
 11
61.371277
 21
131.584996
 31
0.0
  0
LINE
  5
456
330
44A
100
AcDbEntity
  8
CSLAYER3
  6
CONTINUOUS
 62
     3
100
AcDbLine
 10
62.171277
 20
143.384996
 30
0.0
 11
62.171277
 21
131.584996
 31
0.0
  0
TEXT
  5
457
330
44A
100
AcDbEntity
  8
CSLAYER3
 62
     3
100
AcDbText
 10
61.680367
 20
132.855194
 30
0.0
 40
3.0
  1
%%c
 50
90.0
 41
0.864706
  7
ED_VECTOR
 72
     5
 11
61.680367
 21
134.955194
 31
0.0
100
AcDbText
  0
TEXT
  5
458
330
44A
100
AcDbEntity
  8
CSLAYER3
 62
     3
100
AcDbText
 10
61.680367
 20
136.170105
 30
0.0
 40
3.0
  1
11.8
 50
90.0
 41
0.877612
  7
ED_VECTOR
 72
     5
 11
61.680367
 21
144.570105
 31
0.0
100
AcDbText
  0
ENDBLK
  5
44C
330
44A
100
AcDbEntity
  8
0
100
AcDbBlockEnd
  0
BLOCK
  5
47B
330
47A
100
AcDbEntity
  8
0
100
AcDbBlockBegin
  2
BLKF032
 70
     0
 71
     0
 10
0.0
 20
0.0
 30
0.0
  3
BLKF032
  1

  0
LINE
  5
47E
330
47A
100
AcDbEntity
  8
0
  6
CONTINUOUS
 62
     7
100
AcDbLine
 10
252.912537
 20
154.016669
 30
0.0
 11
253.058106
 21
153.91473
 31
0.0
  0
LINE
  5
47F
330
47A
100
AcDbEntity
  8
0
  6
CONTINUOUS
 62
     7
100
AcDbLine
 10
253.058106
 20
153.91473
 30
0.0
 11
253.481888
 21
153.618004
 31
0.0
  0
LINE
  5
480
330
47A
100
AcDbEntity
  8
0
  6
CONTINUOUS
 62
     7
100
AcDbLine
 10
253.481888
 20
153.618004
 30
0.0
 11
254.146211
 21
153.152834
 31
0.0
  0
LINE
  5
481
330
47A
100
AcDbEntity
  8
0
  6
CONTINUOUS
 62
     7
100
AcDbLine
 10
254.146211
 20
153.152834
 30
0.0
 11
254.992068
 21
152.560558
 31
0.0
  0
LINE
  5
482
330
47A
100
AcDbEntity
  8
0
  6
CONTINUOUS
 62
     7
100
AcDbLine
 10
254.992068
 20
152.560558
 30
0.0
 11
255.944282
 21
151.89382
 31
0.0
  0
LINE
  5
483
330
47A
100
AcDbEntity
  8
0
  6
CONTINUOUS
 62
     7
100
AcDbLine
 10
255.944282
 20
151.89382
 30
0.0
 11
256.918259
 21
151.211824
 31
0.0
  0
LINE
  5
484
330
47A
100
AcDbEntity
  8
0
  6
CONTINUOUS
 62
     7
100
AcDbLine
 10
256.918259
 20
151.211824
 30
0.0
 11
257.827446
 21
150.575201
 31
0.0
  0
LINE
  5
485
330
47A
100
AcDbEntity
  8
0
  6
CONTINUOUS
 62
     7
100
AcDbLine
 10
257.827446
 20
150.575201
 30
0.0
 11
258.591071
 21
150.040518
 31
0.0
  0
LINE
  5
486
330
47A
100
AcDbEntity
  8
0
  6
CONTINUOUS
 62
     7
100
AcDbLine
 10
258.591071
 20
150.040518
 30
0.0
 11
259.141267
 21
149.655263
 31
0.0
  0
LINE
  5
487
330
47A
100
AcDbEntity
  8
0
  6
CONTINUOUS
 62
     7
100
AcDbLine
 10
259.141267
 20
149.655263
 30
0.0
 11
259.429157
 21
149.45368
 31
0.0
  0
LINE
  5
488
330
47A
100
AcDbEntity
  8
0
  6
CONTINUOUS
 62
     7
100
AcDbLine
 10
259.429157
 20
149.45368
 30
0.0
 11
259.465754
 21
149.42805
 31
0.0
  0
ENDBLK
  5
47C
330
47A
100
AcDbEntity
  8
0
100
AcDbBlockEnd
  0
BLOCK
  5
48A
330
489
100
AcDbEntity
  8
0
100
AcDbBlockBegin
  2
BLKF033
 70
     0
 71
     0
 10
0.0
 20
0.0
 30
0.0
  3
BLKF033
  1

  0
LINE
  5
48D
330
489
100
AcDbEntity
  8
0
  6
CONTINUOUS
 62
     7
100
AcDbLine
 10
254.303567
 20
142.055686
 30
0.0
 11
254.26697
 21
142.081316
 31
0.0
  0
LINE
  5
48E
330
489
100
AcDbEntity
  8
0
  6
CONTINUOUS
 62
     7
100
AcDbLine
 10
254.26697
 20
142.081316
 30
0.0
 11
253.97908
 21
142.282899
 31
0.0
  0
LINE
  5
48F
330
489
100
AcDbEntity
  8
0
  6
CONTINUOUS
 62
     7
100
AcDbLine
 10
253.97908
 20
142.282899
 30
0.0
 11
253.428884
 21
142.668139
 31
0.0
  0
LINE
  5
490
330
489
100
AcDbEntity
  8
0
  6
CONTINUOUS
 62
     7
100
AcDbLine
 10
253.428884
 20
142.668139
 30
0.0
 11
252.665259
 21
143.202837
 31
0.0
  0
LINE
  5
491
330
489
100
AcDbEntity
  8
0
  6
CONTINUOUS
 62
     7
100
AcDbLine
 10
252.665259
 20
143.202837
 30
0.0
 11
251.756072
 21
143.839459
 31
0.0
  0
LINE
  5
492
330
489
100
AcDbEntity
  8
0
  6
CONTINUOUS
 62
     7
100
AcDbLine
 10
251.756072
 20
143.839459
 30
0.0
 11
250.782095
 21
144.521441
 31
0.0
  0
LINE
  5
493
330
489
100
AcDbEntity
  8
0
  6
CONTINUOUS
 62
     7
100
AcDbLine
 10
250.782095
 20
144.521441
 30
0.0
 11
249.829881
 21
145.188193
 31
0.0
  0
LINE
  5
494
330
489
100
AcDbEntity
  8
0
  6
CONTINUOUS
 62
     7
100
AcDbLine
 10
249.829881
 20
145.188193
 30
0.0
 11
248.984024
 21
145.78047
 31
0.0
  0
LINE
  5
495
330
489
100
AcDbEntity
  8
0
  6
CONTINUOUS
 62
     7
100
AcDbLine
 10
248.984024
 20
145.78047
 30
0.0
 11
248.319693
 21
146.245639
 31
0.0
  0
LINE
  5
496
330
489
100
AcDbEntity
  8
0
  6
CONTINUOUS
 62
     7
100
AcDbLine
 10
248.319693
 20
146.245639
 30
0.0
 11
247.895919
 21
146.542366
 31
0.0
  0
LINE
  5
497
330
489
100
AcDbEntity
  8
0
  6
CONTINUOUS
 62
     7
100
AcDbLine
 10
247.895919
 20
146.542366
 30
0.0
 11
247.75035
 21
146.64429
 31
0.0
  0
ENDBLK
  5
48B
330
489
100
AcDbEntity
  8
0
100
AcDbBlockEnd
  0
BLOCK
  5
499
330
498
100
AcDbEntity
  8
0
100
AcDbBlockBegin
  2
BLKF034
 70
     0
 71
     0
 10
0.0
 20
0.0
 30
0.0
  3
BLKF034
  1

  0
LINE
  5
49C
330
498
100
AcDbEntity
  8
0
  6
CONTINUOUS
 62
     7
100
AcDbLine
 10
253.297642
 20
154.479484
 30
0.0
 11
253.441394
 21
154.378827
 31
0.0
  0
LINE
  5
49D
330
498
100
AcDbEntity
  8
0
  6
CONTINUOUS
 62
     7
100
AcDbLine
 10
253.441394
 20
154.378827
 30
0.0
 11
253.85987
 21
154.085796
 31
0.0
  0
LINE
  5
49E
330
498
100
AcDbEntity
  8
0
  6
CONTINUOUS
 62
     7
100
AcDbLine
 10
253.85987
 20
154.085796
 30
0.0
 11
254.515894
 21
153.626452
 31
0.0
  0
LINE
  5
49F
330
498
100
AcDbEntity
  8
0
  6
CONTINUOUS
 62
     7
100
AcDbLine
 10
254.515894
 20
153.626452
 30
0.0
 11
255.351171
 21
153.041582
 31
0.0
  0
LINE
  5
4A0
330
498
100
AcDbEntity
  8
0
  6
CONTINUOUS
 62
     7
100
AcDbLine
 10
255.351171
 20
153.041582
 30
0.0
 11
256.291487
 21
152.383159
 31
0.0
  0
LINE
  5
4A1
330
498
100
AcDbEntity
  8
0
  6
CONTINUOUS
 62
     7
100
AcDbLine
 10
256.291487
 20
152.383159
 30
0.0
 11
257.253289
 21
151.709701
 31
0.0
  0
LINE
  5
4A2
330
498
100
AcDbEntity
  8
0
  6
CONTINUOUS
 62
     7
100
AcDbLine
 10
257.253289
 20
151.709701
 30
0.0
 11
258.151114
 21
151.081036
 31
0.0
  0
LINE
  5
4A3
330
498
100
AcDbEntity
  8
0
  6
CONTINUOUS
 62
     7
100
AcDbLine
 10
258.151114
 20
151.081036
 30
0.0
 11
258.905188
 21
150.553028
 31
0.0
  0
LINE
  5
4A4
330
498
100
AcDbEntity
  8
0
  6
CONTINUOUS
 62
     7
100
AcDbLine
 10
258.905188
 20
150.553028
 30
0.0
 11
259.448514
 21
150.172587
 31
0.0
  0
LINE
  5
4A5
330
498
100
AcDbEntity
  8
0
  6
CONTINUOUS
 62
     7
100
AcDbLine
 10
259.448514
 20
150.172587
 30
0.0
 11
259.732805
 21
149.973522
 31
0.0
  0
LINE
  5
4A6
330
498
100
AcDbEntity
  8
0
  6
CONTINUOUS
 62
     7
100
AcDbLine
 10
259.732805
 20
149.973522
 30
0.0
 11
259.768941
 21
149.94822
 31
0.0
  0
ENDBLK
  5
49A
330
498
100
AcDbEntity
  8
0
100
AcDbBlockEnd
  0
BLOCK
  5
4A8
330
4A7
100
AcDbEntity
  8
0
100
AcDbBlockBegin
  2
BLKF035
 70
     0
 71
     0
 10
0.0
 20
0.0
 30
0.0
  3
BLKF035
  1

  0
LINE
  5
4AB
330
4A7
100
AcDbEntity
  8
0
  6
CONTINUOUS
 62
     7
100
AcDbLine
 10
254.567579
 20
155.421417
 30
0.0
 11
254.720703
 21
155.314203
 31
0.0
  0
LINE
  5
4AC
330
4A7
100
AcDbEntity
  8
0
  6
CONTINUOUS
 62
     7
100
AcDbLine
 10
254.720703
 20
155.314203
 30
0.0
 11
255.163484
 21
155.004154
 31
0.0
  0
LINE
  5
4AD
330
4A7
100
AcDbEntity
  8
0
  6
CONTINUOUS
 62
     7
100
AcDbLine
 10
255.163484
 20
155.004154
 30
0.0
 11
255.847939
 21
154.524903
 31
0.0
  0
LINE
  5
4AE
330
4A7
100
AcDbEntity
  8
0
  6
CONTINUOUS
 62
     7
100
AcDbLine
 10
255.847939
 20
154.524903
 30
0.0
 11
256.699898
 21
153.92835
 31
0.0
  0
LINE
  5
4AF
330
4A7
100
AcDbEntity
  8
0
  6
CONTINUOUS
 62
     7
100
AcDbLine
 10
256.699898
 20
153.92835
 30
0.0
 11
257.627033
 21
153.279166
 31
0.0
  0
LINE
  5
4B0
330
4A7
100
AcDbEntity
  8
0
  6
CONTINUOUS
 62
     7
100
AcDbLine
 10
257.627033
 20
153.279166
 30
0.0
 11
258.528874
 21
152.647685
 31
0.0
  0
LINE
  5
4B1
330
4A7
100
AcDbEntity
  8
0
  6
CONTINUOUS
 62
     7
100
AcDbLine
 10
258.528874
 20
152.647685
 30
0.0
 11
259.307705
 21
152.102347
 31
0.0
  0
LINE
  5
4B2
330
4A7
100
AcDbEntity
  8
0
  6
CONTINUOUS
 62
     7
100
AcDbLine
 10
259.307705
 20
152.102347
 30
0.0
 11
259.879113
 21
151.702236
 31
0.0
  0
LINE
  5
4B3
330
4A7
100
AcDbEntity
  8
0
  6
CONTINUOUS
 62
     7
100
AcDbLine
 10
259.879113
 20
151.702236
 30
0.0
 11
260.181189
 21
151.490729
 31
0.0
  0
LINE
  5
4B4
330
4A7
100
AcDbEntity
  8
0
  6
CONTINUOUS
 62
     7
100
AcDbLine
 10
260.181189
 20
151.490729
 30
0.0
 11
260.219731
 21
151.463743
 31
0.0
  0
ENDBLK
  5
4A9
330
4A7
100
AcDbEntity
  8
0
100
AcDbBlockEnd
  0
BLOCK
  5
4C6
330
4C5
100
AcDbEntity
  8
0
100
AcDbBlockBegin
  2
BLKF036
 70
     0
 71
     0
 10
0.0
 20
0.0
 30
0.0
  3
BLKF036
  1

  0
LINE
  5
4C9
330
4C5
100
AcDbEntity
  8
0
  6
CONTINUOUS
 62
     7
100
AcDbLine
 10
238.898166
 20
158.905621
 30
0.0
 11
238.890618
 21
158.918704
 31
0.0
  0
LINE
  5
4CA
330
4C5
100
AcDbEntity
  8
0
  6
CONTINUOUS
 62
     7
100
AcDbLine
 10
238.890618
 20
158.918704
 30
0.0
 11
238.885358
 21
158.927839
 31
0.0
  0
LINE
  5
4CB
330
4C5
100
AcDbEntity
  8
0
  6
CONTINUOUS
 62
     7
100
AcDbLine
 10
238.885358
 20
158.927839
 30
0.0
 11
238.910201
 21
158.88481
 31
0.0
  0
LINE
  5
4CC
330
4C5
100
AcDbEntity
  8
0
  6
CONTINUOUS
 62
     7
100
AcDbLine
 10
238.910201
 20
158.88481
 30
0.0
 11
239.002802
 21
158.724393
 31
0.0
  0
LINE
  5
4CD
330
4C5
100
AcDbEntity
  8
0
  6
CONTINUOUS
 62
     7
100
AcDbLine
 10
239.002802
 20
158.724393
 30
0.0
 11
239.067006
 21
158.613171
 31
0.0
  0
LINE
  5
4CE
330
4C5
100
AcDbEntity
  8
0
  6
CONTINUOUS
 62
     7
100
AcDbLine
 10
239.067006
 20
158.613171
 30
0.0
 11
239.121522
 21
158.518735
 31
0.0
  0
LINE
  5
4CF
330
4C5
100
AcDbEntity
  8
0
  6
CONTINUOUS
 62
     7
100
AcDbLine
 10
239.121522
 20
158.518735
 30
0.0
 11
239.207031
 21
158.370629
 31
0.0
  0
LINE
  5
4D0
330
4C5
100
AcDbEntity
  8
0
  6
CONTINUOUS
 62
     7
100
AcDbLine
 10
239.207031
 20
158.370629
 30
0.0
 11
239.270397
 21
158.260891
 31
0.0
  0
LINE
  5
4D1
330
4C5
100
AcDbEntity
  8
0
  6
CONTINUOUS
 62
     7
100
AcDbLine
 10
239.270397
 20
158.260891
 30
0.0
 11
239.322692
 21
158.170338
 31
0.0
  0
ENDBLK
  5
4C7
330
4C5
100
AcDbEntity
  8
0
100
AcDbBlockEnd
  0
BLOCK
  5
4D3
330
4D2
100
AcDbEntity
  8
0
100
AcDbBlockBegin
  2
BLKF037
 70
     0
 71
     0
 10
0.0
 20
0.0
 30
0.0
  3
BLKF037
  1

  0
LINE
  5
4D6
330
4D2
100
AcDbEntity
  8
0
  6
CONTINUOUS
 62
     7
100
AcDbLine
 10
239.322692
 20
158.170338
 30
0.0
 11
239.262432
 21
158.135544
 31
0.0
  0
LINE
  5
4D7
330
4D2
100
AcDbEntity
  8
0
  6
CONTINUOUS
 62
     7
100
AcDbLine
 10
239.262432
 20
158.135544
 30
0.0
 11
239.198454
 21
158.098604
 31
0.0
  0
LINE
  5
4D8
330
4D2
100
AcDbEntity
  8
0
  6
CONTINUOUS
 62
     7
100
AcDbLine
 10
239.198454
 20
158.098604
 30
0.0
 11
239.13081
 21
158.059548
 31
0.0
  0
LINE
  5
4D9
330
4D2
100
AcDbEntity
  8
0
  6
CONTINUOUS
 62
     7
100
AcDbLine
 10
239.13081
 20
158.059548
 30
0.0
 11
239.059553
 21
158.018406
 31
0.0
  0
LINE
  5
4DA
330
4D2
100
AcDbEntity
  8
0
  6
CONTINUOUS
 62
     7
100
AcDbLine
 10
239.059553
 20
158.018406
 30
0.0
 11
238.984734
 21
157.975207
 31
0.0
  0
LINE
  5
4DB
330
4D2
100
AcDbEntity
  8
0
  6
CONTINUOUS
 62
     7
100
AcDbLine
 10
238.984734
 20
157.975207
 30
0.0
 11
238.906421
 21
157.929997
 31
0.0
  0
LINE
  5
4DC
330
4D2
100
AcDbEntity
  8
0
  6
CONTINUOUS
 62
     7
100
AcDbLine
 10
238.906421
 20
157.929997
 30
0.0
 11
238.824673
 21
157.882805
 31
0.0
  0
LINE
  5
4DD
330
4D2
100
AcDbEntity
  8
0
  6
CONTINUOUS
 62
     7
100
AcDbLine
 10
238.824673
 20
157.882805
 30
0.0
 11
238.739558
 21
157.833661
 31
0.0
  0
ENDBLK
  5
4D4
330
4D2
100
AcDbEntity
  8
0
100
AcDbBlockEnd
  0
BLOCK
  5
4DF
330
4DE
100
AcDbEntity
  8
0
100
AcDbBlockBegin
  2
BLKF038
 70
     0
 71
     0
 10
0.0
 20
0.0
 30
0.0
  3
BLKF038
  1

  0
LINE
  5
4E2
330
4DE
100
AcDbEntity
  8
0
  6
CONTINUOUS
 62
     7
100
AcDbLine
 10
238.739558
 20
157.833661
 30
0.0
 11
238.562511
 21
157.850344
 31
0.0
  0
LINE
  5
4E3
330
4DE
100
AcDbEntity
  8
0
  6
CONTINUOUS
 62
     7
100
AcDbLine
 10
238.562511
 20
157.850344
 30
0.0
 11
238.47403
 21
157.858223
 31
0.0
  0
LINE
  5
4E4
330
4DE
100
AcDbEntity
  8
0
  6
CONTINUOUS
 62
     7
100
AcDbLine
 10
238.47403
 20
157.858223
 30
0.0
 11
238.3856
 21
157.865547
 31
0.0
  0
LINE
  5
4E5
330
4DE
100
AcDbEntity
  8
0
  6
CONTINUOUS
 62
     7
100
AcDbLine
 10
238.3856
 20
157.865547
 30
0.0
 11
238.297237
 21
157.872131
 31
0.0
  0
LINE
  5
4E6
330
4DE
100
AcDbEntity
  8
0
  6
CONTINUOUS
 62
     7
100
AcDbLine
 10
238.297237
 20
157.872131
 30
0.0
 11
238.208958
 21
157.87779
 31
0.0
  0
LINE
  5
4E7
330
4DE
100
AcDbEntity
  8
0
  6
CONTINUOUS
 62
     7
100
AcDbLine
 10
238.208958
 20
157.87779
 30
0.0
 11
238.120781
 21
157.882338
 31
0.0
  0
LINE
  5
4E8
330
4DE
100
AcDbEntity
  8
0
  6
CONTINUOUS
 62
     7
100
AcDbLine
 10
238.120781
 20
157.882338
 30
0.0
 11
238.032722
 21
157.885591
 31
0.0
  0
LINE
  5
4E9
330
4DE
100
AcDbEntity
  8
0
  6
CONTINUOUS
 62
     7
100
AcDbLine
 10
238.032722
 20
157.885591
 30
0.0
 11
237.944797
 21
157.887364
 31
0.0
  0
LINE
  5
4EA
330
4DE
100
AcDbEntity
  8
0
  6
CONTINUOUS
 62
     7
100
AcDbLine
 10
237.944797
 20
157.887364
 30
0.0
 11
237.857024
 21
157.887471
 31
0.0
  0
LINE
  5
4EB
330
4DE
100
AcDbEntity
  8
0
  6
CONTINUOUS
 62
     7
100
AcDbLine
 10
237.857024
 20
157.887471
 30
0.0
 11
237.76942
 21
157.885728
 31
0.0
  0
LINE
  5
4EC
330
4DE
100
AcDbEntity
  8
0
  6
CONTINUOUS
 62
     7
100
AcDbLine
 10
237.76942
 20
157.885728
 30
0.0
 11
237.682002
 21
157.881949
 31
0.0
  0
LINE
  5
4ED
330
4DE
100
AcDbEntity
  8
0
  6
CONTINUOUS
 62
     7
100
AcDbLine
 10
237.682002
 20
157.881949
 30
0.0
 11
237.638367
 21
157.879239
 31
0.0
  0
LINE
  5
4EE
330
4DE
100
AcDbEntity
  8
0
  6
CONTINUOUS
 62
     7
100
AcDbLine
 10
237.638367
 20
157.879239
 30
0.0
 11
237.594786
 21
157.875951
 31
0.0
  0
LINE
  5
4EF
330
4DE
100
AcDbEntity
  8
0
  6
CONTINUOUS
 62
     7
100
AcDbLine
 10
237.594786
 20
157.875951
 30
0.0
 11
237.551259
 21
157.872061
 31
0.0
  0
LINE
  5
4F0
330
4DE
100
AcDbEntity
  8
0
  6
CONTINUOUS
 62
     7
100
AcDbLine
 10
237.551259
 20
157.872061
 30
0.0
 11
237.507789
 21
157.867546
 31
0.0
  0
LINE
  5
4F1
330
4DE
100
AcDbEntity
  8
0
  6
CONTINUOUS
 62
     7
100
AcDbLine
 10
237.507789
 20
157.867546
 30
0.0
 11
237.464378
 21
157.862384
 31
0.0
  0
LINE
  5
4F2
330
4DE
100
AcDbEntity
  8
0
  6
CONTINUOUS
 62
     7
100
AcDbLine
 10
237.464378
 20
157.862384
 30
0.0
 11
237.421028
 21
157.856551
 31
0.0
  0
LINE
  5
4F3
330
4DE
100
AcDbEntity
  8
0
  6
CONTINUOUS
 62
     7
100
AcDbLine
 10
237.421028
 20
157.856551
 30
0.0
 11
237.377741
 21
157.850024
 31
0.0
  0
LINE
  5
4F4
330
4DE
100
AcDbEntity
  8
0
  6
CONTINUOUS
 62
     7
100
AcDbLine
 10
237.377741
 20
157.850024
 30
0.0
 11
237.33452
 21
157.842781
 31
0.0
  0
LINE
  5
4F5
330
4DE
100
AcDbEntity
  8
0
  6
CONTINUOUS
 62
     7
100
AcDbLine
 10
237.33452
 20
157.842781
 30
0.0
 11
237.274877
 21
157.831552
 31
0.0
  0
LINE
  5
4F6
330
4DE
100
AcDbEntity
  8
0
  6
CONTINUOUS
 62
     7
100
AcDbLine
 10
237.274877
 20
157.831552
 30
0.0
 11
237.21541
 21
157.818912
 31
0.0
  0
LINE
  5
4F7
330
4DE
100
AcDbEntity
  8
0
  6
CONTINUOUS
 62
     7
100
AcDbLine
 10
237.21541
 20
157.818912
 30
0.0
 11
237.156163
 21
157.804867
 31
0.0
  0
LINE
  5
4F8
330
4DE
100
AcDbEntity
  8
0
  6
CONTINUOUS
 62
     7
100
AcDbLine
 10
237.156163
 20
157.804867
 30
0.0
 11
237.097184
 21
157.78942
 31
0.0
  0
LINE
  5
4F9
330
4DE
100
AcDbEntity
  8
0
  6
CONTINUOUS
 62
     7
100
AcDbLine
 10
237.097184
 20
157.78942
 30
0.0
 11
237.038518
 21
157.772575
 31
0.0
  0
LINE
  5
4FA
330
4DE
100
AcDbEntity
  8
0
  6
CONTINUOUS
 62
     7
100
AcDbLine
 10
237.038518
 20
157.772575
 30
0.0
 11
236.980211
 21
157.754338
 31
0.0
  0
LINE
  5
4FB
330
4DE
100
AcDbEntity
  8
0
  6
CONTINUOUS
 62
     7
100
AcDbLine
 10
236.980211
 20
157.754338
 30
0.0
 11
236.922309
 21
157.734712
 31
0.0
  0
LINE
  5
4FC
330
4DE
100
AcDbEntity
  8
0
  6
CONTINUOUS
 62
     7
100
AcDbLine
 10
236.922309
 20
157.734712
 30
0.0
 11
236.864858
 21
157.713703
 31
0.0
  0
LINE
  5
4FD
330
4DE
100
AcDbEntity
  8
0
  6
CONTINUOUS
 62
     7
100
AcDbLine
 10
236.864858
 20
157.713703
 30
0.0
 11
236.807905
 21
157.691314
 31
0.0
  0
LINE
  5
4FE
330
4DE
100
AcDbEntity
  8
0
  6
CONTINUOUS
 62
     7
100
AcDbLine
 10
236.807905
 20
157.691314
 30
0.0
 11
236.751495
 21
157.667551
 31
0.0
  0
LINE
  5
4FF
330
4DE
100
AcDbEntity
  8
0
  6
CONTINUOUS
 62
     7
100
AcDbLine
 10
236.751495
 20
157.667551
 30
0.0
 11
236.695674
 21
157.642416
 31
0.0
  0
LINE
  5
500
330
4DE
100
AcDbEntity
  8
0
  6
CONTINUOUS
 62
     7
100
AcDbLine
 10
236.695674
 20
157.642416
 30
0.0
 11
236.640489
 21
157.615916
 31
0.0
  0
LINE
  5
501
330
4DE
100
AcDbEntity
  8
0
  6
CONTINUOUS
 62
     7
100
AcDbLine
 10
236.640489
 20
157.615916
 30
0.0
 11
236.585986
 21
157.588054
 31
0.0
  0
LINE
  5
502
330
4DE
100
AcDbEntity
  8
0
  6
CONTINUOUS
 62
     7
100
AcDbLine
 10
236.585986
 20
157.588054
 30
0.0
 11
236.53221
 21
157.558835
 31
0.0
  0
LINE
  5
503
330
4DE
100
AcDbEntity
  8
0
  6
CONTINUOUS
 62
     7
100
AcDbLine
 10
236.53221
 20
157.558835
 30
0.0
 11
236.479207
 21
157.528264
 31
0.0
  0
LINE
  5
504
330
4DE
100
AcDbEntity
  8
0
  6
CONTINUOUS
 62
     7
100
AcDbLine
 10
236.479207
 20
157.528264
 30
0.0
 11
236.427024
 21
157.496344
 31
0.0
  0
LINE
  5
505
330
4DE
100
AcDbEntity
  8
0
  6
CONTINUOUS
 62
     7
100
AcDbLine
 10
236.427024
 20
157.496344
 30
0.0
 11
236.375477
 21
157.462936
 31
0.0
  0
LINE
  5
506
330
4DE
100
AcDbEntity
  8
0
  6
CONTINUOUS
 62
     7
100
AcDbLine
 10
236.375477
 20
157.462936
 30
0.0
 11
236.324817
 21
157.428214
 31
0.0
  0
LINE
  5
507
330
4DE
100
AcDbEntity
  8
0
  6
CONTINUOUS
 62
     7
100
AcDbLine
 10
236.324817
 20
157.428214
 30
0.0
 11
236.27506
 21
157.392219
 31
0.0
  0
LINE
  5
508
330
4DE
100
AcDbEntity
  8
0
  6
CONTINUOUS
 62
     7
100
AcDbLine
 10
236.27506
 20
157.392219
 30
0.0
 11
236.226219
 21
157.354993
 31
0.0
  0
LINE
  5
509
330
4DE
100
AcDbEntity
  8
0
  6
CONTINUOUS
 62
     7
100
AcDbLine
 10
236.226219
 20
157.354993
 30
0.0
 11
236.178309
 21
157.316576
 31
0.0
  0
LINE
  5
50A
330
4DE
100
AcDbEntity
  8
0
  6
CONTINUOUS
 62
     7
100
AcDbLine
 10
236.178309
 20
157.316576
 30
0.0
 11
236.131345
 21
157.277011
 31
0.0
  0
LINE
  5
50B
330
4DE
100
AcDbEntity
  8
0
  6
CONTINUOUS
 62
     7
100
AcDbLine
 10
236.131345
 20
157.277011
 30
0.0
 11
236.085341
 21
157.236338
 31
0.0
  0
LINE
  5
50C
330
4DE
100
AcDbEntity
  8
0
  6
CONTINUOUS
 62
     7
100
AcDbLine
 10
236.085341
 20
157.236338
 30
0.0
 11
236.040312
 21
157.194599
 31
0.0
  0
LINE
  5
50D
330
4DE
100
AcDbEntity
  8
0
  6
CONTINUOUS
 62
     7
100
AcDbLine
 10
236.040312
 20
157.194599
 30
0.0
 11
235.996271
 21
157.151836
 31
0.0
  0
LINE
  5
50E
330
4DE
100
AcDbEntity
  8
0
  6
CONTINUOUS
 62
     7
100
AcDbLine
 10
235.996271
 20
157.151836
 30
0.0
 11
235.953234
 21
157.10809
 31
0.0
  0
LINE
  5
50F
330
4DE
100
AcDbEntity
  8
0
  6
CONTINUOUS
 62
     7
100
AcDbLine
 10
235.953234
 20
157.10809
 30
0.0
 11
235.911215
 21
157.063401
 31
0.0
  0
LINE
  5
510
330
4DE
100
AcDbEntity
  8
0
  6
CONTINUOUS
 62
     7
100
AcDbLine
 10
235.911215
 20
157.063401
 30
0.0
 11
235.870229
 21
157.017813
 31
0.0
  0
LINE
  5
511
330
4DE
100
AcDbEntity
  8
0
  6
CONTINUOUS
 62
     7
100
AcDbLine
 10
235.870229
 20
157.017813
 30
0.0
 11
235.830289
 21
156.971365
 31
0.0
  0
LINE
  5
512
330
4DE
100
AcDbEntity
  8
0
  6
CONTINUOUS
 62
     7
100
AcDbLine
 10
235.830289
 20
156.971365
 30
0.0
 11
235.79141
 21
156.9241
 31
0.0
  0
LINE
  5
513
330
4DE
100
AcDbEntity
  8
0
  6
CONTINUOUS
 62
     7
100
AcDbLine
 10
235.79141
 20
156.9241
 30
0.0
 11
235.753607
 21
156.876058
 31
0.0
  0
LINE
  5
514
330
4DE
100
AcDbEntity
  8
0
  6
CONTINUOUS
 62
     7
100
AcDbLine
 10
235.753607
 20
156.876058
 30
0.0
 11
235.716895
 21
156.827281
 31
0.0
  0
LINE
  5
515
330
4DE
100
AcDbEntity
  8
0
  6
CONTINUOUS
 62
     7
100
AcDbLine
 10
235.716895
 20
156.827281
 30
0.0
 11
235.672715
 21
156.765595
 31
0.0
  0
LINE
  5
516
330
4DE
100
AcDbEntity
  8
0
  6
CONTINUOUS
 62
     7
100
AcDbLine
 10
235.672715
 20
156.765595
 30
0.0
 11
235.63014
 21
156.7029
 31
0.0
  0
LINE
  5
517
330
4DE
100
AcDbEntity
  8
0
  6
CONTINUOUS
 62
     7
100
AcDbLine
 10
235.63014
 20
156.7029
 30
0.0
 11
235.589062
 21
156.639266
 31
0.0
  0
LINE
  5
518
330
4DE
100
AcDbEntity
  8
0
  6
CONTINUOUS
 62
     7
100
AcDbLine
 10
235.589062
 20
156.639266
 30
0.0
 11
235.549376
 21
156.574758
 31
0.0
  0
LINE
  5
519
330
4DE
100
AcDbEntity
  8
0
  6
CONTINUOUS
 62
     7
100
AcDbLine
 10
235.549376
 20
156.574758
 30
0.0
 11
235.510974
 21
156.509444
 31
0.0
  0
LINE
  5
51A
330
4DE
100
AcDbEntity
  8
0
  6
CONTINUOUS
 62
     7
100
AcDbLine
 10
235.510974
 20
156.509444
 30
0.0
 11
235.473748
 21
156.443392
 31
0.0
  0
LINE
  5
51B
330
4DE
100
AcDbEntity
  8
0
  6
CONTINUOUS
 62
     7
100
AcDbLine
 10
235.473748
 20
156.443392
 30
0.0
 11
235.437593
 21
156.376667
 31
0.0
  0
LINE
  5
51C
330
4DE
100
AcDbEntity
  8
0
  6
CONTINUOUS
 62
     7
100
AcDbLine
 10
235.437593
 20
156.376667
 30
0.0
 11
235.4024
 21
156.309338
 31
0.0
  0
LINE
  5
51D
330
4DE
100
AcDbEntity
  8
0
  6
CONTINUOUS
 62
     7
100
AcDbLine
 10
235.4024
 20
156.309338
 30
0.0
 11
235.368064
 21
156.241472
 31
0.0
  0
LINE
  5
51E
330
4DE
100
AcDbEntity
  8
0
  6
CONTINUOUS
 62
     7
100
AcDbLine
 10
235.368064
 20
156.241472
 30
0.0
 11
235.334476
 21
156.173136
 31
0.0
  0
LINE
  5
51F
330
4DE
100
AcDbEntity
  8
0
  6
CONTINUOUS
 62
     7
100
AcDbLine
 10
235.334476
 20
156.173136
 30
0.0
 11
235.30153
 21
156.104397
 31
0.0
  0
LINE
  5
520
330
4DE
100
AcDbEntity
  8
0
  6
CONTINUOUS
 62
     7
100
AcDbLine
 10
235.30153
 20
156.104397
 30
0.0
 11
235.269119
 21
156.035321
 31
0.0
  0
LINE
  5
521
330
4DE
100
AcDbEntity
  8
0
  6
CONTINUOUS
 62
     7
100
AcDbLine
 10
235.269119
 20
156.035321
 30
0.0
 11
235.237136
 21
155.965978
 31
0.0
  0
LINE
  5
522
330
4DE
100
AcDbEntity
  8
0
  6
CONTINUOUS
 62
     7
100
AcDbLine
 10
235.237136
 20
155.965978
 30
0.0
 11
235.205475
 21
155.896432
 31
0.0
  0
LINE
  5
523
330
4DE
100
AcDbEntity
  8
0
  6
CONTINUOUS
 62
     7
100
AcDbLine
 10
235.205475
 20
155.896432
 30
0.0
 11
235.142686
 21
155.757006
 31
0.0
  0
ENDBLK
  5
4E0
330
4DE
100
AcDbEntity
  8
0
100
AcDbBlockEnd
  0
BLOCK
  5
525
330
524
100
AcDbEntity
  8
0
100
AcDbBlockBegin
  2
BLKF039
 70
     0
 71
     0
 10
0.0
 20
0.0
 30
0.0
  3
BLKF039
  1

  0
LINE
  5
528
330
524
100
AcDbEntity
  8
0
  6
CONTINUOUS
 62
     7
100
AcDbLine
 10
235.142686
 20
155.757006
 30
0.0
 11
234.997303
 21
155.673067
 31
0.0
  0
LINE
  5
529
330
524
100
AcDbEntity
  8
0
  6
CONTINUOUS
 62
     7
100
AcDbLine
 10
234.997303
 20
155.673067
 30
0.0
 11
234.851577
 21
155.588935
 31
0.0
  0
LINE
  5
52A
330
524
100
AcDbEntity
  8
0
  6
CONTINUOUS
 62
     7
100
AcDbLine
 10
234.851577
 20
155.588935
 30
0.0
 11
234.70562
 21
155.504669
 31
0.0
  0
LINE
  5
52B
330
524
100
AcDbEntity
  8
0
  6
CONTINUOUS
 62
     7
100
AcDbLine
 10
234.70562
 20
155.504669
 30
0.0
 11
234.559551
 21
155.420329
 31
0.0
  0
LINE
  5
52C
330
524
100
AcDbEntity
  8
0
  6
CONTINUOUS
 62
     7
100
AcDbLine
 10
234.559551
 20
155.420329
 30
0.0
 11
234.413483
 21
155.336003
 31
0.0
  0
LINE
  5
52D
330
524
100
AcDbEntity
  8
0
  6
CONTINUOUS
 62
     7
100
AcDbLine
 10
234.413483
 20
155.336003
 30
0.0
 11
234.267526
 21
155.251722
 31
0.0
  0
LINE
  5
52E
330
524
100
AcDbEntity
  8
0
  6
CONTINUOUS
 62
     7
100
AcDbLine
 10
234.267526
 20
155.251722
 30
0.0
 11
234.1218
 21
155.16759
 31
0.0
  0
LINE
  5
52F
330
524
100
AcDbEntity
  8
0
  6
CONTINUOUS
 62
     7
100
AcDbLine
 10
234.1218
 20
155.16759
 30
0.0
 11
233.976417
 21
155.083667
 31
0.0
  0
ENDBLK
  5
526
330
524
100
AcDbEntity
  8
0
100
AcDbBlockEnd
  0
BLOCK
  5
531
330
530
100
AcDbEntity
  8
0
100
AcDbBlockBegin
  2
BLKF040
 70
     0
 71
     0
 10
0.0
 20
0.0
 30
0.0
  3
BLKF040
  1

  0
LINE
  5
534
330
530
100
AcDbEntity
  8
0
  6
CONTINUOUS
 62
     7
100
AcDbLine
 10
233.976417
 20
155.083667
 30
0.0
 11
233.942158
 21
155.088729
 31
0.0
  0
LINE
  5
535
330
530
100
AcDbEntity
  8
0
  6
CONTINUOUS
 62
     7
100
AcDbLine
 10
233.942158
 20
155.088729
 30
0.0
 11
233.907886
 21
155.093695
 31
0.0
  0
LINE
  5
536
330
530
100
AcDbEntity
  8
0
  6
CONTINUOUS
 62
     7
100
AcDbLine
 10
233.907886
 20
155.093695
 30
0.0
 11
233.883799
 21
155.097079
 31
0.0
  0
LINE
  5
537
330
530
100
AcDbEntity
  8
0
  6
CONTINUOUS
 62
     7
100
AcDbLine
 10
233.883799
 20
155.097079
 30
0.0
 11
233.859698
 21
155.100365
 31
0.0
  0
LINE
  5
538
330
530
100
AcDbEntity
  8
0
  6
CONTINUOUS
 62
     7
100
AcDbLine
 10
233.859698
 20
155.100365
 30
0.0
 11
233.835585
 21
155.103552
 31
0.0
  0
LINE
  5
539
330
530
100
AcDbEntity
  8
0
  6
CONTINUOUS
 62
     7
100
AcDbLine
 10
233.835585
 20
155.103552
 30
0.0
 11
233.811459
 21
155.10664
 31
0.0
  0
LINE
  5
53A
330
530
100
AcDbEntity
  8
0
  6
CONTINUOUS
 62
     7
100
AcDbLine
 10
233.811459
 20
155.10664
 30
0.0
 11
233.787321
 21
155.109625
 31
0.0
  0
LINE
  5
53B
330
530
100
AcDbEntity
  8
0
  6
CONTINUOUS
 62
     7
100
AcDbLine
 10
233.787321
 20
155.109625
 30
0.0
 11
233.76317
 21
155.112507
 31
0.0
  0
LINE
  5
53C
330
530
100
AcDbEntity
  8
0
  6
CONTINUOUS
 62
     7
100
AcDbLine
 10
233.76317
 20
155.112507
 30
0.0
 11
233.739006
 21
155.115284
 31
0.0
  0
LINE
  5
53D
330
530
100
AcDbEntity
  8
0
  6
CONTINUOUS
 62
     7
100
AcDbLine
 10
233.739006
 20
155.115284
 30
0.0
 11
233.714831
 21
155.117954
 31
0.0
  0
LINE
  5
53E
330
530
100
AcDbEntity
  8
0
  6
CONTINUOUS
 62
     7
100
AcDbLine
 10
233.714831
 20
155.117954
 30
0.0
 11
233.690643
 21
155.120516
 31
0.0
  0
LINE
  5
53F
330
530
100
AcDbEntity
  8
0
  6
CONTINUOUS
 62
     7
100
AcDbLine
 10
233.690643
 20
155.120516
 30
0.0
 11
233.666444
 21
155.122969
 31
0.0
  0
LINE
  5
540
330
530
100
AcDbEntity
  8
0
  6
CONTINUOUS
 62
     7
100
AcDbLine
 10
233.666444
 20
155.122969
 30
0.0
 11
233.642232
 21
155.12531
 31
0.0
  0
LINE
  5
541
330
530
100
AcDbEntity
  8
0
  6
CONTINUOUS
 62
     7
100
AcDbLine
 10
233.642232
 20
155.12531
 30
0.0
 11
233.618009
 21
155.127538
 31
0.0
  0
LINE
  5
542
330
530
100
AcDbEntity
  8
0
  6
CONTINUOUS
 62
     7
100
AcDbLine
 10
233.618009
 20
155.127538
 30
0.0
 11
233.593774
 21
155.129652
 31
0.0
  0
LINE
  5
543
330
530
100
AcDbEntity
  8
0
  6
CONTINUOUS
 62
     7
100
AcDbLine
 10
233.593774
 20
155.129652
 30
0.0
 11
233.569527
 21
155.13165
 31
0.0
  0
LINE
  5
544
330
530
100
AcDbEntity
  8
0
  6
CONTINUOUS
 62
     7
100
AcDbLine
 10
233.569527
 20
155.13165
 30
0.0
 11
233.545269
 21
155.133531
 31
0.0
  0
LINE
  5
545
330
530
100
AcDbEntity
  8
0
  6
CONTINUOUS
 62
     7
100
AcDbLine
 10
233.545269
 20
155.133531
 30
0.0
 11
233.521
 21
155.135292
 31
0.0
  0
LINE
  5
546
330
530
100
AcDbEntity
  8
0
  6
CONTINUOUS
 62
     7
100
AcDbLine
 10
233.521
 20
155.135292
 30
0.0
 11
233.496719
 21
155.136932
 31
0.0
  0
LINE
  5
547
330
530
100
AcDbEntity
  8
0
  6
CONTINUOUS
 62
     7
100
AcDbLine
 10
233.496719
 20
155.136932
 30
0.0
 11
233.472428
 21
155.13845
 31
0.0
  0
LINE
  5
548
330
530
100
AcDbEntity
  8
0
  6
CONTINUOUS
 62
     7
100
AcDbLine
 10
233.472428
 20
155.13845
 30
0.0
 11
233.448125
 21
155.139845
 31
0.0
  0
LINE
  5
549
330
530
100
AcDbEntity
  8
0
  6
CONTINUOUS
 62
     7
100
AcDbLine
 10
233.448125
 20
155.139845
 30
0.0
 11
233.423812
 21
155.141114
 31
0.0
  0
LINE
  5
54A
330
530
100
AcDbEntity
  8
0
  6
CONTINUOUS
 62
     7
100
AcDbLine
 10
233.423812
 20
155.141114
 30
0.0
 11
233.399488
 21
155.142255
 31
0.0
  0
LINE
  5
54B
330
530
100
AcDbEntity
  8
0
  6
CONTINUOUS
 62
     7
100
AcDbLine
 10
233.399488
 20
155.142255
 30
0.0
 11
233.375153
 21
155.143269
 31
0.0
  0
LINE
  5
54C
330
530
100
AcDbEntity
  8
0
  6
CONTINUOUS
 62
     7
100
AcDbLine
 10
233.375153
 20
155.143269
 30
0.0
 11
233.350808
 21
155.144152
 31
0.0
  0
LINE
  5
54D
330
530
100
AcDbEntity
  8
0
  6
CONTINUOUS
 62
     7
100
AcDbLine
 10
233.350808
 20
155.144152
 30
0.0
 11
233.326452
 21
155.144903
 31
0.0
  0
LINE
  5
54E
330
530
100
AcDbEntity
  8
0
  6
CONTINUOUS
 62
     7
100
AcDbLine
 10
233.326452
 20
155.144903
 30
0.0
 11
233.302086
 21
155.145521
 31
0.0
  0
LINE
  5
54F
330
530
100
AcDbEntity
  8
0
  6
CONTINUOUS
 62
     7
100
AcDbLine
 10
233.302086
 20
155.145521
 30
0.0
 11
233.27771
 21
155.146004
 31
0.0
  0
LINE
  5
550
330
530
100
AcDbEntity
  8
0
  6
CONTINUOUS
 62
     7
100
AcDbLine
 10
233.27771
 20
155.146004
 30
0.0
 11
233.253323
 21
155.146351
 31
0.0
  0
LINE
  5
551
330
530
100
AcDbEntity
  8
0
  6
CONTINUOUS
 62
     7
100
AcDbLine
 10
233.253323
 20
155.146351
 30
0.0
 11
233.228927
 21
155.14656
 31
0.0
  0
LINE
  5
552
330
530
100
AcDbEntity
  8
0
  6
CONTINUOUS
 62
     7
100
AcDbLine
 10
233.228927
 20
155.14656
 30
0.0
 11
233.204521
 21
155.146629
 31
0.0
  0
LINE
  5
553
330
530
100
AcDbEntity
  8
0
  6
CONTINUOUS
 62
     7
100
AcDbLine
 10
233.204521
 20
155.146629
 30
0.0
 11
233.180105
 21
155.146557
 31
0.0
  0
LINE
  5
554
330
530
100
AcDbEntity
  8
0
  6
CONTINUOUS
 62
     7
100
AcDbLine
 10
233.180105
 20
155.146557
 30
0.0
 11
233.15568
 21
155.146342
 31
0.0
  0
LINE
  5
555
330
530
100
AcDbEntity
  8
0
  6
CONTINUOUS
 62
     7
100
AcDbLine
 10
233.15568
 20
155.146342
 30
0.0
 11
233.131245
 21
155.145983
 31
0.0
  0
LINE
  5
556
330
530
100
AcDbEntity
  8
0
  6
CONTINUOUS
 62
     7
100
AcDbLine
 10
233.131245
 20
155.145983
 30
0.0
 11
233.097963
 21
155.14526
 31
0.0
  0
LINE
  5
557
330
530
100
AcDbEntity
  8
0
  6
CONTINUOUS
 62
     7
100
AcDbLine
 10
233.097963
 20
155.14526
 30
0.0
 11
233.064668
 21
155.14426
 31
0.0
  0
LINE
  5
558
330
530
100
AcDbEntity
  8
0
  6
CONTINUOUS
 62
     7
100
AcDbLine
 10
233.064668
 20
155.14426
 30
0.0
 11
233.031368
 21
155.142979
 31
0.0
  0
LINE
  5
559
330
530
100
AcDbEntity
  8
0
  6
CONTINUOUS
 62
     7
100
AcDbLine
 10
233.031368
 20
155.142979
 30
0.0
 11
232.998067
 21
155.141411
 31
0.0
  0
LINE
  5
55A
330
530
100
AcDbEntity
  8
0
  6
CONTINUOUS
 62
     7
100
AcDbLine
 10
232.998067
 20
155.141411
 30
0.0
 11
232.964771
 21
155.13955
 31
0.0
  0
LINE
  5
55B
330
530
100
AcDbEntity
  8
0
  6
CONTINUOUS
 62
     7
100
AcDbLine
 10
232.964771
 20
155.13955
 30
0.0
 11
232.931485
 21
155.137392
 31
0.0
  0
LINE
  5
55C
330
530
100
AcDbEntity
  8
0
  6
CONTINUOUS
 62
     7
100
AcDbLine
 10
232.931485
 20
155.137392
 30
0.0
 11
232.898216
 21
155.13493
 31
0.0
  0
LINE
  5
55D
330
530
100
AcDbEntity
  8
0
  6
CONTINUOUS
 62
     7
100
AcDbLine
 10
232.898216
 20
155.13493
 30
0.0
 11
232.864969
 21
155.132159
 31
0.0
  0
LINE
  5
55E
330
530
100
AcDbEntity
  8
0
  6
CONTINUOUS
 62
     7
100
AcDbLine
 10
232.864969
 20
155.132159
 30
0.0
 11
232.831749
 21
155.129074
 31
0.0
  0
LINE
  5
55F
330
530
100
AcDbEntity
  8
0
  6
CONTINUOUS
 62
     7
100
AcDbLine
 10
232.831749
 20
155.129074
 30
0.0
 11
232.798562
 21
155.12567
 31
0.0
  0
LINE
  5
560
330
530
100
AcDbEntity
  8
0
  6
CONTINUOUS
 62
     7
100
AcDbLine
 10
232.798562
 20
155.12567
 30
0.0
 11
232.781982
 21
155.123845
 31
0.0
  0
LINE
  5
561
330
530
100
AcDbEntity
  8
0
  6
CONTINUOUS
 62
     7
100
AcDbLine
 10
232.781982
 20
155.123845
 30
0.0
 11
232.765413
 21
155.121939
 31
0.0
  0
LINE
  5
562
330
530
100
AcDbEntity
  8
0
  6
CONTINUOUS
 62
     7
100
AcDbLine
 10
232.765413
 20
155.121939
 30
0.0
 11
232.748855
 21
155.11995
 31
0.0
  0
LINE
  5
563
330
530
100
AcDbEntity
  8
0
  6
CONTINUOUS
 62
     7
100
AcDbLine
 10
232.748855
 20
155.11995
 30
0.0
 11
232.732309
 21
155.117878
 31
0.0
  0
LINE
  5
564
330
530
100
AcDbEntity
  8
0
  6
CONTINUOUS
 62
     7
100
AcDbLine
 10
232.732309
 20
155.117878
 30
0.0
 11
232.715775
 21
155.115722
 31
0.0
  0
LINE
  5
565
330
530
100
AcDbEntity
  8
0
  6
CONTINUOUS
 62
     7
100
AcDbLine
 10
232.715775
 20
155.115722
 30
0.0
 11
232.699255
 21
155.113481
 31
0.0
  0
LINE
  5
566
330
530
100
AcDbEntity
  8
0
  6
CONTINUOUS
 62
     7
100
AcDbLine
 10
232.699255
 20
155.113481
 30
0.0
 11
232.682748
 21
155.111154
 31
0.0
  0
LINE
  5
567
330
530
100
AcDbEntity
  8
0
  6
CONTINUOUS
 62
     7
100
AcDbLine
 10
232.682748
 20
155.111154
 30
0.0
 11
232.666256
 21
155.108741
 31
0.0
  0
LINE
  5
568
330
530
100
AcDbEntity
  8
0
  6
CONTINUOUS
 62
     7
100
AcDbLine
 10
232.666256
 20
155.108741
 30
0.0
 11
232.649779
 21
155.106242
 31
0.0
  0
LINE
  5
569
330
530
100
AcDbEntity
  8
0
  6
CONTINUOUS
 62
     7
100
AcDbLine
 10
232.649779
 20
155.106242
 30
0.0
 11
232.633318
 21
155.103654
 31
0.0
  0
LINE
  5
56A
330
530
100
AcDbEntity
  8
0
  6
CONTINUOUS
 62
     7
100
AcDbLine
 10
232.633318
 20
155.103654
 30
0.0
 11
232.616873
 21
155.100979
 31
0.0
  0
LINE
  5
56B
330
530
100
AcDbEntity
  8
0
  6
CONTINUOUS
 62
     7
100
AcDbLine
 10
232.616873
 20
155.100979
 30
0.0
 11
232.600446
 21
155.098215
 31
0.0
  0
LINE
  5
56C
330
530
100
AcDbEntity
  8
0
  6
CONTINUOUS
 62
     7
100
AcDbLine
 10
232.600446
 20
155.098215
 30
0.0
 11
232.584037
 21
155.095361
 31
0.0
  0
LINE
  5
56D
330
530
100
AcDbEntity
  8
0
  6
CONTINUOUS
 62
     7
100
AcDbLine
 10
232.584037
 20
155.095361
 30
0.0
 11
232.567647
 21
155.092417
 31
0.0
  0
LINE
  5
56E
330
530
100
AcDbEntity
  8
0
  6
CONTINUOUS
 62
     7
100
AcDbLine
 10
232.567647
 20
155.092417
 30
0.0
 11
232.551276
 21
155.089382
 31
0.0
  0
LINE
  5
56F
330
530
100
AcDbEntity
  8
0
  6
CONTINUOUS
 62
     7
100
AcDbLine
 10
232.551276
 20
155.089382
 30
0.0
 11
232.534925
 21
155.086255
 31
0.0
  0
LINE
  5
570
330
530
100
AcDbEntity
  8
0
  6
CONTINUOUS
 62
     7
100
AcDbLine
 10
232.534925
 20
155.086255
 30
0.0
 11
232.518596
 21
155.083036
 31
0.0
  0
LINE
  5
571
330
530
100
AcDbEntity
  8
0
  6
CONTINUOUS
 62
     7
100
AcDbLine
 10
232.518596
 20
155.083036
 30
0.0
 11
232.502287
 21
155.079724
 31
0.0
  0
LINE
  5
572
330
530
100
AcDbEntity
  8
0
  6
CONTINUOUS
 62
     7
100
AcDbLine
 10
232.502287
 20
155.079724
 30
0.0
 11
232.486001
 21
155.076318
 31
0.0
  0
LINE
  5
573
330
530
100
AcDbEntity
  8
0
  6
CONTINUOUS
 62
     7
100
AcDbLine
 10
232.486001
 20
155.076318
 30
0.0
 11
232.469738
 21
155.072818
 31
0.0
  0
LINE
  5
574
330
530
100
AcDbEntity
  8
0
  6
CONTINUOUS
 62
     7
100
AcDbLine
 10
232.469738
 20
155.072818
 30
0.0
 11
232.453499
 21
155.069222
 31
0.0
  0
LINE
  5
575
330
530
100
AcDbEntity
  8
0
  6
CONTINUOUS
 62
     7
100
AcDbLine
 10
232.453499
 20
155.069222
 30
0.0
 11
232.437284
 21
155.065531
 31
0.0
  0
LINE
  5
576
330
530
100
AcDbEntity
  8
0
  6
CONTINUOUS
 62
     7
100
AcDbLine
 10
232.437284
 20
155.065531
 30
0.0
 11
232.421093
 21
155.061744
 31
0.0
  0
LINE
  5
577
330
530
100
AcDbEntity
  8
0
  6
CONTINUOUS
 62
     7
100
AcDbLine
 10
232.421093
 20
155.061744
 30
0.0
 11
232.404929
 21
155.057859
 31
0.0
  0
LINE
  5
578
330
530
100
AcDbEntity
  8
0
  6
CONTINUOUS
 62
     7
100
AcDbLine
 10
232.404929
 20
155.057859
 30
0.0
 11
232.388791
 21
155.053877
 31
0.0
  0
LINE
  5
579
330
530
100
AcDbEntity
  8
0
  6
CONTINUOUS
 62
     7
100
AcDbLine
 10
232.388791
 20
155.053877
 30
0.0
 11
232.372681
 21
155.049796
 31
0.0
  0
LINE
  5
57A
330
530
100
AcDbEntity
  8
0
  6
CONTINUOUS
 62
     7
100
AcDbLine
 10
232.372681
 20
155.049796
 30
0.0
 11
232.356598
 21
155.045615
 31
0.0
  0
LINE
  5
57B
330
530
100
AcDbEntity
  8
0
  6
CONTINUOUS
 62
     7
100
AcDbLine
 10
232.356598
 20
155.045615
 30
0.0
 11
232.340543
 21
155.041335
 31
0.0
  0
LINE
  5
57C
330
530
100
AcDbEntity
  8
0
  6
CONTINUOUS
 62
     7
100
AcDbLine
 10
232.340543
 20
155.041335
 30
0.0
 11
232.324518
 21
155.036954
 31
0.0
  0
LINE
  5
57D
330
530
100
AcDbEntity
  8
0
  6
CONTINUOUS
 62
     7
100
AcDbLine
 10
232.324518
 20
155.036954
 30
0.0
 11
232.308523
 21
155.032472
 31
0.0
  0
LINE
  5
57E
330
530
100
AcDbEntity
  8
0
  6
CONTINUOUS
 62
     7
100
AcDbLine
 10
232.308523
 20
155.032472
 30
0.0
 11
232.292558
 21
155.027888
 31
0.0
  0
LINE
  5
57F
330
530
100
AcDbEntity
  8
0
  6
CONTINUOUS
 62
     7
100
AcDbLine
 10
232.292558
 20
155.027888
 30
0.0
 11
232.276625
 21
155.023202
 31
0.0
  0
LINE
  5
580
330
530
100
AcDbEntity
  8
0
  6
CONTINUOUS
 62
     7
100
AcDbLine
 10
232.276625
 20
155.023202
 30
0.0
 11
232.260724
 21
155.018412
 31
0.0
  0
LINE
  5
581
330
530
100
AcDbEntity
  8
0
  6
CONTINUOUS
 62
     7
100
AcDbLine
 10
232.260724
 20
155.018412
 30
0.0
 11
232.244856
 21
155.013518
 31
0.0
  0
LINE
  5
582
330
530
100
AcDbEntity
  8
0
  6
CONTINUOUS
 62
     7
100
AcDbLine
 10
232.244856
 20
155.013518
 30
0.0
 11
232.229021
 21
155.008519
 31
0.0
  0
LINE
  5
583
330
530
100
AcDbEntity
  8
0
  6
CONTINUOUS
 62
     7
100
AcDbLine
 10
232.229021
 20
155.008519
 30
0.0
 11
232.21322
 21
155.003415
 31
0.0
  0
LINE
  5
584
330
530
100
AcDbEntity
  8
0
  6
CONTINUOUS
 62
     7
100
AcDbLine
 10
232.21322
 20
155.003415
 30
0.0
 11
232.197454
 21
154.998205
 31
0.0
  0
LINE
  5
585
330
530
100
AcDbEntity
  8
0
  6
CONTINUOUS
 62
     7
100
AcDbLine
 10
232.197454
 20
154.998205
 30
0.0
 11
232.181724
 21
154.992888
 31
0.0
  0
LINE
  5
586
330
530
100
AcDbEntity
  8
0
  6
CONTINUOUS
 62
     7
100
AcDbLine
 10
232.181724
 20
154.992888
 30
0.0
 11
232.166029
 21
154.987464
 31
0.0
  0
LINE
  5
587
330
530
100
AcDbEntity
  8
0
  6
CONTINUOUS
 62
     7
100
AcDbLine
 10
232.166029
 20
154.987464
 30
0.0
 11
232.150372
 21
154.981931
 31
0.0
  0
LINE
  5
588
330
530
100
AcDbEntity
  8
0
  6
CONTINUOUS
 62
     7
100
AcDbLine
 10
232.150372
 20
154.981931
 30
0.0
 11
232.134753
 21
154.97629
 31
0.0
  0
LINE
  5
589
330
530
100
AcDbEntity
  8
0
  6
CONTINUOUS
 62
     7
100
AcDbLine
 10
232.134753
 20
154.97629
 30
0.0
 11
232.119171
 21
154.970539
 31
0.0
  0
LINE
  5
58A
330
530
100
AcDbEntity
  8
0
  6
CONTINUOUS
 62
     7
100
AcDbLine
 10
232.119171
 20
154.970539
 30
0.0
 11
232.103629
 21
154.964678
 31
0.0
  0
LINE
  5
58B
330
530
100
AcDbEntity
  8
0
  6
CONTINUOUS
 62
     7
100
AcDbLine
 10
232.103629
 20
154.964678
 30
0.0
 11
232.088127
 21
154.958706
 31
0.0
  0
LINE
  5
58C
330
530
100
AcDbEntity
  8
0
  6
CONTINUOUS
 62
     7
100
AcDbLine
 10
232.088127
 20
154.958706
 30
0.0
 11
232.072768
 21
154.952663
 31
0.0
  0
LINE
  5
58D
330
530
100
AcDbEntity
  8
0
  6
CONTINUOUS
 62
     7
100
AcDbLine
 10
232.072768
 20
154.952663
 30
0.0
 11
232.057449
 21
154.946512
 31
0.0
  0
LINE
  5
58E
330
530
100
AcDbEntity
  8
0
  6
CONTINUOUS
 62
     7
100
AcDbLine
 10
232.057449
 20
154.946512
 30
0.0
 11
232.042172
 21
154.940251
 31
0.0
  0
LINE
  5
58F
330
530
100
AcDbEntity
  8
0
  6
CONTINUOUS
 62
     7
100
AcDbLine
 10
232.042172
 20
154.940251
 30
0.0
 11
232.026936
 21
154.933882
 31
0.0
  0
LINE
  5
590
330
530
100
AcDbEntity
  8
0
  6
CONTINUOUS
 62
     7
100
AcDbLine
 10
232.026936
 20
154.933882
 30
0.0
 11
232.011743
 21
154.927406
 31
0.0
  0
LINE
  5
591
330
530
100
AcDbEntity
  8
0
  6
CONTINUOUS
 62
     7
100
AcDbLine
 10
232.011743
 20
154.927406
 30
0.0
 11
231.996592
 21
154.920823
 31
0.0
  0
LINE
  5
592
330
530
100
AcDbEntity
  8
0
  6
CONTINUOUS
 62
     7
100
AcDbLine
 10
231.996592
 20
154.920823
 30
0.0
 11
231.981484
 21
154.914133
 31
0.0
  0
LINE
  5
593
330
530
100
AcDbEntity
  8
0
  6
CONTINUOUS
 62
     7
100
AcDbLine
 10
231.981484
 20
154.914133
 30
0.0
 11
231.966421
 21
154.907338
 31
0.0
  0
LINE
  5
594
330
530
100
AcDbEntity
  8
0
  6
CONTINUOUS
 62
     7
100
AcDbLine
 10
231.966421
 20
154.907338
 30
0.0
 11
231.951401
 21
154.900438
 31
0.0
  0
LINE
  5
595
330
530
100
AcDbEntity
  8
0
  6
CONTINUOUS
 62
     7
100
AcDbLine
 10
231.951401
 20
154.900438
 30
0.0
 11
231.936427
 21
154.893433
 31
0.0
  0
LINE
  5
596
330
530
100
AcDbEntity
  8
0
  6
CONTINUOUS
 62
     7
100
AcDbLine
 10
231.936427
 20
154.893433
 30
0.0
 11
231.921498
 21
154.886325
 31
0.0
  0
LINE
  5
597
330
530
100
AcDbEntity
  8
0
  6
CONTINUOUS
 62
     7
100
AcDbLine
 10
231.921498
 20
154.886325
 30
0.0
 11
231.906615
 21
154.879113
 31
0.0
  0
LINE
  5
598
330
530
100
AcDbEntity
  8
0
  6
CONTINUOUS
 62
     7
100
AcDbLine
 10
231.906615
 20
154.879113
 30
0.0
 11
231.891779
 21
154.871799
 31
0.0
  0
LINE
  5
599
330
530
100
AcDbEntity
  8
0
  6
CONTINUOUS
 62
     7
100
AcDbLine
 10
231.891779
 20
154.871799
 30
0.0
 11
231.876991
 21
154.864384
 31
0.0
  0
LINE
  5
59A
330
530
100
AcDbEntity
  8
0
  6
CONTINUOUS
 62
     7
100
AcDbLine
 10
231.876991
 20
154.864384
 30
0.0
 11
231.86225
 21
154.856867
 31
0.0
  0
LINE
  5
59B
330
530
100
AcDbEntity
  8
0
  6
CONTINUOUS
 62
     7
100
AcDbLine
 10
231.86225
 20
154.856867
 30
0.0
 11
231.847557
 21
154.849249
 31
0.0
  0
LINE
  5
59C
330
530
100
AcDbEntity
  8
0
  6
CONTINUOUS
 62
     7
100
AcDbLine
 10
231.847557
 20
154.849249
 30
0.0
 11
231.832913
 21
154.841531
 31
0.0
  0
LINE
  5
59D
330
530
100
AcDbEntity
  8
0
  6
CONTINUOUS
 62
     7
100
AcDbLine
 10
231.832913
 20
154.841531
 30
0.0
 11
231.818319
 21
154.833714
 31
0.0
  0
LINE
  5
59E
330
530
100
AcDbEntity
  8
0
  6
CONTINUOUS
 62
     7
100
AcDbLine
 10
231.818319
 20
154.833714
 30
0.0
 11
231.803775
 21
154.825799
 31
0.0
  0
LINE
  5
59F
330
530
100
AcDbEntity
  8
0
  6
CONTINUOUS
 62
     7
100
AcDbLine
 10
231.803775
 20
154.825799
 30
0.0
 11
231.789282
 21
154.817785
 31
0.0
  0
LINE
  5
5A0
330
530
100
AcDbEntity
  8
0
  6
CONTINUOUS
 62
     7
100
AcDbLine
 10
231.789282
 20
154.817785
 30
0.0
 11
231.774839
 21
154.809674
 31
0.0
  0
LINE
  5
5A1
330
530
100
AcDbEntity
  8
0
  6
CONTINUOUS
 62
     7
100
AcDbLine
 10
231.774839
 20
154.809674
 30
0.0
 11
231.760449
 21
154.801466
 31
0.0
  0
LINE
  5
5A2
330
530
100
AcDbEntity
  8
0
  6
CONTINUOUS
 62
     7
100
AcDbLine
 10
231.760449
 20
154.801466
 30
0.0
 11
231.746111
 21
154.793162
 31
0.0
  0
LINE
  5
5A3
330
530
100
AcDbEntity
  8
0
  6
CONTINUOUS
 62
     7
100
AcDbLine
 10
231.746111
 20
154.793162
 30
0.0
 11
231.731825
 21
154.784763
 31
0.0
  0
LINE
  5
5A4
330
530
100
AcDbEntity
  8
0
  6
CONTINUOUS
 62
     7
100
AcDbLine
 10
231.731825
 20
154.784763
 30
0.0
 11
231.717593
 21
154.776268
 31
0.0
  0
LINE
  5
5A5
330
530
100
AcDbEntity
  8
0
  6
CONTINUOUS
 62
     7
100
AcDbLine
 10
231.717593
 20
154.776268
 30
0.0
 11
231.703416
 21
154.767679
 31
0.0
  0
LINE
  5
5A6
330
530
100
AcDbEntity
  8
0
  6
CONTINUOUS
 62
     7
100
AcDbLine
 10
231.703416
 20
154.767679
 30
0.0
 11
231.689292
 21
154.758997
 31
0.0
  0
LINE
  5
5A7
330
530
100
AcDbEntity
  8
0
  6
CONTINUOUS
 62
     7
100
AcDbLine
 10
231.689292
 20
154.758997
 30
0.0
 11
231.675224
 21
154.750222
 31
0.0
  0
LINE
  5
5A8
330
530
100
AcDbEntity
  8
0
  6
CONTINUOUS
 62
     7
100
AcDbLine
 10
231.675224
 20
154.750222
 30
0.0
 11
231.661212
 21
154.741354
 31
0.0
  0
LINE
  5
5A9
330
530
100
AcDbEntity
  8
0
  6
CONTINUOUS
 62
     7
100
AcDbLine
 10
231.661212
 20
154.741354
 30
0.0
 11
231.647255
 21
154.732395
 31
0.0
  0
LINE
  5
5AA
330
530
100
AcDbEntity
  8
0
  6
CONTINUOUS
 62
     7
100
AcDbLine
 10
231.647255
 20
154.732395
 30
0.0
 11
231.633356
 21
154.723344
 31
0.0
  0
LINE
  5
5AB
330
530
100
AcDbEntity
  8
0
  6
CONTINUOUS
 62
     7
100
AcDbLine
 10
231.633356
 20
154.723344
 30
0.0
 11
231.619514
 21
154.714203
 31
0.0
  0
LINE
  5
5AC
330
530
100
AcDbEntity
  8
0
  6
CONTINUOUS
 62
     7
100
AcDbLine
 10
231.619514
 20
154.714203
 30
0.0
 11
231.60573
 21
154.704973
 31
0.0
  0
LINE
  5
5AD
330
530
100
AcDbEntity
  8
0
  6
CONTINUOUS
 62
     7
100
AcDbLine
 10
231.60573
 20
154.704973
 30
0.0
 11
231.592005
 21
154.695653
 31
0.0
  0
LINE
  5
5AE
330
530
100
AcDbEntity
  8
0
  6
CONTINUOUS
 62
     7
100
AcDbLine
 10
231.592005
 20
154.695653
 30
0.0
 11
231.578338
 21
154.686244
 31
0.0
  0
LINE
  5
5AF
330
530
100
AcDbEntity
  8
0
  6
CONTINUOUS
 62
     7
100
AcDbLine
 10
231.578338
 20
154.686244
 30
0.0
 11
231.564731
 21
154.676748
 31
0.0
  0
LINE
  5
5B0
330
530
100
AcDbEntity
  8
0
  6
CONTINUOUS
 62
     7
100
AcDbLine
 10
231.564731
 20
154.676748
 30
0.0
 11
231.551185
 21
154.667164
 31
0.0
  0
LINE
  5
5B1
330
530
100
AcDbEntity
  8
0
  6
CONTINUOUS
 62
     7
100
AcDbLine
 10
231.551185
 20
154.667164
 30
0.0
 11
231.537699
 21
154.657494
 31
0.0
  0
LINE
  5
5B2
330
530
100
AcDbEntity
  8
0
  6
CONTINUOUS
 62
     7
100
AcDbLine
 10
231.537699
 20
154.657494
 30
0.0
 11
231.524275
 21
154.647737
 31
0.0
  0
LINE
  5
5B3
330
530
100
AcDbEntity
  8
0
  6
CONTINUOUS
 62
     7
100
AcDbLine
 10
231.524275
 20
154.647737
 30
0.0
 11
231.510912
 21
154.637896
 31
0.0
  0
LINE
  5
5B4
330
530
100
AcDbEntity
  8
0
  6
CONTINUOUS
 62
     7
100
AcDbLine
 10
231.510912
 20
154.637896
 30
0.0
 11
231.497612
 21
154.627969
 31
0.0
  0
LINE
  5
5B5
330
530
100
AcDbEntity
  8
0
  6
CONTINUOUS
 62
     7
100
AcDbLine
 10
231.497612
 20
154.627969
 30
0.0
 11
231.484375
 21
154.617958
 31
0.0
  0
LINE
  5
5B6
330
530
100
AcDbEntity
  8
0
  6
CONTINUOUS
 62
     7
100
AcDbLine
 10
231.484375
 20
154.617958
 30
0.0
 11
231.471202
 21
154.607864
 31
0.0
  0
LINE
  5
5B7
330
530
100
AcDbEntity
  8
0
  6
CONTINUOUS
 62
     7
100
AcDbLine
 10
231.471202
 20
154.607864
 30
0.0
 11
231.458093
 21
154.597687
 31
0.0
  0
LINE
  5
5B8
330
530
100
AcDbEntity
  8
0
  6
CONTINUOUS
 62
     7
100
AcDbLine
 10
231.458093
 20
154.597687
 30
0.0
 11
231.445048
 21
154.587428
 31
0.0
  0
LINE
  5
5B9
330
530
100
AcDbEntity
  8
0
  6
CONTINUOUS
 62
     7
100
AcDbLine
 10
231.445048
 20
154.587428
 30
0.0
 11
231.432069
 21
154.577087
 31
0.0
  0
LINE
  5
5BA
330
530
100
AcDbEntity
  8
0
  6
CONTINUOUS
 62
     7
100
AcDbLine
 10
231.432069
 20
154.577087
 30
0.0
 11
231.419156
 21
154.566666
 31
0.0
  0
LINE
  5
5BB
330
530
100
AcDbEntity
  8
0
  6
CONTINUOUS
 62
     7
100
AcDbLine
 10
231.419156
 20
154.566666
 30
0.0
 11
231.406309
 21
154.556164
 31
0.0
  0
LINE
  5
5BC
330
530
100
AcDbEntity
  8
0
  6
CONTINUOUS
 62
     7
100
AcDbLine
 10
231.406309
 20
154.556164
 30
0.0
 11
231.393529
 21
154.545582
 31
0.0
  0
LINE
  5
5BD
330
530
100
AcDbEntity
  8
0
  6
CONTINUOUS
 62
     7
100
AcDbLine
 10
231.393529
 20
154.545582
 30
0.0
 11
231.380817
 21
154.534921
 31
0.0
  0
LINE
  5
5BE
330
530
100
AcDbEntity
  8
0
  6
CONTINUOUS
 62
     7
100
AcDbLine
 10
231.380817
 20
154.534921
 30
0.0
 11
231.368173
 21
154.524182
 31
0.0
  0
LINE
  5
5BF
330
530
100
AcDbEntity
  8
0
  6
CONTINUOUS
 62
     7
100
AcDbLine
 10
231.368173
 20
154.524182
 30
0.0
 11
231.355597
 21
154.513365
 31
0.0
  0
LINE
  5
5C0
330
530
100
AcDbEntity
  8
0
  6
CONTINUOUS
 62
     7
100
AcDbLine
 10
231.355597
 20
154.513365
 30
0.0
 11
231.343091
 21
154.502471
 31
0.0
  0
LINE
  5
5C1
330
530
100
AcDbEntity
  8
0
  6
CONTINUOUS
 62
     7
100
AcDbLine
 10
231.343091
 20
154.502471
 30
0.0
 11
231.330655
 21
154.4915
 31
0.0
  0
LINE
  5
5C2
330
530
100
AcDbEntity
  8
0
  6
CONTINUOUS
 62
     7
100
AcDbLine
 10
231.330655
 20
154.4915
 30
0.0
 11
231.318289
 21
154.480453
 31
0.0
  0
LINE
  5
5C3
330
530
100
AcDbEntity
  8
0
  6
CONTINUOUS
 62
     7
100
AcDbLine
 10
231.318289
 20
154.480453
 30
0.0
 11
231.305994
 21
154.469332
 31
0.0
  0
LINE
  5
5C4
330
530
100
AcDbEntity
  8
0
  6
CONTINUOUS
 62
     7
100
AcDbLine
 10
231.305994
 20
154.469332
 30
0.0
 11
231.29377
 21
154.458135
 31
0.0
  0
LINE
  5
5C5
330
530
100
AcDbEntity
  8
0
  6
CONTINUOUS
 62
     7
100
AcDbLine
 10
231.29377
 20
154.458135
 30
0.0
 11
231.281618
 21
154.446865
 31
0.0
  0
LINE
  5
5C6
330
530
100
AcDbEntity
  8
0
  6
CONTINUOUS
 62
     7
100
AcDbLine
 10
231.281618
 20
154.446865
 30
0.0
 11
231.26954
 21
154.435521
 31
0.0
  0
LINE
  5
5C7
330
530
100
AcDbEntity
  8
0
  6
CONTINUOUS
 62
     7
100
AcDbLine
 10
231.26954
 20
154.435521
 30
0.0
 11
231.257534
 21
154.424105
 31
0.0
  0
LINE
  5
5C8
330
530
100
AcDbEntity
  8
0
  6
CONTINUOUS
 62
     7
100
AcDbLine
 10
231.257534
 20
154.424105
 30
0.0
 11
231.245602
 21
154.412616
 31
0.0
  0
LINE
  5
5C9
330
530
100
AcDbEntity
  8
0
  6
CONTINUOUS
 62
     7
100
AcDbLine
 10
231.245602
 20
154.412616
 30
0.0
 11
231.233744
 21
154.401056
 31
0.0
  0
LINE
  5
5CA
330
530
100
AcDbEntity
  8
0
  6
CONTINUOUS
 62
     7
100
AcDbLine
 10
231.233744
 20
154.401056
 30
0.0
 11
231.221962
 21
154.389425
 31
0.0
  0
LINE
  5
5CB
330
530
100
AcDbEntity
  8
0
  6
CONTINUOUS
 62
     7
100
AcDbLine
 10
231.221962
 20
154.389425
 30
0.0
 11
231.210254
 21
154.377724
 31
0.0
  0
LINE
  5
5CC
330
530
100
AcDbEntity
  8
0
  6
CONTINUOUS
 62
     7
100
AcDbLine
 10
231.210254
 20
154.377724
 30
0.0
 11
231.196125
 21
154.363407
 31
0.0
  0
LINE
  5
5CD
330
530
100
AcDbEntity
  8
0
  6
CONTINUOUS
 62
     7
100
AcDbLine
 10
231.196125
 20
154.363407
 30
0.0
 11
231.182108
 21
154.348988
 31
0.0
  0
LINE
  5
5CE
330
530
100
AcDbEntity
  8
0
  6
CONTINUOUS
 62
     7
100
AcDbLine
 10
231.182108
 20
154.348988
 30
0.0
 11
231.168202
 21
154.334469
 31
0.0
  0
LINE
  5
5CF
330
530
100
AcDbEntity
  8
0
  6
CONTINUOUS
 62
     7
100
AcDbLine
 10
231.168202
 20
154.334469
 30
0.0
 11
231.154406
 21
154.319851
 31
0.0
  0
LINE
  5
5D0
330
530
100
AcDbEntity
  8
0
  6
CONTINUOUS
 62
     7
100
AcDbLine
 10
231.154406
 20
154.319851
 30
0.0
 11
231.140721
 21
154.305136
 31
0.0
  0
LINE
  5
5D1
330
530
100
AcDbEntity
  8
0
  6
CONTINUOUS
 62
     7
100
AcDbLine
 10
231.140721
 20
154.305136
 30
0.0
 11
231.127145
 21
154.290323
 31
0.0
  0
LINE
  5
5D2
330
530
100
AcDbEntity
  8
0
  6
CONTINUOUS
 62
     7
100
AcDbLine
 10
231.127145
 20
154.290323
 30
0.0
 11
231.113678
 21
154.275416
 31
0.0
  0
LINE
  5
5D3
330
530
100
AcDbEntity
  8
0
  6
CONTINUOUS
 62
     7
100
AcDbLine
 10
231.113678
 20
154.275416
 30
0.0
 11
231.100319
 21
154.260414
 31
0.0
  0
LINE
  5
5D4
330
530
100
AcDbEntity
  8
0
  6
CONTINUOUS
 62
     7
100
AcDbLine
 10
231.100319
 20
154.260414
 30
0.0
 11
231.087067
 21
154.245319
 31
0.0
  0
LINE
  5
5D5
330
530
100
AcDbEntity
  8
0
  6
CONTINUOUS
 62
     7
100
AcDbLine
 10
231.087067
 20
154.245319
 30
0.0
 11
231.073923
 21
154.230133
 31
0.0
  0
LINE
  5
5D6
330
530
100
AcDbEntity
  8
0
  6
CONTINUOUS
 62
     7
100
AcDbLine
 10
231.073923
 20
154.230133
 30
0.0
 11
231.060885
 21
154.214857
 31
0.0
  0
LINE
  5
5D7
330
530
100
AcDbEntity
  8
0
  6
CONTINUOUS
 62
     7
100
AcDbLine
 10
231.060885
 20
154.214857
 30
0.0
 11
231.047953
 21
154.199491
 31
0.0
  0
LINE
  5
5D8
330
530
100
AcDbEntity
  8
0
  6
CONTINUOUS
 62
     7
100
AcDbLine
 10
231.047953
 20
154.199491
 30
0.0
 11
231.035127
 21
154.184038
 31
0.0
  0
LINE
  5
5D9
330
530
100
AcDbEntity
  8
0
  6
CONTINUOUS
 62
     7
100
AcDbLine
 10
231.035127
 20
154.184038
 30
0.0
 11
231.022405
 21
154.168498
 31
0.0
  0
LINE
  5
5DA
330
530
100
AcDbEntity
  8
0
  6
CONTINUOUS
 62
     7
100
AcDbLine
 10
231.022405
 20
154.168498
 30
0.0
 11
231.009788
 21
154.152873
 31
0.0
  0
LINE
  5
5DB
330
530
100
AcDbEntity
  8
0
  6
CONTINUOUS
 62
     7
100
AcDbLine
 10
231.009788
 20
154.152873
 30
0.0
 11
230.997274
 21
154.137164
 31
0.0
  0
LINE
  5
5DC
330
530
100
AcDbEntity
  8
0
  6
CONTINUOUS
 62
     7
100
AcDbLine
 10
230.997274
 20
154.137164
 30
0.0
 11
230.984863
 21
154.121372
 31
0.0
  0
LINE
  5
5DD
330
530
100
AcDbEntity
  8
0
  6
CONTINUOUS
 62
     7
100
AcDbLine
 10
230.984863
 20
154.121372
 30
0.0
 11
230.972554
 21
154.105498
 31
0.0
  0
LINE
  5
5DE
330
530
100
AcDbEntity
  8
0
  6
CONTINUOUS
 62
     7
100
AcDbLine
 10
230.972554
 20
154.105498
 30
0.0
 11
230.960347
 21
154.089544
 31
0.0
  0
LINE
  5
5DF
330
530
100
AcDbEntity
  8
0
  6
CONTINUOUS
 62
     7
100
AcDbLine
 10
230.960347
 20
154.089544
 30
0.0
 11
230.948242
 21
154.073511
 31
0.0
  0
LINE
  5
5E0
330
530
100
AcDbEntity
  8
0
  6
CONTINUOUS
 62
     7
100
AcDbLine
 10
230.948242
 20
154.073511
 30
0.0
 11
230.936237
 21
154.0574
 31
0.0
  0
LINE
  5
5E1
330
530
100
AcDbEntity
  8
0
  6
CONTINUOUS
 62
     7
100
AcDbLine
 10
230.936237
 20
154.0574
 30
0.0
 11
230.924332
 21
154.041212
 31
0.0
  0
LINE
  5
5E2
330
530
100
AcDbEntity
  8
0
  6
CONTINUOUS
 62
     7
100
AcDbLine
 10
230.924332
 20
154.041212
 30
0.0
 11
230.912527
 21
154.024949
 31
0.0
  0
LINE
  5
5E3
330
530
100
AcDbEntity
  8
0
  6
CONTINUOUS
 62
     7
100
AcDbLine
 10
230.912527
 20
154.024949
 30
0.0
 11
230.900821
 21
154.008612
 31
0.0
  0
LINE
  5
5E4
330
530
100
AcDbEntity
  8
0
  6
CONTINUOUS
 62
     7
100
AcDbLine
 10
230.900821
 20
154.008612
 30
0.0
 11
230.889213
 21
153.992202
 31
0.0
  0
LINE
  5
5E5
330
530
100
AcDbEntity
  8
0
  6
CONTINUOUS
 62
     7
100
AcDbLine
 10
230.889213
 20
153.992202
 30
0.0
 11
230.877702
 21
153.97572
 31
0.0
  0
LINE
  5
5E6
330
530
100
AcDbEntity
  8
0
  6
CONTINUOUS
 62
     7
100
AcDbLine
 10
230.877702
 20
153.97572
 30
0.0
 11
230.866289
 21
153.959168
 31
0.0
  0
LINE
  5
5E7
330
530
100
AcDbEntity
  8
0
  6
CONTINUOUS
 62
     7
100
AcDbLine
 10
230.866289
 20
153.959168
 30
0.0
 11
230.854973
 21
153.942547
 31
0.0
  0
LINE
  5
5E8
330
530
100
AcDbEntity
  8
0
  6
CONTINUOUS
 62
     7
100
AcDbLine
 10
230.854973
 20
153.942547
 30
0.0
 11
230.843752
 21
153.925858
 31
0.0
  0
LINE
  5
5E9
330
530
100
AcDbEntity
  8
0
  6
CONTINUOUS
 62
     7
100
AcDbLine
 10
230.843752
 20
153.925858
 30
0.0
 11
230.832627
 21
153.909102
 31
0.0
  0
LINE
  5
5EA
330
530
100
AcDbEntity
  8
0
  6
CONTINUOUS
 62
     7
100
AcDbLine
 10
230.832627
 20
153.909102
 30
0.0
 11
230.821597
 21
153.892281
 31
0.0
  0
LINE
  5
5EB
330
530
100
AcDbEntity
  8
0
  6
CONTINUOUS
 62
     7
100
AcDbLine
 10
230.821597
 20
153.892281
 30
0.0
 11
230.810661
 21
153.875395
 31
0.0
  0
LINE
  5
5EC
330
530
100
AcDbEntity
  8
0
  6
CONTINUOUS
 62
     7
100
AcDbLine
 10
230.810661
 20
153.875395
 30
0.0
 11
230.799819
 21
153.858447
 31
0.0
  0
LINE
  5
5ED
330
530
100
AcDbEntity
  8
0
  6
CONTINUOUS
 62
     7
100
AcDbLine
 10
230.799819
 20
153.858447
 30
0.0
 11
230.789069
 21
153.841437
 31
0.0
  0
LINE
  5
5EE
330
530
100
AcDbEntity
  8
0
  6
CONTINUOUS
 62
     7
100
AcDbLine
 10
230.789069
 20
153.841437
 30
0.0
 11
230.778412
 21
153.824367
 31
0.0
  0
LINE
  5
5EF
330
530
100
AcDbEntity
  8
0
  6
CONTINUOUS
 62
     7
100
AcDbLine
 10
230.778412
 20
153.824367
 30
0.0
 11
230.767848
 21
153.807237
 31
0.0
  0
LINE
  5
5F0
330
530
100
AcDbEntity
  8
0
  6
CONTINUOUS
 62
     7
100
AcDbLine
 10
230.767848
 20
153.807237
 30
0.0
 11
230.757374
 21
153.79005
 31
0.0
  0
LINE
  5
5F1
330
530
100
AcDbEntity
  8
0
  6
CONTINUOUS
 62
     7
100
AcDbLine
 10
230.757374
 20
153.79005
 30
0.0
 11
230.746991
 21
153.772806
 31
0.0
  0
LINE
  5
5F2
330
530
100
AcDbEntity
  8
0
  6
CONTINUOUS
 62
     7
100
AcDbLine
 10
230.746991
 20
153.772806
 30
0.0
 11
230.736699
 21
153.755506
 31
0.0
  0
LINE
  5
5F3
330
530
100
AcDbEntity
  8
0
  6
CONTINUOUS
 62
     7
100
AcDbLine
 10
230.736699
 20
153.755506
 30
0.0
 11
230.726496
 21
153.738152
 31
0.0
  0
LINE
  5
5F4
330
530
100
AcDbEntity
  8
0
  6
CONTINUOUS
 62
     7
100
AcDbLine
 10
230.726496
 20
153.738152
 30
0.0
 11
230.716382
 21
153.720746
 31
0.0
  0
LINE
  5
5F5
330
530
100
AcDbEntity
  8
0
  6
CONTINUOUS
 62
     7
100
AcDbLine
 10
230.716382
 20
153.720746
 30
0.0
 11
230.706356
 21
153.703287
 31
0.0
  0
LINE
  5
5F6
330
530
100
AcDbEntity
  8
0
  6
CONTINUOUS
 62
     7
100
AcDbLine
 10
230.706356
 20
153.703287
 30
0.0
 11
230.696418
 21
153.685778
 31
0.0
  0
LINE
  5
5F7
330
530
100
AcDbEntity
  8
0
  6
CONTINUOUS
 62
     7
100
AcDbLine
 10
230.696418
 20
153.685778
 30
0.0
 11
230.686568
 21
153.66822
 31
0.0
  0
LINE
  5
5F8
330
530
100
AcDbEntity
  8
0
  6
CONTINUOUS
 62
     7
100
AcDbLine
 10
230.686568
 20
153.66822
 30
0.0
 11
230.676804
 21
153.650614
 31
0.0
  0
LINE
  5
5F9
330
530
100
AcDbEntity
  8
0
  6
CONTINUOUS
 62
     7
100
AcDbLine
 10
230.676804
 20
153.650614
 30
0.0
 11
230.667126
 21
153.632961
 31
0.0
  0
LINE
  5
5FA
330
530
100
AcDbEntity
  8
0
  6
CONTINUOUS
 62
     7
100
AcDbLine
 10
230.667126
 20
153.632961
 30
0.0
 11
230.657533
 21
153.615263
 31
0.0
  0
LINE
  5
5FB
330
530
100
AcDbEntity
  8
0
  6
CONTINUOUS
 62
     7
100
AcDbLine
 10
230.657533
 20
153.615263
 30
0.0
 11
230.648026
 21
153.59752
 31
0.0
  0
LINE
  5
5FC
330
530
100
AcDbEntity
  8
0
  6
CONTINUOUS
 62
     7
100
AcDbLine
 10
230.648026
 20
153.59752
 30
0.0
 11
230.638603
 21
153.579735
 31
0.0
  0
LINE
  5
5FD
330
530
100
AcDbEntity
  8
0
  6
CONTINUOUS
 62
     7
100
AcDbLine
 10
230.638603
 20
153.579735
 30
0.0
 11
230.629264
 21
153.561908
 31
0.0
  0
LINE
  5
5FE
330
530
100
AcDbEntity
  8
0
  6
CONTINUOUS
 62
     7
100
AcDbLine
 10
230.629264
 20
153.561908
 30
0.0
 11
230.620007
 21
153.54404
 31
0.0
  0
LINE
  5
5FF
330
530
100
AcDbEntity
  8
0
  6
CONTINUOUS
 62
     7
100
AcDbLine
 10
230.620007
 20
153.54404
 30
0.0
 11
230.610834
 21
153.526133
 31
0.0
  0
LINE
  5
600
330
530
100
AcDbEntity
  8
0
  6
CONTINUOUS
 62
     7
100
AcDbLine
 10
230.610834
 20
153.526133
 30
0.0
 11
230.601742
 21
153.508188
 31
0.0
  0
LINE
  5
601
330
530
100
AcDbEntity
  8
0
  6
CONTINUOUS
 62
     7
100
AcDbLine
 10
230.601742
 20
153.508188
 30
0.0
 11
230.592732
 21
153.490206
 31
0.0
  0
LINE
  5
602
330
530
100
AcDbEntity
  8
0
  6
CONTINUOUS
 62
     7
100
AcDbLine
 10
230.592732
 20
153.490206
 30
0.0
 11
230.583803
 21
153.472189
 31
0.0
  0
LINE
  5
603
330
530
100
AcDbEntity
  8
0
  6
CONTINUOUS
 62
     7
100
AcDbLine
 10
230.583803
 20
153.472189
 30
0.0
 11
230.574954
 21
153.454137
 31
0.0
  0
LINE
  5
604
330
530
100
AcDbEntity
  8
0
  6
CONTINUOUS
 62
     7
100
AcDbLine
 10
230.574954
 20
153.454137
 30
0.0
 11
230.566184
 21
153.436053
 31
0.0
  0
LINE
  5
605
330
530
100
AcDbEntity
  8
0
  6
CONTINUOUS
 62
     7
100
AcDbLine
 10
230.566184
 20
153.436053
 30
0.0
 11
230.557494
 21
153.417936
 31
0.0
  0
LINE
  5
606
330
530
100
AcDbEntity
  8
0
  6
CONTINUOUS
 62
     7
100
AcDbLine
 10
230.557494
 20
153.417936
 30
0.0
 11
230.548882
 21
153.399789
 31
0.0
  0
LINE
  5
607
330
530
100
AcDbEntity
  8
0
  6
CONTINUOUS
 62
     7
100
AcDbLine
 10
230.548882
 20
153.399789
 30
0.0
 11
230.540348
 21
153.381613
 31
0.0
  0
LINE
  5
608
330
530
100
AcDbEntity
  8
0
  6
CONTINUOUS
 62
     7
100
AcDbLine
 10
230.540348
 20
153.381613
 30
0.0
 11
230.531891
 21
153.363409
 31
0.0
  0
LINE
  5
609
330
530
100
AcDbEntity
  8
0
  6
CONTINUOUS
 62
     7
100
AcDbLine
 10
230.531891
 20
153.363409
 30
0.0
 11
230.523511
 21
153.345178
 31
0.0
  0
LINE
  5
60A
330
530
100
AcDbEntity
  8
0
  6
CONTINUOUS
 62
     7
100
AcDbLine
 10
230.523511
 20
153.345178
 30
0.0
 11
230.515207
 21
153.326921
 31
0.0
  0
LINE
  5
60B
330
530
100
AcDbEntity
  8
0
  6
CONTINUOUS
 62
     7
100
AcDbLine
 10
230.515207
 20
153.326921
 30
0.0
 11
230.506979
 21
153.308641
 31
0.0
  0
LINE
  5
60C
330
530
100
AcDbEntity
  8
0
  6
CONTINUOUS
 62
     7
100
AcDbLine
 10
230.506979
 20
153.308641
 30
0.0
 11
230.498634
 21
153.289905
 31
0.0
  0
LINE
  5
60D
330
530
100
AcDbEntity
  8
0
  6
CONTINUOUS
 62
     7
100
AcDbLine
 10
230.498634
 20
153.289905
 30
0.0
 11
230.490362
 21
153.271146
 31
0.0
  0
LINE
  5
60E
330
530
100
AcDbEntity
  8
0
  6
CONTINUOUS
 62
     7
100
AcDbLine
 10
230.490362
 20
153.271146
 30
0.0
 11
230.474021
 21
153.233568
 31
0.0
  0
LINE
  5
60F
330
530
100
AcDbEntity
  8
0
  6
CONTINUOUS
 62
     7
100
AcDbLine
 10
230.474021
 20
153.233568
 30
0.0
 11
230.457914
 21
153.195917
 31
0.0
  0
LINE
  5
610
330
530
100
AcDbEntity
  8
0
  6
CONTINUOUS
 62
     7
100
AcDbLine
 10
230.457914
 20
153.195917
 30
0.0
 11
230.442005
 21
153.158205
 31
0.0
  0
LINE
  5
611
330
530
100
AcDbEntity
  8
0
  6
CONTINUOUS
 62
     7
100
AcDbLine
 10
230.442005
 20
153.158205
 30
0.0
 11
230.426252
 21
153.120445
 31
0.0
  0
LINE
  5
612
330
530
100
AcDbEntity
  8
0
  6
CONTINUOUS
 62
     7
100
AcDbLine
 10
230.426252
 20
153.120445
 30
0.0
 11
230.410617
 21
153.082649
 31
0.0
  0
LINE
  5
613
330
530
100
AcDbEntity
  8
0
  6
CONTINUOUS
 62
     7
100
AcDbLine
 10
230.410617
 20
153.082649
 30
0.0
 11
230.395061
 21
153.044829
 31
0.0
  0
LINE
  5
614
330
530
100
AcDbEntity
  8
0
  6
CONTINUOUS
 62
     7
100
AcDbLine
 10
230.395061
 20
153.044829
 30
0.0
 11
230.379544
 21
153.006996
 31
0.0
  0
ENDBLK
  5
532
330
530
100
AcDbEntity
  8
0
100
AcDbBlockEnd
  0
BLOCK
  5
616
330
615
100
AcDbEntity
  8
0
100
AcDbBlockBegin
  2
BLKF041
 70
     0
 71
     0
 10
0.0
 20
0.0
 30
0.0
  3
BLKF041
  1

  0
LINE
  5
619
330
615
100
AcDbEntity
  8
0
  6
CONTINUOUS
 62
     7
100
AcDbLine
 10
230.379544
 20
153.006996
 30
0.0
 11
230.294422
 21
152.957867
 31
0.0
  0
LINE
  5
61A
330
615
100
AcDbEntity
  8
0
  6
CONTINUOUS
 62
     7
100
AcDbLine
 10
230.294422
 20
152.957867
 30
0.0
 11
230.212674
 21
152.91066
 31
0.0
  0
LINE
  5
61B
330
615
100
AcDbEntity
  8
0
  6
CONTINUOUS
 62
     7
100
AcDbLine
 10
230.212674
 20
152.91066
 30
0.0
 11
230.134368
 21
152.86545
 31
0.0
  0
LINE
  5
61C
330
615
100
AcDbEntity
  8
0
  6
CONTINUOUS
 62
     7
100
AcDbLine
 10
230.134368
 20
152.86545
 30
0.0
 11
230.059549
 21
152.822252
 31
0.0
  0
LINE
  5
61D
330
615
100
AcDbEntity
  8
0
  6
CONTINUOUS
 62
     7
100
AcDbLine
 10
230.059549
 20
152.822252
 30
0.0
 11
229.988292
 21
152.78111
 31
0.0
  0
LINE
  5
61E
330
615
100
AcDbEntity
  8
0
  6
CONTINUOUS
 62
     7
100
AcDbLine
 10
229.988292
 20
152.78111
 30
0.0
 11
229.920648
 21
152.742054
 31
0.0
  0
LINE
  5
61F
330
615
100
AcDbEntity
  8
0
  6
CONTINUOUS
 62
     7
100
AcDbLine
 10
229.920648
 20
152.742054
 30
0.0
 11
229.85667
 21
152.705129
 31
0.0
  0
LINE
  5
620
330
615
100
AcDbEntity
  8
0
  6
CONTINUOUS
 62
     7
100
AcDbLine
 10
229.85667
 20
152.705129
 30
0.0
 11
229.79641
 21
152.670334
 31
0.0
  0
ENDBLK
  5
617
330
615
100
AcDbEntity
  8
0
100
AcDbBlockEnd
  0
BLOCK
  5
624
330
623
100
AcDbEntity
  8
0
100
AcDbBlockBegin
  2
BLKF042
 70
     0
 71
     0
 10
0.0
 20
0.0
 30
0.0
  3
BLKF042
  1

  0
LINE
  5
627
330
623
100
AcDbEntity
  8
0
  6
CONTINUOUS
 62
     7
100
AcDbLine
 10
231.528461
 20
155.670326
 30
0.0
 11
230.597012
 21
155.132558
 31
0.0
  0
LINE
  5
628
330
623
100
AcDbEntity
  8
0
  6
CONTINUOUS
 62
     7
100
AcDbLine
 10
230.597012
 20
155.132558
 30
0.0
 11
229.895212
 21
154.72738
 31
0.0
  0
LINE
  5
629
330
623
100
AcDbEntity
  8
0
  6
CONTINUOUS
 62
     7
100
AcDbLine
 10
229.895212
 20
154.72738
 30
0.0
 11
229.475118
 21
154.484834
 31
0.0
  0
LINE
  5
62A
330
623
100
AcDbEntity
  8
0
  6
CONTINUOUS
 62
     7
100
AcDbLine
 10
229.475118
 20
154.484834
 30
0.0
 11
229.363397
 21
154.420327
 31
0.0
  0
ENDBLK
  5
625
330
623
100
AcDbEntity
  8
0
100
AcDbBlockEnd
  0
BLOCK
  5
62C
330
62B
100
AcDbEntity
  8
0
100
AcDbBlockBegin
  2
BLKF043
 70
     0
 71
     0
 10
0.0
 20
0.0
 30
0.0
  3
BLKF043
  1

  0
LINE
  5
62F
330
62B
100
AcDbEntity
  8
0
  6
CONTINUOUS
 62
     7
100
AcDbLine
 10
238.023654
 20
159.420337
 30
0.0
 11
237.952039
 21
159.378986
 31
0.0
  0
LINE
  5
630
330
62B
100
AcDbEntity
  8
0
  6
CONTINUOUS
 62
     7
100
AcDbLine
 10
237.952039
 20
159.378986
 30
0.0
 11
237.582535
 21
159.165646
 31
0.0
  0
LINE
  5
631
330
62B
100
AcDbEntity
  8
0
  6
CONTINUOUS
 62
     7
100
AcDbLine
 10
237.582535
 20
159.165646
 30
0.0
 11
236.924596
 21
158.785786
 31
0.0
  0
LINE
  5
632
330
62B
100
AcDbEntity
  8
0
  6
CONTINUOUS
 62
     7
100
AcDbLine
 10
236.924596
 20
158.785786
 30
0.0
 11
236.027025
 21
158.267583
 31
0.0
  0
LINE
  5
633
330
62B
100
AcDbEntity
  8
0
  6
CONTINUOUS
 62
     7
100
AcDbLine
 10
236.027025
 20
158.267583
 30
0.0
 11
234.956391
 21
157.649453
 31
0.0
  0
LINE
  5
634
330
62B
100
AcDbEntity
  8
0
  6
CONTINUOUS
 62
     7
100
AcDbLine
 10
234.956391
 20
157.649453
 30
0.0
 11
233.792089
 21
156.977247
 31
0.0
  0
LINE
  5
635
330
62B
100
AcDbEntity
  8
0
  6
CONTINUOUS
 62
     7
100
AcDbLine
 10
233.792089
 20
156.977247
 30
0.0
 11
232.620485
 21
156.300809
 31
0.0
  0
LINE
  5
636
330
62B
100
AcDbEntity
  8
0
  6
CONTINUOUS
 62
     7
100
AcDbLine
 10
232.620485
 20
156.300809
 30
0.0
 11
231.528461
 21
155.670326
 31
0.0
  0
ENDBLK
  5
62D
330
62B
100
AcDbEntity
  8
0
100
AcDbBlockEnd
  0
BLOCK
  5
63E
330
63D
100
AcDbEntity
  8
0
100
AcDbBlockBegin
  2
BLKF044
 70
     0
 71
     0
 10
0.0
 20
0.0
 30
0.0
  3
BLKF044
  1

  0
LINE
  5
641
330
63D
100
AcDbEntity
  8
0
  6
CONTINUOUS
 62
     7
100
AcDbLine
 10
236.47666
 20
153.446491
 30
0.0
 11
236.331277
 21
153.362553
 31
0.0
  0
LINE
  5
642
330
63D
100
AcDbEntity
  8
0
  6
CONTINUOUS
 62
     7
100
AcDbLine
 10
236.331277
 20
153.362553
 30
0.0
 11
236.185551
 21
153.278421
 31
0.0
  0
LINE
  5
643
330
63D
100
AcDbEntity
  8
0
  6
CONTINUOUS
 62
     7
100
AcDbLine
 10
236.185551
 20
153.278421
 30
0.0
 11
236.039594
 21
153.194155
 31
0.0
  0
LINE
  5
644
330
63D
100
AcDbEntity
  8
0
  6
CONTINUOUS
 62
     7
100
AcDbLine
 10
236.039594
 20
153.194155
 30
0.0
 11
235.893525
 21
153.109814
 31
0.0
  0
LINE
  5
645
330
63D
100
AcDbEntity
  8
0
  6
CONTINUOUS
 62
     7
100
AcDbLine
 10
235.893525
 20
153.109814
 30
0.0
 11
235.747457
 21
153.025489
 31
0.0
  0
LINE
  5
646
330
63D
100
AcDbEntity
  8
0
  6
CONTINUOUS
 62
     7
100
AcDbLine
 10
235.747457
 20
153.025489
 30
0.0
 11
235.6015
 21
152.941223
 31
0.0
  0
LINE
  5
647
330
63D
100
AcDbEntity
  8
0
  6
CONTINUOUS
 62
     7
100
AcDbLine
 10
235.6015
 20
152.941223
 30
0.0
 11
235.455774
 21
152.857076
 31
0.0
  0
LINE
  5
648
330
63D
100
AcDbEntity
  8
0
  6
CONTINUOUS
 62
     7
100
AcDbLine
 10
235.455774
 20
152.857076
 30
0.0
 11
235.310391
 21
152.773152
 31
0.0
  0
ENDBLK
  5
63F
330
63D
100
AcDbEntity
  8
0
100
AcDbBlockEnd
  0
BLOCK
  5
64A
330
649
100
AcDbEntity
  8
0
100
AcDbBlockBegin
  2
BLKF045
 70
     0
 71
     0
 10
0.0
 20
0.0
 30
0.0
  3
BLKF045
  1

  0
LINE
  5
64D
330
649
100
AcDbEntity
  8
0
  6
CONTINUOUS
 62
     7
100
AcDbLine
 10
236.723535
 20
153.473552
 30
0.0
 11
236.529537
 21
153.361555
 31
0.0
  0
LINE
  5
64E
330
649
100
AcDbEntity
  8
0
  6
CONTINUOUS
 62
     7
100
AcDbLine
 10
236.529537
 20
153.361555
 30
0.0
 11
236.334674
 21
153.249051
 31
0.0
  0
LINE
  5
64F
330
649
100
AcDbEntity
  8
0
  6
CONTINUOUS
 62
     7
100
AcDbLine
 10
236.334674
 20
153.249051
 30
0.0
 11
236.139246
 21
153.136219
 31
0.0
  0
LINE
  5
650
330
649
100
AcDbEntity
  8
0
  6
CONTINUOUS
 62
     7
100
AcDbLine
 10
236.139246
 20
153.136219
 30
0.0
 11
235.943526
 21
153.023224
 31
0.0
  0
LINE
  5
651
330
649
100
AcDbEntity
  8
0
  6
CONTINUOUS
 62
     7
100
AcDbLine
 10
235.943526
 20
153.023224
 30
0.0
 11
235.747807
 21
152.910213
 31
0.0
  0
LINE
  5
652
330
649
100
AcDbEntity
  8
0
  6
CONTINUOUS
 62
     7
100
AcDbLine
 10
235.747807
 20
152.910213
 30
0.0
 11
235.552371
 21
152.797382
 31
0.0
  0
LINE
  5
653
330
649
100
AcDbEntity
  8
0
  6
CONTINUOUS
 62
     7
100
AcDbLine
 10
235.552371
 20
152.797382
 30
0.0
 11
235.357516
 21
152.684878
 31
0.0
  0
LINE
  5
654
330
649
100
AcDbEntity
  8
0
  6
CONTINUOUS
 62
     7
100
AcDbLine
 10
235.357516
 20
152.684878
 30
0.0
 11
235.163518
 21
152.572881
 31
0.0
  0
ENDBLK
  5
64B
330
649
100
AcDbEntity
  8
0
100
AcDbBlockEnd
  0
BLOCK
  5
65A
330
659
100
AcDbEntity
  8
0
100
AcDbBlockBegin
  2
BLKF046
 70
     0
 71
     0
 10
0.0
 20
0.0
 30
0.0
  3
BLKF046
  1

  0
LINE
  5
65D
330
659
100
AcDbEntity
  8
0
  6
CONTINUOUS
 62
     7
100
AcDbLine
 10
240.656667
 20
155.859824
 30
0.0
 11
240.596406
 21
155.825029
 31
0.0
  0
LINE
  5
65E
330
659
100
AcDbEntity
  8
0
  6
CONTINUOUS
 62
     7
100
AcDbLine
 10
240.596406
 20
155.825029
 30
0.0
 11
240.532428
 21
155.788089
 31
0.0
  0
LINE
  5
65F
330
659
100
AcDbEntity
  8
0
  6
CONTINUOUS
 62
     7
100
AcDbLine
 10
240.532428
 20
155.788089
 30
0.0
 11
240.464784
 21
155.749033
 31
0.0
  0
LINE
  5
660
330
659
100
AcDbEntity
  8
0
  6
CONTINUOUS
 62
     7
100
AcDbLine
 10
240.464784
 20
155.749033
 30
0.0
 11
240.393527
 21
155.707891
 31
0.0
  0
LINE
  5
661
330
659
100
AcDbEntity
  8
0
  6
CONTINUOUS
 62
     7
100
AcDbLine
 10
240.393527
 20
155.707891
 30
0.0
 11
240.318708
 21
155.664708
 31
0.0
  0
LINE
  5
662
330
659
100
AcDbEntity
  8
0
  6
CONTINUOUS
 62
     7
100
AcDbLine
 10
240.318708
 20
155.664708
 30
0.0
 11
240.240403
 21
155.619483
 31
0.0
  0
LINE
  5
663
330
659
100
AcDbEntity
  8
0
  6
CONTINUOUS
 62
     7
100
AcDbLine
 10
240.240403
 20
155.619483
 30
0.0
 11
240.158655
 21
155.572291
 31
0.0
  0
LINE
  5
664
330
659
100
AcDbEntity
  8
0
  6
CONTINUOUS
 62
     7
100
AcDbLine
 10
240.158655
 20
155.572291
 30
0.0
 11
240.073532
 21
155.523147
 31
0.0
  0
ENDBLK
  5
65B
330
659
100
AcDbEntity
  8
0
100
AcDbBlockEnd
  0
BLOCK
  5
667
330
666
100
AcDbEntity
  8
0
100
AcDbBlockBegin
  2
BLKF047
 70
     0
 71
     0
 10
0.0
 20
0.0
 30
0.0
  3
BLKF047
  1

  0
LINE
  5
66A
330
666
100
AcDbEntity
  8
0
  6
CONTINUOUS
 62
     7
100
AcDbLine
 10
240.706668
 20
155.773218
 30
0.0
 11
240.632333
 21
155.730303
 31
0.0
  0
LINE
  5
66B
330
666
100
AcDbEntity
  8
0
  6
CONTINUOUS
 62
     7
100
AcDbLine
 10
240.632333
 20
155.730303
 30
0.0
 11
240.551114
 21
155.683409
 31
0.0
  0
LINE
  5
66C
330
666
100
AcDbEntity
  8
0
  6
CONTINUOUS
 62
     7
100
AcDbLine
 10
240.551114
 20
155.683409
 30
0.0
 11
240.463138
 21
155.632611
 31
0.0
  0
LINE
  5
66D
330
666
100
AcDbEntity
  8
0
  6
CONTINUOUS
 62
     7
100
AcDbLine
 10
240.463138
 20
155.632611
 30
0.0
 11
240.368523
 21
155.577998
 31
0.0
  0
LINE
  5
66E
330
666
100
AcDbEntity
  8
0
  6
CONTINUOUS
 62
     7
100
AcDbLine
 10
240.368523
 20
155.577998
 30
0.0
 11
240.267419
 21
155.519615
 31
0.0
  0
LINE
  5
66F
330
666
100
AcDbEntity
  8
0
  6
CONTINUOUS
 62
     7
100
AcDbLine
 10
240.267419
 20
155.519615
 30
0.0
 11
240.159966
 21
155.457582
 31
0.0
  0
LINE
  5
670
330
666
100
AcDbEntity
  8
0
  6
CONTINUOUS
 62
     7
100
AcDbLine
 10
240.159966
 20
155.457582
 30
0.0
 11
240.046323
 21
155.391972
 31
0.0
  0
LINE
  5
671
330
666
100
AcDbEntity
  8
0
  6
CONTINUOUS
 62
     7
100
AcDbLine
 10
240.046323
 20
155.391972
 30
0.0
 11
239.926659
 21
155.322875
 31
0.0
  0
ENDBLK
  5
668
330
666
100
AcDbEntity
  8
0
100
AcDbBlockEnd
  0
BLOCK
  5
673
330
672
100
AcDbEntity
  8
0
100
AcDbBlockBegin
  2
BLKF048
 70
     0
 71
     0
 10
0.0
 20
0.0
 30
0.0
  3
BLKF048
  1

  0
LINE
  5
676
330
672
100
AcDbEntity
  8
0
  6
CONTINUOUS
 62
     7
100
AcDbLine
 10
231.713519
 20
150.696497
 30
0.0
 11
231.628396
 21
150.647353
 31
0.0
  0
LINE
  5
677
330
672
100
AcDbEntity
  8
0
  6
CONTINUOUS
 62
     7
100
AcDbLine
 10
231.628396
 20
150.647353
 30
0.0
 11
231.546648
 21
150.600146
 31
0.0
  0
LINE
  5
678
330
672
100
AcDbEntity
  8
0
  6
CONTINUOUS
 62
     7
100
AcDbLine
 10
231.546648
 20
150.600146
 30
0.0
 11
231.468343
 21
150.554936
 31
0.0
  0
LINE
  5
679
330
672
100
AcDbEntity
  8
0
  6
CONTINUOUS
 62
     7
100
AcDbLine
 10
231.468343
 20
150.554936
 30
0.0
 11
231.393524
 21
150.511737
 31
0.0
  0
LINE
  5
67A
330
672
100
AcDbEntity
  8
0
  6
CONTINUOUS
 62
     7
100
AcDbLine
 10
231.393524
 20
150.511737
 30
0.0
 11
231.322266
 21
150.47061
 31
0.0
  0
LINE
  5
67B
330
672
100
AcDbEntity
  8
0
  6
CONTINUOUS
 62
     7
100
AcDbLine
 10
231.322266
 20
150.47061
 30
0.0
 11
231.254623
 21
150.431554
 31
0.0
  0
LINE
  5
67C
330
672
100
AcDbEntity
  8
0
  6
CONTINUOUS
 62
     7
100
AcDbLine
 10
231.254623
 20
150.431554
 30
0.0
 11
231.190644
 21
150.394614
 31
0.0
  0
LINE
  5
67D
330
672
100
AcDbEntity
  8
0
  6
CONTINUOUS
 62
     7
100
AcDbLine
 10
231.190644
 20
150.394614
 30
0.0
 11
231.130384
 21
150.35982
 31
0.0
  0
ENDBLK
  5
674
330
672
100
AcDbEntity
  8
0
100
AcDbBlockEnd
  0
BLOCK
  5
680
330
67F
100
AcDbEntity
  8
0
100
AcDbBlockBegin
  2
BLKF049
 70
     0
 71
     0
 10
0.0
 20
0.0
 30
0.0
  3
BLKF049
  1

  0
LINE
  5
683
330
67F
100
AcDbEntity
  8
0
  6
CONTINUOUS
 62
     7
100
AcDbLine
 10
231.960394
 20
150.723557
 30
0.0
 11
231.84073
 21
150.654461
 31
0.0
  0
LINE
  5
684
330
67F
100
AcDbEntity
  8
0
  6
CONTINUOUS
 62
     7
100
AcDbLine
 10
231.84073
 20
150.654461
 30
0.0
 11
231.727086
 21
150.588851
 31
0.0
  0
LINE
  5
685
330
67F
100
AcDbEntity
  8
0
  6
CONTINUOUS
 62
     7
100
AcDbLine
 10
231.727086
 20
150.588851
 30
0.0
 11
231.619634
 21
150.526817
 31
0.0
  0
LINE
  5
686
330
67F
100
AcDbEntity
  8
0
  6
CONTINUOUS
 62
     7
100
AcDbLine
 10
231.619634
 20
150.526817
 30
0.0
 11
231.518522
 21
150.468449
 31
0.0
  0
LINE
  5
687
330
67F
100
AcDbEntity
  8
0
  6
CONTINUOUS
 62
     7
100
AcDbLine
 10
231.518522
 20
150.468449
 30
0.0
 11
231.423915
 21
150.413822
 31
0.0
  0
LINE
  5
688
330
67F
100
AcDbEntity
  8
0
  6
CONTINUOUS
 62
     7
100
AcDbLine
 10
231.423915
 20
150.413822
 30
0.0
 11
231.335938
 21
150.363024
 31
0.0
  0
LINE
  5
689
330
67F
100
AcDbEntity
  8
0
  6
CONTINUOUS
 62
     7
100
AcDbLine
 10
231.335938
 20
150.363024
 30
0.0
 11
231.254719
 21
150.31613
 31
0.0
  0
LINE
  5
68A
330
67F
100
AcDbEntity
  8
0
  6
CONTINUOUS
 62
     7
100
AcDbLine
 10
231.254719
 20
150.31613
 30
0.0
 11
231.180385
 21
150.273214
 31
0.0
  0
ENDBLK
  5
681
330
67F
100
AcDbEntity
  8
0
100
AcDbBlockEnd
  0
BLOCK
  5
68F
330
68E
100
AcDbEntity
  8
0
100
AcDbBlockBegin
  2
BLKF050
 70
     0
 71
     0
 10
0.0
 20
0.0
 30
0.0
  3
BLKF050
  1

  0
LINE
  5
692
330
68E
100
AcDbEntity
  8
0
  6
CONTINUOUS
 62
     7
100
AcDbLine
 10
241.626658
 20
144.526433
 30
0.0
 11
241.720125
 21
144.537479
 31
0.0
  0
LINE
  5
693
330
68E
100
AcDbEntity
  8
0
  6
CONTINUOUS
 62
     7
100
AcDbLine
 10
241.720125
 20
144.537479
 30
0.0
 11
241.766843
 21
144.543089
 31
0.0
  0
LINE
  5
694
330
68E
100
AcDbEntity
  8
0
  6
CONTINUOUS
 62
     7
100
AcDbLine
 10
241.766843
 20
144.543089
 30
0.0
 11
241.813541
 21
144.548805
 31
0.0
  0
LINE
  5
695
330
68E
100
AcDbEntity
  8
0
  6
CONTINUOUS
 62
     7
100
AcDbLine
 10
241.813541
 20
144.548805
 30
0.0
 11
241.860212
 21
144.55466
 31
0.0
  0
LINE
  5
696
330
68E
100
AcDbEntity
  8
0
  6
CONTINUOUS
 62
     7
100
AcDbLine
 10
241.860212
 20
144.55466
 30
0.0
 11
241.906851
 21
144.56069
 31
0.0
  0
LINE
  5
697
330
68E
100
AcDbEntity
  8
0
  6
CONTINUOUS
 62
     7
100
AcDbLine
 10
241.906851
 20
144.56069
 30
0.0
 11
241.953451
 21
144.56693
 31
0.0
  0
LINE
  5
698
330
68E
100
AcDbEntity
  8
0
  6
CONTINUOUS
 62
     7
100
AcDbLine
 10
241.953451
 20
144.56693
 30
0.0
 11
242.000004
 21
144.573414
 31
0.0
  0
LINE
  5
699
330
68E
100
AcDbEntity
  8
0
  6
CONTINUOUS
 62
     7
100
AcDbLine
 10
242.000004
 20
144.573414
 30
0.0
 11
242.023262
 21
144.576759
 31
0.0
  0
LINE
  5
69A
330
68E
100
AcDbEntity
  8
0
  6
CONTINUOUS
 62
     7
100
AcDbLine
 10
242.023262
 20
144.576759
 30
0.0
 11
242.046505
 21
144.580178
 31
0.0
  0
LINE
  5
69B
330
68E
100
AcDbEntity
  8
0
  6
CONTINUOUS
 62
     7
100
AcDbLine
 10
242.046505
 20
144.580178
 30
0.0
 11
242.069734
 21
144.583676
 31
0.0
  0
LINE
  5
69C
330
68E
100
AcDbEntity
  8
0
  6
CONTINUOUS
 62
     7
100
AcDbLine
 10
242.069734
 20
144.583676
 30
0.0
 11
242.092947
 21
144.587257
 31
0.0
  0
LINE
  5
69D
330
68E
100
AcDbEntity
  8
0
  6
CONTINUOUS
 62
     7
100
AcDbLine
 10
242.092947
 20
144.587257
 30
0.0
 11
242.116144
 21
144.590925
 31
0.0
  0
LINE
  5
69E
330
68E
100
AcDbEntity
  8
0
  6
CONTINUOUS
 62
     7
100
AcDbLine
 10
242.116144
 20
144.590925
 30
0.0
 11
242.139324
 21
144.594686
 31
0.0
  0
LINE
  5
69F
330
68E
100
AcDbEntity
  8
0
  6
CONTINUOUS
 62
     7
100
AcDbLine
 10
242.139324
 20
144.594686
 30
0.0
 11
242.162486
 21
144.598542
 31
0.0
  0
LINE
  5
6A0
330
68E
100
AcDbEntity
  8
0
  6
CONTINUOUS
 62
     7
100
AcDbLine
 10
242.162486
 20
144.598542
 30
0.0
 11
242.185629
 21
144.602499
 31
0.0
  0
LINE
  5
6A1
330
68E
100
AcDbEntity
  8
0
  6
CONTINUOUS
 62
     7
100
AcDbLine
 10
242.185629
 20
144.602499
 30
0.0
 11
242.208752
 21
144.60656
 31
0.0
  0
LINE
  5
6A2
330
68E
100
AcDbEntity
  8
0
  6
CONTINUOUS
 62
     7
100
AcDbLine
 10
242.208752
 20
144.60656
 30
0.0
 11
242.231855
 21
144.610731
 31
0.0
  0
LINE
  5
6A3
330
68E
100
AcDbEntity
  8
0
  6
CONTINUOUS
 62
     7
100
AcDbLine
 10
242.231855
 20
144.610731
 30
0.0
 11
242.254936
 21
144.615016
 31
0.0
  0
LINE
  5
6A4
330
68E
100
AcDbEntity
  8
0
  6
CONTINUOUS
 62
     7
100
AcDbLine
 10
242.254936
 20
144.615016
 30
0.0
 11
242.277995
 21
144.619418
 31
0.0
  0
LINE
  5
6A5
330
68E
100
AcDbEntity
  8
0
  6
CONTINUOUS
 62
     7
100
AcDbLine
 10
242.277995
 20
144.619418
 30
0.0
 11
242.301032
 21
144.623943
 31
0.0
  0
LINE
  5
6A6
330
68E
100
AcDbEntity
  8
0
  6
CONTINUOUS
 62
     7
100
AcDbLine
 10
242.301032
 20
144.623943
 30
0.0
 11
242.324044
 21
144.628595
 31
0.0
  0
LINE
  5
6A7
330
68E
100
AcDbEntity
  8
0
  6
CONTINUOUS
 62
     7
100
AcDbLine
 10
242.324044
 20
144.628595
 30
0.0
 11
242.347032
 21
144.633377
 31
0.0
  0
LINE
  5
6A8
330
68E
100
AcDbEntity
  8
0
  6
CONTINUOUS
 62
     7
100
AcDbLine
 10
242.347032
 20
144.633377
 30
0.0
 11
242.369995
 21
144.638296
 31
0.0
  0
LINE
  5
6A9
330
68E
100
AcDbEntity
  8
0
  6
CONTINUOUS
 62
     7
100
AcDbLine
 10
242.369995
 20
144.638296
 30
0.0
 11
242.390665
 21
144.642842
 31
0.0
  0
LINE
  5
6AA
330
68E
100
AcDbEntity
  8
0
  6
CONTINUOUS
 62
     7
100
AcDbLine
 10
242.390665
 20
144.642842
 30
0.0
 11
242.411318
 21
144.647473
 31
0.0
  0
LINE
  5
6AB
330
68E
100
AcDbEntity
  8
0
  6
CONTINUOUS
 62
     7
100
AcDbLine
 10
242.411318
 20
144.647473
 30
0.0
 11
242.452599
 21
144.656877
 31
0.0
  0
ENDBLK
  5
690
330
68E
100
AcDbEntity
  8
0
100
AcDbBlockEnd
  0
BLOCK
  5
6AE
330
6AD
100
AcDbEntity
  8
0
100
AcDbBlockBegin
  2
BLKF051
 70
     0
 71
     0
 10
0.0
 20
0.0
 30
0.0
  3
BLKF051
  1

  0
LINE
  5
6B1
330
6AD
100
AcDbEntity
  8
0
  6
CONTINUOUS
 62
     7
100
AcDbLine
 10
238.325097
 20
154.398213
 30
0.0
 11
238.236828
 21
154.332463
 31
0.0
  0
LINE
  5
6B2
330
6AD
100
AcDbEntity
  8
0
  6
CONTINUOUS
 62
     7
100
AcDbLine
 10
238.236828
 20
154.332463
 30
0.0
 11
238.148714
 21
154.266569
 31
0.0
  0
LINE
  5
6B3
330
6AD
100
AcDbEntity
  8
0
  6
CONTINUOUS
 62
     7
100
AcDbLine
 10
238.148714
 20
154.266569
 30
0.0
 11
238.06091
 21
154.200388
 31
0.0
  0
LINE
  5
6B4
330
6AD
100
AcDbEntity
  8
0
  6
CONTINUOUS
 62
     7
100
AcDbLine
 10
238.06091
 20
154.200388
 30
0.0
 11
238.017174
 21
154.167145
 31
0.0
  0
LINE
  5
6B5
330
6AD
100
AcDbEntity
  8
0
  6
CONTINUOUS
 62
     7
100
AcDbLine
 10
238.017174
 20
154.167145
 30
0.0
 11
237.973573
 21
154.133776
 31
0.0
  0
LINE
  5
6B6
330
6AD
100
AcDbEntity
  8
0
  6
CONTINUOUS
 62
     7
100
AcDbLine
 10
237.973573
 20
154.133776
 30
0.0
 11
237.930127
 21
154.100263
 31
0.0
  0
LINE
  5
6B7
330
6AD
100
AcDbEntity
  8
0
  6
CONTINUOUS
 62
     7
100
AcDbLine
 10
237.930127
 20
154.100263
 30
0.0
 11
237.886856
 21
154.066588
 31
0.0
  0
LINE
  5
6B8
330
6AD
100
AcDbEntity
  8
0
  6
CONTINUOUS
 62
     7
100
AcDbLine
 10
237.886856
 20
154.066588
 30
0.0
 11
237.843779
 21
154.032734
 31
0.0
  0
LINE
  5
6B9
330
6AD
100
AcDbEntity
  8
0
  6
CONTINUOUS
 62
     7
100
AcDbLine
 10
237.843779
 20
154.032734
 30
0.0
 11
237.800916
 21
153.998682
 31
0.0
  0
LINE
  5
6BA
330
6AD
100
AcDbEntity
  8
0
  6
CONTINUOUS
 62
     7
100
AcDbLine
 10
237.800916
 20
153.998682
 30
0.0
 11
237.758285
 21
153.964414
 31
0.0
  0
LINE
  5
6BB
330
6AD
100
AcDbEntity
  8
0
  6
CONTINUOUS
 62
     7
100
AcDbLine
 10
237.758285
 20
153.964414
 30
0.0
 11
237.715907
 21
153.929913
 31
0.0
  0
LINE
  5
6BC
330
6AD
100
AcDbEntity
  8
0
  6
CONTINUOUS
 62
     7
100
AcDbLine
 10
237.715907
 20
153.929913
 30
0.0
 11
237.673801
 21
153.895161
 31
0.0
  0
LINE
  5
6BD
330
6AD
100
AcDbEntity
  8
0
  6
CONTINUOUS
 62
     7
100
AcDbLine
 10
237.673801
 20
153.895161
 30
0.0
 11
237.631986
 21
153.860139
 31
0.0
  0
LINE
  5
6BE
330
6AD
100
AcDbEntity
  8
0
  6
CONTINUOUS
 62
     7
100
AcDbLine
 10
237.631986
 20
153.860139
 30
0.0
 11
237.590481
 21
153.824829
 31
0.0
  0
LINE
  5
6BF
330
6AD
100
AcDbEntity
  8
0
  6
CONTINUOUS
 62
     7
100
AcDbLine
 10
237.590481
 20
153.824829
 30
0.0
 11
237.549306
 21
153.789214
 31
0.0
  0
LINE
  5
6C0
330
6AD
100
AcDbEntity
  8
0
  6
CONTINUOUS
 62
     7
100
AcDbLine
 10
237.549306
 20
153.789214
 30
0.0
 11
237.50848
 21
153.753275
 31
0.0
  0
LINE
  5
6C1
330
6AD
100
AcDbEntity
  8
0
  6
CONTINUOUS
 62
     7
100
AcDbLine
 10
237.50848
 20
153.753275
 30
0.0
 11
237.468024
 21
153.716996
 31
0.0
  0
LINE
  5
6C2
330
6AD
100
AcDbEntity
  8
0
  6
CONTINUOUS
 62
     7
100
AcDbLine
 10
237.468024
 20
153.716996
 30
0.0
 11
237.427955
 21
153.680356
 31
0.0
  0
LINE
  5
6C3
330
6AD
100
AcDbEntity
  8
0
  6
CONTINUOUS
 62
     7
100
AcDbLine
 10
237.427955
 20
153.680356
 30
0.0
 11
237.388294
 21
153.64334
 31
0.0
  0
LINE
  5
6C4
330
6AD
100
AcDbEntity
  8
0
  6
CONTINUOUS
 62
     7
100
AcDbLine
 10
237.388294
 20
153.64334
 30
0.0
 11
237.34906
 21
153.605928
 31
0.0
  0
LINE
  5
6C5
330
6AD
100
AcDbEntity
  8
0
  6
CONTINUOUS
 62
     7
100
AcDbLine
 10
237.34906
 20
153.605928
 30
0.0
 11
237.310272
 21
153.568103
 31
0.0
  0
LINE
  5
6C6
330
6AD
100
AcDbEntity
  8
0
  6
CONTINUOUS
 62
     7
100
AcDbLine
 10
237.310272
 20
153.568103
 30
0.0
 11
237.27195
 21
153.529847
 31
0.0
  0
LINE
  5
6C7
330
6AD
100
AcDbEntity
  8
0
  6
CONTINUOUS
 62
     7
100
AcDbLine
 10
237.27195
 20
153.529847
 30
0.0
 11
237.234113
 21
153.491141
 31
0.0
  0
LINE
  5
6C8
330
6AD
100
AcDbEntity
  8
0
  6
CONTINUOUS
 62
     7
100
AcDbLine
 10
237.234113
 20
153.491141
 30
0.0
 11
237.196781
 21
153.451969
 31
0.0
  0
LINE
  5
6C9
330
6AD
100
AcDbEntity
  8
0
  6
CONTINUOUS
 62
     7
100
AcDbLine
 10
237.196781
 20
153.451969
 30
0.0
 11
237.159973
 21
153.412311
 31
0.0
  0
LINE
  5
6CA
330
6AD
100
AcDbEntity
  8
0
  6
CONTINUOUS
 62
     7
100
AcDbLine
 10
237.159973
 20
153.412311
 30
0.0
 11
237.123709
 21
153.37215
 31
0.0
  0
LINE
  5
6CB
330
6AD
100
AcDbEntity
  8
0
  6
CONTINUOUS
 62
     7
100
AcDbLine
 10
237.123709
 20
153.37215
 30
0.0
 11
237.088007
 21
153.331468
 31
0.0
  0
LINE
  5
6CC
330
6AD
100
AcDbEntity
  8
0
  6
CONTINUOUS
 62
     7
100
AcDbLine
 10
237.088007
 20
153.331468
 30
0.0
 11
237.052887
 21
153.290247
 31
0.0
  0
LINE
  5
6CD
330
6AD
100
AcDbEntity
  8
0
  6
CONTINUOUS
 62
     7
100
AcDbLine
 10
237.052887
 20
153.290247
 30
0.0
 11
237.018369
 21
153.24847
 31
0.0
  0
LINE
  5
6CE
330
6AD
100
AcDbEntity
  8
0
  6
CONTINUOUS
 62
     7
100
AcDbLine
 10
237.018369
 20
153.24847
 30
0.0
 11
236.986994
 21
153.209345
 31
0.0
  0
LINE
  5
6CF
330
6AD
100
AcDbEntity
  8
0
  6
CONTINUOUS
 62
     7
100
AcDbLine
 10
236.986994
 20
153.209345
 30
0.0
 11
236.956083
 21
153.169791
 31
0.0
  0
LINE
  5
6D0
330
6AD
100
AcDbEntity
  8
0
  6
CONTINUOUS
 62
     7
100
AcDbLine
 10
236.956083
 20
153.169791
 30
0.0
 11
236.925571
 21
153.129867
 31
0.0
  0
LINE
  5
6D1
330
6AD
100
AcDbEntity
  8
0
  6
CONTINUOUS
 62
     7
100
AcDbLine
 10
236.925571
 20
153.129867
 30
0.0
 11
236.89539
 21
153.089637
 31
0.0
  0
LINE
  5
6D2
330
6AD
100
AcDbEntity
  8
0
  6
CONTINUOUS
 62
     7
100
AcDbLine
 10
236.89539
 20
153.089637
 30
0.0
 11
236.865475
 21
153.049161
 31
0.0
  0
LINE
  5
6D3
330
6AD
100
AcDbEntity
  8
0
  6
CONTINUOUS
 62
     7
100
AcDbLine
 10
236.865475
 20
153.049161
 30
0.0
 11
236.835758
 21
153.008501
 31
0.0
  0
LINE
  5
6D4
330
6AD
100
AcDbEntity
  8
0
  6
CONTINUOUS
 62
     7
100
AcDbLine
 10
236.835758
 20
153.008501
 30
0.0
 11
236.776658
 21
152.926873
 31
0.0
  0
ENDBLK
  5
6AF
330
6AD
100
AcDbEntity
  8
0
100
AcDbBlockEnd
  0
BLOCK
  5
6D8
330
6D7
100
AcDbEntity
  8
0
100
AcDbBlockBegin
  2
BLKF052
 70
     0
 71
     0
 10
0.0
 20
0.0
 30
0.0
  3
BLKF052
  1

  0
LINE
  5
6DB
330
6D7
100
AcDbEntity
  8
0
  6
CONTINUOUS
 62
     7
100
AcDbLine
 10
236.776658
 20
152.926873
 30
0.0
 11
236.631282
 21
152.842935
 31
0.0
  0
LINE
  5
6DC
330
6D7
100
AcDbEntity
  8
0
  6
CONTINUOUS
 62
     7
100
AcDbLine
 10
236.631282
 20
152.842935
 30
0.0
 11
236.485556
 21
152.758803
 31
0.0
  0
LINE
  5
6DD
330
6D7
100
AcDbEntity
  8
0
  6
CONTINUOUS
 62
     7
100
AcDbLine
 10
236.485556
 20
152.758803
 30
0.0
 11
236.339599
 21
152.674536
 31
0.0
  0
LINE
  5
6DE
330
6D7
100
AcDbEntity
  8
0
  6
CONTINUOUS
 62
     7
100
AcDbLine
 10
236.339599
 20
152.674536
 30
0.0
 11
236.193523
 21
152.590211
 31
0.0
  0
LINE
  5
6DF
330
6D7
100
AcDbEntity
  8
0
  6
CONTINUOUS
 62
     7
100
AcDbLine
 10
236.193523
 20
152.590211
 30
0.0
 11
236.047454
 21
152.50587
 31
0.0
  0
LINE
  5
6E0
330
6D7
100
AcDbEntity
  8
0
  6
CONTINUOUS
 62
     7
100
AcDbLine
 10
236.047454
 20
152.50587
 30
0.0
 11
235.901498
 21
152.421604
 31
0.0
  0
LINE
  5
6E1
330
6D7
100
AcDbEntity
  8
0
  6
CONTINUOUS
 62
     7
100
AcDbLine
 10
235.901498
 20
152.421604
 30
0.0
 11
235.755772
 21
152.337472
 31
0.0
  0
LINE
  5
6E2
330
6D7
100
AcDbEntity
  8
0
  6
CONTINUOUS
 62
     7
100
AcDbLine
 10
235.755772
 20
152.337472
 30
0.0
 11
235.610396
 21
152.253534
 31
0.0
  0
ENDBLK
  5
6D9
330
6D7
100
AcDbEntity
  8
0
100
AcDbBlockEnd
  0
BLOCK
  5
6E6
330
6E5
100
AcDbEntity
  8
0
100
AcDbBlockBegin
  2
BLKF053
 70
     0
 71
     0
 10
0.0
 20
0.0
 30
0.0
  3
BLKF053
  1

  0
LINE
  5
6E9
330
6E5
100
AcDbEntity
  8
0
  6
CONTINUOUS
 62
     7
100
AcDbLine
 10
241.626658
 20
144.526433
 30
0.0
 11
241.481282
 21
144.442494
 31
0.0
  0
LINE
  5
6EA
330
6E5
100
AcDbEntity
  8
0
  6
CONTINUOUS
 62
     7
100
AcDbLine
 10
241.481282
 20
144.442494
 30
0.0
 11
241.335556
 21
144.358362
 31
0.0
  0
LINE
  5
6EB
330
6E5
100
AcDbEntity
  8
0
  6
CONTINUOUS
 62
     7
100
AcDbLine
 10
241.335556
 20
144.358362
 30
0.0
 11
241.189599
 21
144.274096
 31
0.0
  0
LINE
  5
6EC
330
6E5
100
AcDbEntity
  8
0
  6
CONTINUOUS
 62
     7
100
AcDbLine
 10
241.189599
 20
144.274096
 30
0.0
 11
241.043523
 21
144.189756
 31
0.0
  0
LINE
  5
6ED
330
6E5
100
AcDbEntity
  8
0
  6
CONTINUOUS
 62
     7
100
AcDbLine
 10
241.043523
 20
144.189756
 30
0.0
 11
240.897455
 21
144.10543
 31
0.0
  0
LINE
  5
6EE
330
6E5
100
AcDbEntity
  8
0
  6
CONTINUOUS
 62
     7
100
AcDbLine
 10
240.897455
 20
144.10543
 30
0.0
 11
240.751498
 21
144.021149
 31
0.0
  0
LINE
  5
6EF
330
6E5
100
AcDbEntity
  8
0
  6
CONTINUOUS
 62
     7
100
AcDbLine
 10
240.751498
 20
144.021149
 30
0.0
 11
240.605772
 21
143.937017
 31
0.0
  0
LINE
  5
6F0
330
6E5
100
AcDbEntity
  8
0
  6
CONTINUOUS
 62
     7
100
AcDbLine
 10
240.605772
 20
143.937017
 30
0.0
 11
240.460396
 21
143.853079
 31
0.0
  0
ENDBLK
  5
6E7
330
6E5
100
AcDbEntity
  8
0
100
AcDbBlockEnd
  0
BLOCK
  5
6F5
330
6F4
100
AcDbEntity
  8
0
100
AcDbBlockBegin
  2
BLKF054
 70
     0
 71
     0
 10
0.0
 20
0.0
 30
0.0
  3
BLKF054
  1

  0
LINE
  5
6F8
330
6F4
100
AcDbEntity
  8
0
  6
CONTINUOUS
 62
     7
100
AcDbLine
 10
233.561956
 20
151.648219
 30
0.0
 11
233.473686
 21
151.582469
 31
0.0
  0
LINE
  5
6F9
330
6F4
100
AcDbEntity
  8
0
  6
CONTINUOUS
 62
     7
100
AcDbLine
 10
233.473686
 20
151.582469
 30
0.0
 11
233.385573
 21
151.516575
 31
0.0
  0
LINE
  5
6FA
330
6F4
100
AcDbEntity
  8
0
  6
CONTINUOUS
 62
     7
100
AcDbLine
 10
233.385573
 20
151.516575
 30
0.0
 11
233.297769
 21
151.450394
 31
0.0
  0
LINE
  5
6FB
330
6F4
100
AcDbEntity
  8
0
  6
CONTINUOUS
 62
     7
100
AcDbLine
 10
233.297769
 20
151.450394
 30
0.0
 11
233.254032
 21
151.41715
 31
0.0
  0
LINE
  5
6FC
330
6F4
100
AcDbEntity
  8
0
  6
CONTINUOUS
 62
     7
100
AcDbLine
 10
233.254032
 20
151.41715
 30
0.0
 11
233.210431
 21
151.383781
 31
0.0
  0
LINE
  5
6FD
330
6F4
100
AcDbEntity
  8
0
  6
CONTINUOUS
 62
     7
100
AcDbLine
 10
233.210431
 20
151.383781
 30
0.0
 11
233.166986
 21
151.350268
 31
0.0
  0
LINE
  5
6FE
330
6F4
100
AcDbEntity
  8
0
  6
CONTINUOUS
 62
     7
100
AcDbLine
 10
233.166986
 20
151.350268
 30
0.0
 11
233.123715
 21
151.316594
 31
0.0
  0
LINE
  5
6FF
330
6F4
100
AcDbEntity
  8
0
  6
CONTINUOUS
 62
     7
100
AcDbLine
 10
233.123715
 20
151.316594
 30
0.0
 11
233.080638
 21
151.28274
 31
0.0
  0
LINE
  5
700
330
6F4
100
AcDbEntity
  8
0
  6
CONTINUOUS
 62
     7
100
AcDbLine
 10
233.080638
 20
151.28274
 30
0.0
 11
233.037775
 21
151.248688
 31
0.0
  0
LINE
  5
701
330
6F4
100
AcDbEntity
  8
0
  6
CONTINUOUS
 62
     7
100
AcDbLine
 10
233.037775
 20
151.248688
 30
0.0
 11
232.995144
 21
151.21442
 31
0.0
  0
LINE
  5
702
330
6F4
100
AcDbEntity
  8
0
  6
CONTINUOUS
 62
     7
100
AcDbLine
 10
232.995144
 20
151.21442
 30
0.0
 11
232.952766
 21
151.179919
 31
0.0
  0
LINE
  5
703
330
6F4
100
AcDbEntity
  8
0
  6
CONTINUOUS
 62
     7
100
AcDbLine
 10
232.952766
 20
151.179919
 30
0.0
 11
232.91066
 21
151.145166
 31
0.0
  0
LINE
  5
704
330
6F4
100
AcDbEntity
  8
0
  6
CONTINUOUS
 62
     7
100
AcDbLine
 10
232.91066
 20
151.145166
 30
0.0
 11
232.868844
 21
151.110144
 31
0.0
  0
LINE
  5
705
330
6F4
100
AcDbEntity
  8
0
  6
CONTINUOUS
 62
     7
100
AcDbLine
 10
232.868844
 20
151.110144
 30
0.0
 11
232.827339
 21
151.074835
 31
0.0
  0
LINE
  5
706
330
6F4
100
AcDbEntity
  8
0
  6
CONTINUOUS
 62
     7
100
AcDbLine
 10
232.827339
 20
151.074835
 30
0.0
 11
232.786165
 21
151.03922
 31
0.0
  0
LINE
  5
707
330
6F4
100
AcDbEntity
  8
0
  6
CONTINUOUS
 62
     7
100
AcDbLine
 10
232.786165
 20
151.03922
 30
0.0
 11
232.745339
 21
151.003281
 31
0.0
  0
LINE
  5
708
330
6F4
100
AcDbEntity
  8
0
  6
CONTINUOUS
 62
     7
100
AcDbLine
 10
232.745339
 20
151.003281
 30
0.0
 11
232.704882
 21
150.967001
 31
0.0
  0
LINE
  5
709
330
6F4
100
AcDbEntity
  8
0
  6
CONTINUOUS
 62
     7
100
AcDbLine
 10
232.704882
 20
150.967001
 30
0.0
 11
232.664814
 21
150.930362
 31
0.0
  0
LINE
  5
70A
330
6F4
100
AcDbEntity
  8
0
  6
CONTINUOUS
 62
     7
100
AcDbLine
 10
232.664814
 20
150.930362
 30
0.0
 11
232.625153
 21
150.893345
 31
0.0
  0
LINE
  5
70B
330
6F4
100
AcDbEntity
  8
0
  6
CONTINUOUS
 62
     7
100
AcDbLine
 10
232.625153
 20
150.893345
 30
0.0
 11
232.585919
 21
150.855934
 31
0.0
  0
LINE
  5
70C
330
6F4
100
AcDbEntity
  8
0
  6
CONTINUOUS
 62
     7
100
AcDbLine
 10
232.585919
 20
150.855934
 30
0.0
 11
232.547131
 21
150.818109
 31
0.0
  0
LINE
  5
70D
330
6F4
100
AcDbEntity
  8
0
  6
CONTINUOUS
 62
     7
100
AcDbLine
 10
232.547131
 20
150.818109
 30
0.0
 11
232.508809
 21
150.779852
 31
0.0
  0
LINE
  5
70E
330
6F4
100
AcDbEntity
  8
0
  6
CONTINUOUS
 62
     7
100
AcDbLine
 10
232.508809
 20
150.779852
 30
0.0
 11
232.470972
 21
150.741147
 31
0.0
  0
LINE
  5
70F
330
6F4
100
AcDbEntity
  8
0
  6
CONTINUOUS
 62
     7
100
AcDbLine
 10
232.470972
 20
150.741147
 30
0.0
 11
232.43364
 21
150.701974
 31
0.0
  0
LINE
  5
710
330
6F4
100
AcDbEntity
  8
0
  6
CONTINUOUS
 62
     7
100
AcDbLine
 10
232.43364
 20
150.701974
 30
0.0
 11
232.396832
 21
150.662317
 31
0.0
  0
LINE
  5
711
330
6F4
100
AcDbEntity
  8
0
  6
CONTINUOUS
 62
     7
100
AcDbLine
 10
232.396832
 20
150.662317
 30
0.0
 11
232.360567
 21
150.622156
 31
0.0
  0
LINE
  5
712
330
6F4
100
AcDbEntity
  8
0
  6
CONTINUOUS
 62
     7
100
AcDbLine
 10
232.360567
 20
150.622156
 30
0.0
 11
232.324866
 21
150.581474
 31
0.0
  0
LINE
  5
713
330
6F4
100
AcDbEntity
  8
0
  6
CONTINUOUS
 62
     7
100
AcDbLine
 10
232.324866
 20
150.581474
 30
0.0
 11
232.289746
 21
150.540253
 31
0.0
  0
LINE
  5
714
330
6F4
100
AcDbEntity
  8
0
  6
CONTINUOUS
 62
     7
100
AcDbLine
 10
232.289746
 20
150.540253
 30
0.0
 11
232.255228
 21
150.498475
 31
0.0
  0
LINE
  5
715
330
6F4
100
AcDbEntity
  8
0
  6
CONTINUOUS
 62
     7
100
AcDbLine
 10
232.255228
 20
150.498475
 30
0.0
 11
232.223853
 21
150.459351
 31
0.0
  0
LINE
  5
716
330
6F4
100
AcDbEntity
  8
0
  6
CONTINUOUS
 62
     7
100
AcDbLine
 10
232.223853
 20
150.459351
 30
0.0
 11
232.192942
 21
150.419796
 31
0.0
  0
LINE
  5
717
330
6F4
100
AcDbEntity
  8
0
  6
CONTINUOUS
 62
     7
100
AcDbLine
 10
232.192942
 20
150.419796
 30
0.0
 11
232.16243
 21
150.379873
 31
0.0
  0
LINE
  5
718
330
6F4
100
AcDbEntity
  8
0
  6
CONTINUOUS
 62
     7
100
AcDbLine
 10
232.16243
 20
150.379873
 30
0.0
 11
232.132249
 21
150.339643
 31
0.0
  0
LINE
  5
719
330
6F4
100
AcDbEntity
  8
0
  6
CONTINUOUS
 62
     7
100
AcDbLine
 10
232.132249
 20
150.339643
 30
0.0
 11
232.102333
 21
150.299167
 31
0.0
  0
LINE
  5
71A
330
6F4
100
AcDbEntity
  8
0
  6
CONTINUOUS
 62
     7
100
AcDbLine
 10
232.102333
 20
150.299167
 30
0.0
 11
232.072617
 21
150.258506
 31
0.0
  0
LINE
  5
71B
330
6F4
100
AcDbEntity
  8
0
  6
CONTINUOUS
 62
     7
100
AcDbLine
 10
232.072617
 20
150.258506
 30
0.0
 11
232.013516
 21
150.176878
 31
0.0
  0
ENDBLK
  5
6F6
330
6F4
100
AcDbEntity
  8
0
100
AcDbBlockEnd
  0
BLOCK
  5
71D
330
71C
100
AcDbEntity
  8
0
100
AcDbBlockBegin
  2
BLKF055
 70
     0
 71
     0
 10
0.0
 20
0.0
 30
0.0
  3
BLKF055
  1

  0
LINE
  5
720
330
71C
100
AcDbEntity
  8
0
  6
CONTINUOUS
 62
     7
100
AcDbLine
 10
240.956664
 20
155.340205
 30
0.0
 11
240.896404
 21
155.305411
 31
0.0
  0
LINE
  5
721
330
71C
100
AcDbEntity
  8
0
  6
CONTINUOUS
 62
     7
100
AcDbLine
 10
240.896404
 20
155.305411
 30
0.0
 11
240.832426
 21
155.268471
 31
0.0
  0
LINE
  5
722
330
71C
100
AcDbEntity
  8
0
  6
CONTINUOUS
 62
     7
100
AcDbLine
 10
240.832426
 20
155.268471
 30
0.0
 11
240.764782
 21
155.229415
 31
0.0
  0
LINE
  5
723
330
71C
100
AcDbEntity
  8
0
  6
CONTINUOUS
 62
     7
100
AcDbLine
 10
240.764782
 20
155.229415
 30
0.0
 11
240.693525
 21
155.188288
 31
0.0
  0
LINE
  5
724
330
71C
100
AcDbEntity
  8
0
  6
CONTINUOUS
 62
     7
100
AcDbLine
 10
240.693525
 20
155.188288
 30
0.0
 11
240.618713
 21
155.145089
 31
0.0
  0
LINE
  5
725
330
71C
100
AcDbEntity
  8
0
  6
CONTINUOUS
 62
     7
100
AcDbLine
 10
240.618713
 20
155.145089
 30
0.0
 11
240.5404
 21
155.099879
 31
0.0
  0
LINE
  5
726
330
71C
100
AcDbEntity
  8
0
  6
CONTINUOUS
 62
     7
100
AcDbLine
 10
240.5404
 20
155.099879
 30
0.0
 11
240.458653
 21
155.052672
 31
0.0
  0
LINE
  5
727
330
71C
100
AcDbEntity
  8
0
  6
CONTINUOUS
 62
     7
100
AcDbLine
 10
240.458653
 20
155.052672
 30
0.0
 11
240.37353
 21
155.003528
 31
0.0
  0
ENDBLK
  5
71E
330
71C
100
AcDbEntity
  8
0
100
AcDbBlockEnd
  0
BLOCK
  5
72B
330
72A
100
AcDbEntity
  8
0
100
AcDbBlockBegin
  2
BLKF056
 70
     0
 71
     0
 10
0.0
 20
0.0
 30
0.0
  3
BLKF056
  1

  0
LINE
  5
72E
330
72A
100
AcDbEntity
  8
0
  6
CONTINUOUS
 62
     7
100
AcDbLine
 10
232.013516
 20
150.176878
 30
0.0
 11
231.928401
 21
150.127734
 31
0.0
  0
LINE
  5
72F
330
72A
100
AcDbEntity
  8
0
  6
CONTINUOUS
 62
     7
100
AcDbLine
 10
231.928401
 20
150.127734
 30
0.0
 11
231.846653
 21
150.080542
 31
0.0
  0
LINE
  5
730
330
72A
100
AcDbEntity
  8
0
  6
CONTINUOUS
 62
     7
100
AcDbLine
 10
231.846653
 20
150.080542
 30
0.0
 11
231.76834
 21
150.035317
 31
0.0
  0
LINE
  5
731
330
72A
100
AcDbEntity
  8
0
  6
CONTINUOUS
 62
     7
100
AcDbLine
 10
231.76834
 20
150.035317
 30
0.0
 11
231.693529
 21
149.992134
 31
0.0
  0
LINE
  5
732
330
72A
100
AcDbEntity
  8
0
  6
CONTINUOUS
 62
     7
100
AcDbLine
 10
231.693529
 20
149.992134
 30
0.0
 11
231.622272
 21
149.950992
 31
0.0
  0
LINE
  5
733
330
72A
100
AcDbEntity
  8
0
  6
CONTINUOUS
 62
     7
100
AcDbLine
 10
231.622272
 20
149.950992
 30
0.0
 11
231.55462
 21
149.911936
 31
0.0
  0
LINE
  5
734
330
72A
100
AcDbEntity
  8
0
  6
CONTINUOUS
 62
     7
100
AcDbLine
 10
231.55462
 20
149.911936
 30
0.0
 11
231.49065
 21
149.874996
 31
0.0
  0
LINE
  5
735
330
72A
100
AcDbEntity
  8
0
  6
CONTINUOUS
 62
     7
100
AcDbLine
 10
231.49065
 20
149.874996
 30
0.0
 11
231.430389
 21
149.840202
 31
0.0
  0
ENDBLK
  5
72C
330
72A
100
AcDbEntity
  8
0
100
AcDbBlockEnd
  0
BLOCK
  5
738
330
737
100
AcDbEntity
  8
0
100
AcDbBlockBegin
  2
BLKF057
 70
     0
 71
     0
 10
0.0
 20
0.0
 30
0.0
  3
BLKF057
  1

  0
LINE
  5
73B
330
737
100
AcDbEntity
  8
0
  6
CONTINUOUS
 62
     7
100
AcDbLine
 10
245.806664
 20
146.939765
 30
0.0
 11
245.746404
 21
146.904971
 31
0.0
  0
LINE
  5
73C
330
737
100
AcDbEntity
  8
0
  6
CONTINUOUS
 62
     7
100
AcDbLine
 10
245.746404
 20
146.904971
 30
0.0
 11
245.682426
 21
146.868031
 31
0.0
  0
LINE
  5
73D
330
737
100
AcDbEntity
  8
0
  6
CONTINUOUS
 62
     7
100
AcDbLine
 10
245.682426
 20
146.868031
 30
0.0
 11
245.614782
 21
146.828975
 31
0.0
  0
LINE
  5
73E
330
737
100
AcDbEntity
  8
0
  6
CONTINUOUS
 62
     7
100
AcDbLine
 10
245.614782
 20
146.828975
 30
0.0
 11
245.543525
 21
146.787833
 31
0.0
  0
LINE
  5
73F
330
737
100
AcDbEntity
  8
0
  6
CONTINUOUS
 62
     7
100
AcDbLine
 10
245.543525
 20
146.787833
 30
0.0
 11
245.468714
 21
146.744634
 31
0.0
  0
LINE
  5
740
330
737
100
AcDbEntity
  8
0
  6
CONTINUOUS
 62
     7
100
AcDbLine
 10
245.468714
 20
146.744634
 30
0.0
 11
245.390401
 21
146.699424
 31
0.0
  0
LINE
  5
741
330
737
100
AcDbEntity
  8
0
  6
CONTINUOUS
 62
     7
100
AcDbLine
 10
245.390401
 20
146.699424
 30
0.0
 11
245.308653
 21
146.652232
 31
0.0
  0
LINE
  5
742
330
737
100
AcDbEntity
  8
0
  6
CONTINUOUS
 62
     7
100
AcDbLine
 10
245.308653
 20
146.652232
 30
0.0
 11
245.22353
 21
146.603088
 31
0.0
  0
ENDBLK
  5
739
330
737
100
AcDbEntity
  8
0
100
AcDbBlockEnd
  0
BLOCK
  5
744
330
743
100
AcDbEntity
  8
0
100
AcDbBlockBegin
  2
BLKF058
 70
     0
 71
     0
 10
0.0
 20
0.0
 30
0.0
  3
BLKF058
  1

  0
LINE
  5
747
330
743
100
AcDbEntity
  8
0
  6
CONTINUOUS
 62
     7
100
AcDbLine
 10
245.806664
 20
146.939765
 30
0.0
 11
245.875371
 21
146.820784
 31
0.0
  0
LINE
  5
748
330
743
100
AcDbEntity
  8
0
  6
CONTINUOUS
 62
     7
100
AcDbLine
 10
245.875371
 20
146.820784
 30
0.0
 11
245.909719
 21
146.761291
 31
0.0
  0
LINE
  5
749
330
743
100
AcDbEntity
  8
0
  6
CONTINUOUS
 62
     7
100
AcDbLine
 10
245.909719
 20
146.761291
 30
0.0
 11
245.944061
 21
146.701793
 31
0.0
  0
LINE
  5
74A
330
743
100
AcDbEntity
  8
0
  6
CONTINUOUS
 62
     7
100
AcDbLine
 10
245.944061
 20
146.701793
 30
0.0
 11
245.956667
 21
146.679948
 31
0.0
  0
ENDBLK
  5
745
330
743
100
AcDbEntity
  8
0
100
AcDbBlockEnd
  0
BLOCK
  5
74C
330
74B
100
AcDbEntity
  8
0
100
AcDbBlockBegin
  2
BLKF059
 70
     0
 71
     0
 10
0.0
 20
0.0
 30
0.0
  3
BLKF059
  1

  0
LINE
  5
74F
330
74B
100
AcDbEntity
  8
0
  6
CONTINUOUS
 62
     7
100
AcDbLine
 10
245.956667
 20
146.679948
 30
0.0
 11
245.863252
 21
146.626021
 31
0.0
  0
LINE
  5
750
330
74B
100
AcDbEntity
  8
0
  6
CONTINUOUS
 62
     7
100
AcDbLine
 10
245.863252
 20
146.626021
 30
0.0
 11
245.750435
 21
146.560888
 31
0.0
  0
LINE
  5
751
330
74B
100
AcDbEntity
  8
0
  6
CONTINUOUS
 62
     7
100
AcDbLine
 10
245.750435
 20
146.560888
 30
0.0
 11
245.68753
 21
146.524559
 31
0.0
  0
ENDBLK
  5
74D
330
74B
100
AcDbEntity
  8
0
100
AcDbBlockEnd
  0
BLOCK
  5
753
330
752
100
AcDbEntity
  8
0
100
AcDbBlockBegin
  2
BLKF060
 70
     0
 71
     0
 10
0.0
 20
0.0
 30
0.0
  3
BLKF060
  1

  0
LINE
  5
756
330
752
100
AcDbEntity
  8
0
  6
CONTINUOUS
 62
     7
100
AcDbLine
 10
236.863517
 20
141.776423
 30
0.0
 11
236.778401
 21
141.727279
 31
0.0
  0
LINE
  5
757
330
752
100
AcDbEntity
  8
0
  6
CONTINUOUS
 62
     7
100
AcDbLine
 10
236.778401
 20
141.727279
 30
0.0
 11
236.696653
 21
141.680087
 31
0.0
  0
LINE
  5
758
330
752
100
AcDbEntity
  8
0
  6
CONTINUOUS
 62
     7
100
AcDbLine
 10
236.696653
 20
141.680087
 30
0.0
 11
236.61834
 21
141.634877
 31
0.0
  0
LINE
  5
759
330
752
100
AcDbEntity
  8
0
  6
CONTINUOUS
 62
     7
100
AcDbLine
 10
236.61834
 20
141.634877
 30
0.0
 11
236.543529
 21
141.591679
 31
0.0
  0
LINE
  5
75A
330
752
100
AcDbEntity
  8
0
  6
CONTINUOUS
 62
     7
100
AcDbLine
 10
236.543529
 20
141.591679
 30
0.0
 11
236.472264
 21
141.550537
 31
0.0
  0
LINE
  5
75B
330
752
100
AcDbEntity
  8
0
  6
CONTINUOUS
 62
     7
100
AcDbLine
 10
236.472264
 20
141.550537
 30
0.0
 11
236.40462
 21
141.511481
 31
0.0
  0
LINE
  5
75C
330
752
100
AcDbEntity
  8
0
  6
CONTINUOUS
 62
     7
100
AcDbLine
 10
236.40462
 20
141.511481
 30
0.0
 11
236.34065
 21
141.474556
 31
0.0
  0
LINE
  5
75D
330
752
100
AcDbEntity
  8
0
  6
CONTINUOUS
 62
     7
100
AcDbLine
 10
236.34065
 20
141.474556
 30
0.0
 11
236.280382
 21
141.439761
 31
0.0
  0
ENDBLK
  5
754
330
752
100
AcDbEntity
  8
0
100
AcDbBlockEnd
  0
BLOCK
  5
777
330
776
100
AcDbEntity
  8
0
100
AcDbBlockBegin
  2
BLKF061
 70
     0
 71
     0
 10
0.0
 20
0.0
 30
0.0
  3
BLKF061
  1

  0
LINE
  5
77A
330
776
100
AcDbEntity
  8
0
  6
CONTINUOUS
 62
     7
100
AcDbLine
 10
253.871218
 20
155.298631
 30
0.0
 11
254.014969
 21
155.197974
 31
0.0
  0
LINE
  5
77B
330
776
100
AcDbEntity
  8
0
  6
CONTINUOUS
 62
     7
100
AcDbLine
 10
254.014969
 20
155.197974
 30
0.0
 11
254.433446
 21
154.904957
 31
0.0
  0
LINE
  5
77C
330
776
100
AcDbEntity
  8
0
  6
CONTINUOUS
 62
     7
100
AcDbLine
 10
254.433446
 20
154.904957
 30
0.0
 11
255.08947
 21
154.445599
 31
0.0
  0
LINE
  5
77D
330
776
100
AcDbEntity
  8
0
  6
CONTINUOUS
 62
     7
100
AcDbLine
 10
255.08947
 20
154.445599
 30
0.0
 11
255.924754
 21
153.860729
 31
0.0
  0
LINE
  5
77E
330
776
100
AcDbEntity
  8
0
  6
CONTINUOUS
 62
     7
100
AcDbLine
 10
255.924754
 20
153.860729
 30
0.0
 11
256.86507
 21
153.202306
 31
0.0
  0
LINE
  5
77F
330
776
100
AcDbEntity
  8
0
  6
CONTINUOUS
 62
     7
100
AcDbLine
 10
256.86507
 20
153.202306
 30
0.0
 11
257.826865
 21
152.528848
 31
0.0
  0
LINE
  5
780
330
776
100
AcDbEntity
  8
0
  6
CONTINUOUS
 62
     7
100
AcDbLine
 10
257.826865
 20
152.528848
 30
0.0
 11
258.72469
 21
151.900183
 31
0.0
  0
LINE
  5
781
330
776
100
AcDbEntity
  8
0
  6
CONTINUOUS
 62
     7
100
AcDbLine
 10
258.72469
 20
151.900183
 30
0.0
 11
259.47877
 21
151.372175
 31
0.0
  0
LINE
  5
782
330
776
100
AcDbEntity
  8
0
  6
CONTINUOUS
 62
     7
100
AcDbLine
 10
259.47877
 20
151.372175
 30
0.0
 11
260.022089
 21
150.991748
 31
0.0
  0
LINE
  5
783
330
776
100
AcDbEntity
  8
0
  6
CONTINUOUS
 62
     7
100
AcDbLine
 10
260.022089
 20
150.991748
 30
0.0
 11
260.306381
 21
150.792684
 31
0.0
  0
LINE
  5
784
330
776
100
AcDbEntity
  8
0
  6
CONTINUOUS
 62
     7
100
AcDbLine
 10
260.306381
 20
150.792684
 30
0.0
 11
260.342516
 21
150.767382
 31
0.0
  0
ENDBLK
  5
778
330
776
100
AcDbEntity
  8
0
100
AcDbBlockEnd
  0
BLOCK
  5
786
330
785
100
AcDbEntity
  8
0
100
AcDbBlockBegin
  2
BLKF062
 70
     0
 71
     0
 10
0.0
 20
0.0
 30
0.0
  3
BLKF062
  1

  0
ARC
  5
789
330
785
100
AcDbEntity
  8
CSLAYER3
  6
CONTINUOUS
 62
     3
100
AcDbCircle
 10
245.504506
 20
136.463113
 30
0.0
 40
29.62683761350064
100
AcDbArc
 50
55.0
 51
120.0
  0
LINE
  5
78A
330
785
100
AcDbEntity
  8
CSLAYER3
  6
CONTINUOUS
 62
     3
100
AcDbLine
 10
261.114146
 20
162.272385
 30
0.0
 11
262.497762
 21
160.731998
 31
0.0
  0
LINE
  5
78B
330
785
100
AcDbEntity
  8
CSLAYER3
  6
CONTINUOUS
 62
     3
100
AcDbLine
 10
262.497762
 20
160.731998
 30
0.0
 11
260.529322
 21
161.374205
 31
0.0
  0
LINE
  5
78C
330
785
100
AcDbEntity
  8
CSLAYER3
  6
CONTINUOUS
 62
     3
100
AcDbLine
 10
262.497762
 20
160.731998
 30
0.0
 11
260.821734
 21
161.823295
 31
0.0
  0
LINE
  5
78D
330
785
100
AcDbEntity
  8
CSLAYER3
  6
CONTINUOUS
 62
     3
100
AcDbLine
 10
232.708009
 20
162.58891
 30
0.0
 11
230.691087
 21
162.120707
 31
0.0
  0
LINE
  5
78E
330
785
100
AcDbEntity
  8
CSLAYER3
  6
CONTINUOUS
 62
     3
100
AcDbLine
 10
230.691087
 20
162.120707
 30
0.0
 11
232.203692
 21
163.534643
 31
0.0
  0
LINE
  5
78F
330
785
100
AcDbEntity
  8
CSLAYER3
  6
CONTINUOUS
 62
     3
100
AcDbLine
 10
230.691087
 20
162.120707
 30
0.0
 11
232.45585
 21
163.061776
 31
0.0
  0
TEXT
  5
790
330
785
100
AcDbEntity
  8
CSLAYER3
 62
     3
100
AcDbText
 10
244.42131
 20
166.763199
 30
0.0
 40
3.0
  1
65°
 50
355.434784
 41
0.801818
  7
ED_VECTOR
 72
     5
 11
250.701323
 21
166.261758
 31
0.0
100
AcDbText
  0
ENDBLK
  5
787
330
785
100
AcDbEntity
  8
0
100
AcDbBlockEnd
  0
ENDSEC
  0
SECTION
  2
ENTITIES
  0
TEXT
  5
6F
330
1F
100
AcDbEntity
  8
CSLAYER3
 62
     3
100
AcDbText
 10
20.0
 20
273.466034
 30
0.0
 40
12.7
  1
BM320
 41
0.720588
  7
ED_VECTOR
 72
     5
 11
64.450002
 21
273.466034
 31
0.0
100
AcDbText
  0
LINE
  5
70
330
1F
100
AcDbEntity
  8
0
  6
CONTINUOUS
 62
     7
100
AcDbLine
 10
171.1903
 20
185.116174
 30
0.0
 11
171.1903
 21
211.795838
 31
0.0
  0
LINE
  5
71
330
1F
100
AcDbEntity
  8
0
  6
CONTINUOUS
 62
     7
100
AcDbLine
 10
164.690298
 20
211.795838
 30
0.0
 11
164.690298
 21
185.734676
 31
0.0
  0
LINE
  5
72
330
1F
100
AcDbEntity
  8
0
  6
CONTINUOUS
 62
     7
100
AcDbLine
 10
176.990298
 20
247.09584
 30
0.0
 11
176.990298
 21
251.295836
 31
0.0
  0
LINE
  5
73
330
1F
100
AcDbEntity
  8
0
  6
CONTINUOUS
 62
     7
100
AcDbLine
 10
158.890301
 20
251.295836
 30
0.0
 11
158.890301
 21
247.09584
 31
0.0
  0
LINE
  5
74
330
1F
100
AcDbEntity
  8
0
  6
CONTINUOUS
 62
     7
100
AcDbLine
 10
176.990298
 20
253.795834
 30
0.0
 11
176.990298
 21
258.795829
 31
0.0
  0
LINE
  5
75
330
1F
100
AcDbEntity
  8
0
  6
CONTINUOUS
 62
     7
100
AcDbLine
 10
158.890301
 20
258.795829
 30
0.0
 11
158.890301
 21
253.795834
 31
0.0
  0
LINE
  5
76
330
1F
100
AcDbEntity
  8
0
  6
CONTINUOUS
 62
     7
100
AcDbLine
 10
158.990299
 20
229.645835
 30
0.0
 11
159.440299
 21
220.845835
 31
0.0
  0
LINE
  5
77
330
1F
100
AcDbEntity
  8
0
  6
CONTINUOUS
 62
     7
100
AcDbLine
 10
176.4403
 20
220.845835
 30
0.0
 11
176.8903
 21
229.645835
 31
0.0
  0
LINE
  5
78
330
1F
100
AcDbEntity
  8
0
  6
CONTINUOUS
 62
     7
100
AcDbLine
 10
176.8903
 20
237.39584
 30
0.0
 11
176.8903
 21
242.395835
 31
0.0
  0
LINE
  5
79
330
1F
100
AcDbEntity
  8
0
  6
CONTINUOUS
 62
     7
100
AcDbLine
 10
176.8903
 20
229.645835
 30
0.0
 11
176.8903
 21
231.445836
 31
0.0
  0
LINE
  5
7A
330
1F
100
AcDbEntity
  8
0
  6
CONTINUOUS
 62
     7
100
AcDbLine
 10
158.990299
 20
231.445836
 30
0.0
 11
158.990299
 21
229.645835
 31
0.0
  0
LINE
  5
7B
330
1F
100
AcDbEntity
  8
0
  6
CONTINUOUS
 62
     7
100
AcDbLine
 10
158.990299
 20
242.395835
 30
0.0
 11
158.990299
 21
237.39584
 31
0.0
  0
LINE
  5
7C
330
1F
100
AcDbEntity
  8
0
  6
CONTINUOUS
 62
     7
100
AcDbLine
 10
176.8903
 20
242.395835
 30
0.0
 11
176.390299
 21
242.895828
 31
0.0
  0
LINE
  5
7D
330
1F
100
AcDbEntity
  8
0
  6
CONTINUOUS
 62
     7
100
AcDbLine
 10
159.4903
 20
242.895828
 30
0.0
 11
158.990299
 21
242.395835
 31
0.0
  0
LINE
  5
7E
330
1F
100
AcDbEntity
  8
0
  6
CONTINUOUS
 62
     7
100
AcDbLine
 10
176.740297
 20
246.095838
 30
0.0
 11
176.740297
 21
247.09584
 31
0.0
  0
LINE
  5
7F
330
1F
100
AcDbEntity
  8
0
  6
CONTINUOUS
 62
     7
100
AcDbLine
 10
159.140297
 20
247.09584
 30
0.0
 11
159.140297
 21
246.095838
 31
0.0
  0
LINE
  5
80
330
1F
100
AcDbEntity
  8
0
  6
CONTINUOUS
 62
     7
100
AcDbLine
 10
176.740297
 20
251.295836
 30
0.0
 11
176.740297
 21
253.795834
 31
0.0
  0
LINE
  5
81
330
1F
100
AcDbEntity
  8
0
  6
CONTINUOUS
 62
     7
100
AcDbLine
 10
159.140297
 20
253.795834
 30
0.0
 11
159.140297
 21
251.295836
 31
0.0
  0
LINE
  5
82
330
1F
100
AcDbEntity
  8
0
  6
CONTINUOUS
 62
     7
100
AcDbLine
 10
176.740297
 20
258.795829
 30
0.0
 11
176.740297
 21
259.895833
 31
0.0
  0
LINE
  5
83
330
1F
100
AcDbEntity
  8
0
  6
CONTINUOUS
 62
     7
100
AcDbLine
 10
159.140297
 20
259.895833
 30
0.0
 11
159.140297
 21
258.795829
 31
0.0
  0
LINE
  5
84
330
1F
100
AcDbEntity
  8
0
  6
CONTINUOUS
 62
     7
100
AcDbLine
 10
176.390299
 20
242.895828
 30
0.0
 11
176.390299
 21
246.095838
 31
0.0
  0
LINE
  5
85
330
1F
100
AcDbEntity
  8
0
  6
CONTINUOUS
 62
     7
100
AcDbLine
 10
159.4903
 20
246.095838
 30
0.0
 11
159.4903
 21
242.895828
 31
0.0
  0
LINE
  5
86
330
1F
100
AcDbEntity
  8
0
  6
CONTINUOUS
 62
     7
100
AcDbLine
 10
175.940299
 20
259.895833
 30
0.0
 11
175.940299
 21
264.295833
 31
0.0
  0
LINE
  5
87
330
1F
100
AcDbEntity
  8
0
  6
CONTINUOUS
 62
     7
100
AcDbLine
 10
159.9403
 20
264.295833
 30
0.0
 11
159.9403
 21
259.895833
 31
0.0
  0
LINE
  5
88
330
1F
100
AcDbEntity
  8
0
  6
CONTINUOUS
 62
     7
100
AcDbLine
 10
175.440298
 20
214.79583
 30
0.0
 11
175.440298
 21
220.845835
 31
0.0
  0
LINE
  5
89
330
1F
100
AcDbEntity
  8
0
  6
CONTINUOUS
 62
     7
100
AcDbLine
 10
160.440301
 20
220.845835
 30
0.0
 11
160.440301
 21
214.79583
 31
0.0
  0
LINE
  5
8A
330
1F
100
AcDbEntity
  8
0
  6
CONTINUOUS
 62
     7
100
AcDbLine
 10
174.790298
 20
264.295833
 30
0.0
 11
174.790298
 21
268.795835
 31
0.0
  0
LINE
  5
8B
330
1F
100
AcDbEntity
  8
0
  6
CONTINUOUS
 62
     7
100
AcDbLine
 10
161.090301
 20
268.795835
 30
0.0
 11
161.090301
 21
264.295833
 31
0.0
  0
LINE
  5
8C
330
1F
100
AcDbEntity
  8
0
  6
CONTINUOUS
 62
     7
100
AcDbLine
 10
167.826646
 20
211.795838
 30
0.0
 11
167.826646
 21
214.79583
 31
0.0
  0
LINE
  5
8D
330
1F
100
AcDbEntity
  8
0
  6
CONTINUOUS
 62
     7
100
AcDbLine
 10
168.053952
 20
214.79583
 30
0.0
 11
168.053952
 21
211.795838
 31
0.0
  0
LINE
  5
8E
330
1F
100
AcDbEntity
  8
0
  6
CONTINUOUS
 62
     7
100
AcDbLine
 10
168.053952
 20
211.795838
 30
0.0
 11
167.826646
 21
211.795838
 31
0.0
  0
LINE
  5
8F
330
1F
100
AcDbEntity
  8
0
  6
CONTINUOUS
 62
     7
100
AcDbLine
 10
168.053952
 20
214.79583
 30
0.0
 11
167.826646
 21
214.79583
 31
0.0
  0
LINE
  5
90
330
1F
100
AcDbEntity
  8
0
  6
CONTINUOUS
 62
     7
100
AcDbLine
 10
159.55395
 20
214.79583
 30
0.0
 11
159.55395
 21
211.795838
 31
0.0
  0
LINE
  5
91
330
1F
100
AcDbEntity
  8
0
  6
CONTINUOUS
 62
     7
100
AcDbLine
 10
167.826646
 20
211.795838
 30
0.0
 11
159.55395
 21
211.795838
 31
0.0
  0
LINE
  5
92
330
1F
100
AcDbEntity
  8
0
  6
CONTINUOUS
 62
     7
100
AcDbLine
 10
167.826646
 20
214.79583
 30
0.0
 11
159.55395
 21
214.79583
 31
0.0
  0
LINE
  5
93
330
1F
100
AcDbEntity
  8
0
  6
CONTINUOUS
 62
     7
100
AcDbLine
 10
176.326648
 20
211.795838
 30
0.0
 11
176.326648
 21
214.79583
 31
0.0
  0
LINE
  5
94
330
1F
100
AcDbEntity
  8
0
  6
CONTINUOUS
 62
     7
100
AcDbLine
 10
176.326648
 20
211.795838
 30
0.0
 11
168.053952
 21
211.795838
 31
0.0
  0
LINE
  5
95
330
1F
100
AcDbEntity
  8
0
  6
CONTINUOUS
 62
     7
100
AcDbLine
 10
176.326648
 20
214.79583
 30
0.0
 11
168.053952
 21
214.79583
 31
0.0
  0
LINE
  5
96
330
1F
100
AcDbEntity
  8
0
  6
CONTINUOUS
 62
     7
100
AcDbLine
 10
167.940297
 20
251.295836
 30
0.0
 11
158.890301
 21
251.295836
 31
0.0
  0
LINE
  5
97
330
1F
100
AcDbEntity
  8
0
  6
CONTINUOUS
 62
     7
100
AcDbLine
 10
176.990298
 20
251.295836
 30
0.0
 11
167.940297
 21
251.295836
 31
0.0
  0
LINE
  5
98
330
1F
100
AcDbEntity
  8
0
  6
CONTINUOUS
 62
     7
100
AcDbLine
 10
167.940297
 20
247.09584
 30
0.0
 11
158.890301
 21
247.09584
 31
0.0
  0
LINE
  5
99
330
1F
100
AcDbEntity
  8
0
  6
CONTINUOUS
 62
     7
100
AcDbLine
 10
176.990298
 20
247.09584
 30
0.0
 11
167.940297
 21
247.09584
 31
0.0
  0
LINE
  5
9A
330
1F
100
AcDbEntity
  8
0
  6
CONTINUOUS
 62
     7
100
AcDbLine
 10
167.940297
 20
258.795829
 30
0.0
 11
158.890301
 21
258.795829
 31
0.0
  0
LINE
  5
9B
330
1F
100
AcDbEntity
  8
0
  6
CONTINUOUS
 62
     7
100
AcDbLine
 10
176.990298
 20
258.795829
 30
0.0
 11
167.940297
 21
258.795829
 31
0.0
  0
LINE
  5
9C
330
1F
100
AcDbEntity
  8
0
  6
CONTINUOUS
 62
     7
100
AcDbLine
 10
167.940297
 20
253.795834
 30
0.0
 11
158.890301
 21
253.795834
 31
0.0
  0
LINE
  5
9D
330
1F
100
AcDbEntity
  8
0
  6
CONTINUOUS
 62
     7
100
AcDbLine
 10
176.990298
 20
253.795834
 30
0.0
 11
167.940297
 21
253.795834
 31
0.0
  0
LINE
  5
9E
330
1F
100
AcDbEntity
  8
0
  6
CONTINUOUS
 62
     7
100
AcDbLine
 10
167.940297
 20
229.645835
 30
0.0
 11
158.990299
 21
229.645835
 31
0.0
  0
LINE
  5
9F
330
1F
100
AcDbEntity
  8
0
  6
CONTINUOUS
 62
     7
100
AcDbLine
 10
176.8903
 20
229.645835
 30
0.0
 11
167.940297
 21
229.645835
 31
0.0
  0
LINE
  5
A0
330
1F
100
AcDbEntity
  8
0
  6
CONTINUOUS
 62
     7
100
AcDbLine
 10
167.940297
 20
220.845835
 30
0.0
 11
159.440299
 21
220.845835
 31
0.0
  0
LINE
  5
A1
330
1F
100
AcDbEntity
  8
0
  6
CONTINUOUS
 62
     7
100
AcDbLine
 10
176.4403
 20
220.845835
 30
0.0
 11
167.940297
 21
220.845835
 31
0.0
  0
LINE
  5
A2
330
1F
100
AcDbEntity
  8
0
  6
CONTINUOUS
 62
     7
100
AcDbLine
 10
167.940297
 20
242.395835
 30
0.0
 11
158.990299
 21
242.395835
 31
0.0
  0
LINE
  5
A3
330
1F
100
AcDbEntity
  8
0
  6
CONTINUOUS
 62
     7
100
AcDbLine
 10
176.8903
 20
242.395835
 30
0.0
 11
167.940297
 21
242.395835
 31
0.0
  0
LINE
  5
A4
330
1F
100
AcDbEntity
  8
0
  6
CONTINUOUS
 62
     7
100
AcDbLine
 10
159.9653
 20
231.445836
 30
0.0
 11
158.990299
 21
231.445836
 31
0.0
  0
LINE
  5
A5
330
1F
100
AcDbEntity
  8
0
  6
CONTINUOUS
 62
     7
100
AcDbLine
 10
159.9653
 20
237.39584
 30
0.0
 11
159.9653
 21
231.445836
 31
0.0
  0
LINE
  5
A6
330
1F
100
AcDbEntity
  8
0
  6
CONTINUOUS
 62
     7
100
AcDbLine
 10
158.990299
 20
237.39584
 30
0.0
 11
159.9653
 21
237.39584
 31
0.0
  0
LINE
  5
A7
330
1F
100
AcDbEntity
  8
0
  6
CONTINUOUS
 62
     7
100
AcDbLine
 10
175.915298
 20
237.39584
 30
0.0
 11
176.8903
 21
237.39584
 31
0.0
  0
LINE
  5
A8
330
1F
100
AcDbEntity
  8
0
  6
CONTINUOUS
 62
     7
100
AcDbLine
 10
175.915298
 20
231.445836
 30
0.0
 11
175.915298
 21
237.39584
 31
0.0
  0
LINE
  5
A9
330
1F
100
AcDbEntity
  8
0
  6
CONTINUOUS
 62
     7
100
AcDbLine
 10
176.8903
 20
231.445836
 30
0.0
 11
175.915298
 21
231.445836
 31
0.0
  0
LINE
  5
AA
330
1F
100
AcDbEntity
  8
0
  6
CONTINUOUS
 62
     7
100
AcDbLine
 10
167.940297
 20
242.895828
 30
0.0
 11
159.4903
 21
242.895828
 31
0.0
  0
LINE
  5
AB
330
1F
100
AcDbEntity
  8
0
  6
CONTINUOUS
 62
     7
100
AcDbLine
 10
176.390299
 20
242.895828
 30
0.0
 11
167.940297
 21
242.895828
 31
0.0
  0
LINE
  5
AC
330
1F
100
AcDbEntity
  8
0
  6
CONTINUOUS
 62
     7
100
AcDbLine
 10
167.940297
 20
246.095838
 30
0.0
 11
159.140297
 21
246.095838
 31
0.0
  0
LINE
  5
AD
330
1F
100
AcDbEntity
  8
0
  6
CONTINUOUS
 62
     7
100
AcDbLine
 10
176.740297
 20
246.095838
 30
0.0
 11
167.940297
 21
246.095838
 31
0.0
  0
LINE
  5
AE
330
1F
100
AcDbEntity
  8
0
  6
CONTINUOUS
 62
     7
100
AcDbLine
 10
167.940297
 20
259.895833
 30
0.0
 11
159.140297
 21
259.895833
 31
0.0
  0
LINE
  5
AF
330
1F
100
AcDbEntity
  8
0
  6
CONTINUOUS
 62
     7
100
AcDbLine
 10
176.740297
 20
259.895833
 30
0.0
 11
167.940297
 21
259.895833
 31
0.0
  0
LINE
  5
B0
330
1F
100
AcDbEntity
  8
0
  6
CONTINUOUS
 62
     7
100
AcDbLine
 10
167.940297
 20
264.295833
 30
0.0
 11
159.9403
 21
264.295833
 31
0.0
  0
LINE
  5
B1
330
1F
100
AcDbEntity
  8
0
  6
CONTINUOUS
 62
     7
100
AcDbLine
 10
175.940299
 20
264.295833
 30
0.0
 11
167.940297
 21
264.295833
 31
0.0
  0
LINE
  5
B2
330
1F
100
AcDbEntity
  8
0
  6
CONTINUOUS
 62
     7
100
AcDbLine
 10
167.940297
 20
268.795835
 30
0.0
 11
161.090301
 21
268.795835
 31
0.0
  0
LINE
  5
B3
330
1F
100
AcDbEntity
  8
0
  6
CONTINUOUS
 62
     7
100
AcDbLine
 10
174.790298
 20
268.795835
 30
0.0
 11
167.940297
 21
268.795835
 31
0.0
  0
LINE
  5
B4
330
1F
100
AcDbEntity
  8
0
  6
CONTINUOUS
 62
     7
100
AcDbLine
 10
176.4403
 20
214.79583
 30
0.0
 11
176.4403
 21
211.795838
 31
0.0
  0
LINE
  5
B5
330
1F
100
AcDbEntity
  8
0
  6
CONTINUOUS
 62
     7
100
AcDbLine
 10
176.4403
 20
211.795838
 30
0.0
 11
176.326648
 21
211.795838
 31
0.0
  0
LINE
  5
B6
330
1F
100
AcDbEntity
  8
0
  6
CONTINUOUS
 62
     7
100
AcDbLine
 10
176.4403
 20
214.79583
 30
0.0
 11
176.326648
 21
214.79583
 31
0.0
  0
LINE
  5
B7
330
1F
100
AcDbEntity
  8
0
  6
CONTINUOUS
 62
     7
100
AcDbLine
 10
159.440299
 20
211.795838
 30
0.0
 11
159.440299
 21
214.79583
 31
0.0
  0
LINE
  5
B8
330
1F
100
AcDbEntity
  8
0
  6
CONTINUOUS
 62
     7
100
AcDbLine
 10
159.55395
 20
211.795838
 30
0.0
 11
159.440299
 21
211.795838
 31
0.0
  0
LINE
  5
B9
330
1F
100
AcDbEntity
  8
0
  6
CONTINUOUS
 62
     7
100
AcDbLine
 10
159.55395
 20
214.79583
 30
0.0
 11
159.440299
 21
214.79583
 31
0.0
  0
LINE
  5
BA
330
1F
100
AcDbEntity
  8
0
  6
CONTINUOUS
 62
     7
100
AcDbLine
 10
91.9403
 20
127.484993
 30
0.0
 11
148.040299
 21
127.484993
 31
0.0
  0
LINE
  5
BB
330
1F
100
AcDbEntity
  8
0
  6
CONTINUOUS
 62
     7
100
AcDbLine
 10
148.040299
 20
147.484989
 30
0.0
 11
91.9403
 21
147.484989
 31
0.0
  0
LINE
  5
BC
330
1F
100
AcDbEntity
  8
0
  6
CONTINUOUS
 62
     7
100
AcDbLine
 10
89.973432
 20
127.494992
 30
0.0
 11
91.9403
 21
127.494992
 31
0.0
  0
LINE
  5
BD
330
1F
100
AcDbEntity
  8
0
  6
CONTINUOUS
 62
     7
100
AcDbLine
 10
91.9403
 20
147.474991
 30
0.0
 11
89.973432
 21
147.474991
 31
0.0
  0
LINE
  5
BE
330
1F
100
AcDbEntity
  8
0
  6
CONTINUOUS
 62
     7
100
AcDbLine
 10
89.973432
 20
147.474991
 30
0.0
 11
87.940299
 21
146.734999
 31
0.0
  0
LINE
  5
BF
330
1F
100
AcDbEntity
  8
0
  6
CONTINUOUS
 62
     7
100
AcDbLine
 10
87.940299
 20
128.234999
 30
0.0
 11
89.973432
 21
127.494992
 31
0.0
  0
LINE
  5
C0
330
1F
100
AcDbEntity
  8
0
  6
CONTINUOUS
 62
     7
100
AcDbLine
 10
148.040299
 20
127.494992
 30
0.0
 11
161.140298
 21
127.494992
 31
0.0
  0
LINE
  5
C1
330
1F
100
AcDbEntity
  8
0
  6
CONTINUOUS
 62
     7
100
AcDbLine
 10
161.140298
 20
147.474991
 30
0.0
 11
148.040299
 21
147.474991
 31
0.0
  0
LINE
  5
C2
330
1F
100
AcDbEntity
  8
0
  6
CONTINUOUS
 62
     7
100
AcDbLine
 10
161.140298
 20
127.494992
 30
0.0
 11
161.240299
 21
127.594994
 31
0.0
  0
LINE
  5
C3
330
1F
100
AcDbEntity
  8
0
  6
CONTINUOUS
 62
     7
100
AcDbLine
 10
161.240299
 20
147.374989
 30
0.0
 11
161.140298
 21
147.474991
 31
0.0
  0
LINE
  5
C4
330
1F
100
AcDbEntity
  8
0
  6
CONTINUOUS
 62
     7
100
AcDbLine
 10
82.840298
 20
132.784994
 30
0.0
 11
82.9403
 21
132.884995
 31
0.0
  0
LINE
  5
C5
330
1F
100
AcDbEntity
  8
0
  6
CONTINUOUS
 62
     7
100
AcDbLine
 10
82.9403
 20
142.085002
 30
0.0
 11
82.840298
 21
142.184989
 31
0.0
  0
LINE
  5
C6
330
1F
100
AcDbEntity
  8
0
  6
CONTINUOUS
 62
     7
100
AcDbLine
 10
82.840298
 20
142.184989
 30
0.0
 11
82.518795
 21
142.184989
 31
0.0
  0
LINE
  5
C7
330
1F
100
AcDbEntity
  8
0
  6
CONTINUOUS
 62
     7
100
AcDbLine
 10
82.518795
 20
132.784994
 30
0.0
 11
82.840298
 21
132.784994
 31
0.0
  0
LINE
  5
C8
330
1F
100
AcDbEntity
  8
0
  6
CONTINUOUS
 62
     7
100
AcDbLine
 10
82.9403
 20
132.884995
 30
0.0
 11
85.540299
 21
132.884995
 31
0.0
  0
LINE
  5
C9
330
1F
100
AcDbEntity
  8
0
  6
CONTINUOUS
 62
     7
100
AcDbLine
 10
85.540299
 20
142.085002
 30
0.0
 11
82.9403
 21
142.085002
 31
0.0
  0
LINE
  5
CA
330
1F
100
AcDbEntity
  8
0
  6
CONTINUOUS
 62
     7
100
AcDbLine
 10
74.869198
 20
131.585003
 30
0.0
 11
75.018798
 21
131.734998
 31
0.0
  0
LINE
  5
CB
330
1F
100
AcDbEntity
  8
0
  6
CONTINUOUS
 62
     7
100
AcDbLine
 10
75.018798
 20
143.234999
 30
0.0
 11
74.869198
 21
143.384994
 31
0.0
  0
ARC
  5
CC
330
1F
100
AcDbEntity
  8
0
  6
CONTINUOUS
 62
     7
100
AcDbCircle
 10
81.718799
 20
142.584999
 30
0.0
 40
0.7999955287441553
100
AcDbArc
 50
-0.000223
 51
90.000223
  0
ARC
  5
CD
330
1F
100
AcDbEntity
  8
0
  6
CONTINUOUS
 62
     7
100
AcDbCircle
 10
81.71882
 20
132.384978
 30
0.0
 40
0.799974360492229
100
AcDbArc
 50
-90.001739
 51
0.001739
  0
ARC
  5
CE
330
1F
100
AcDbEntity
  8
0
  6
CONTINUOUS
 62
     7
100
AcDbCircle
 10
74.577627
 20
142.385057
 30
0.0
 40
0.9999376034023181
100
AcDbArc
 50
89.999157
 51
120.001158
  0
ARC
  5
CF
330
1F
100
AcDbEntity
  8
0
  6
CONTINUOUS
 62
     7
100
AcDbCircle
 10
74.577627
 20
132.585035
 30
0.0
 40
1.000031826456751
100
AcDbArc
 50
240.001996
 51
270.000875
  0
LINE
  5
D0
330
1F
100
AcDbEntity
  8
0
  6
CONTINUOUS
 62
     7
100
AcDbLine
 10
78.169198
 20
131.585003
 30
0.0
 11
81.718796
 21
131.585003
 31
0.0
  0
LINE
  5
D1
330
1F
100
AcDbEntity
  8
0
  6
CONTINUOUS
 62
     7
100
AcDbLine
 10
81.718796
 20
143.384994
 30
0.0
 11
78.169198
 21
143.384994
 31
0.0
  0
LINE
  5
D2
330
1F
100
AcDbEntity
  8
0
  6
CONTINUOUS
 62
     7
100
AcDbLine
 10
74.577642
 20
131.585003
 30
0.0
 11
74.869198
 21
131.585003
 31
0.0
  0
LINE
  5
D3
330
1F
100
AcDbEntity
  8
0
  6
CONTINUOUS
 62
     7
100
AcDbLine
 10
74.869198
 20
143.384994
 30
0.0
 11
74.577642
 21
143.384994
 31
0.0
  0
LINE
  5
D4
330
1F
100
AcDbEntity
  8
0
  6
CONTINUOUS
 62
     7
100
AcDbLine
 10
78.169198
 20
143.384994
 30
0.0
 11
78.018797
 21
143.234999
 31
0.0
  0
LINE
  5
D5
330
1F
100
AcDbEntity
  8
0
  6
CONTINUOUS
 62
     7
100
AcDbLine
 10
78.018797
 20
131.734998
 30
0.0
 11
78.169198
 21
131.585003
 31
0.0
  0
LINE
  5
D6
330
1F
100
AcDbEntity
  8
0
  6
CONTINUOUS
 62
     7
100
AcDbLine
 10
74.077641
 20
143.251018
 30
0.0
 11
71.518795
 21
141.773672
 31
0.0
  0
LINE
  5
D7
330
1F
100
AcDbEntity
  8
0
  6
CONTINUOUS
 62
     7
100
AcDbLine
 10
71.518795
 20
133.196325
 30
0.0
 11
74.077641
 21
131.718965
 31
0.0
  0
ARC
  5
D8
330
1F
100
AcDbEntity
  8
0
  6
CONTINUOUS
 62
     7
100
AcDbCircle
 10
72.01879
 20
134.062345
 30
0.0
 40
0.9999920836679496
100
AcDbArc
 50
179.999632
 51
240.000082
  0
ARC
  5
D9
330
1F
100
AcDbEntity
  8
0
  6
CONTINUOUS
 62
     7
100
AcDbCircle
 10
72.018806
 20
140.907644
 30
0.0
 40
1.000008137145002
100
AcDbArc
 50
120.000449
 51
179.999837
  0
LINE
  5
DA
330
1F
100
AcDbEntity
  8
0
  6
CONTINUOUS
 62
     7
100
AcDbLine
 10
171.540299
 20
159.765826
 30
0.0
 11
171.540299
 21
182.112159
 31
0.0
  0
LINE
  5
DB
330
1F
100
AcDbEntity
  8
0
  6
CONTINUOUS
 62
     7
100
AcDbLine
 10
173.940298
 20
158.033775
 30
0.0
 11
172.9403
 21
159.765826
 31
0.0
  0
LINE
  5
DC
330
1F
100
AcDbEntity
  8
0
  6
CONTINUOUS
 62
     7
100
AcDbLine
 10
162.940298
 20
159.765826
 30
0.0
 11
161.9403
 21
158.033775
 31
0.0
  0
LINE
  5
DD
330
1F
100
AcDbEntity
  8
0
  6
CONTINUOUS
 62
     7
100
AcDbLine
 10
161.9403
 20
155.365826
 30
0.0
 11
162.040298
 21
155.265824
 31
0.0
  0
LINE
  5
DE
330
1F
100
AcDbEntity
  8
0
  6
CONTINUOUS
 62
     7
100
AcDbLine
 10
173.8403
 20
155.265824
 30
0.0
 11
173.940298
 21
155.365826
 31
0.0
  0
LINE
  5
DF
330
1F
100
AcDbEntity
  8
0
  6
CONTINUOUS
 62
     7
100
AcDbLine
 10
173.940298
 20
155.365826
 30
0.0
 11
173.940298
 21
158.033775
 31
0.0
  0
LINE
  5
E0
330
1F
100
AcDbEntity
  8
0
  6
CONTINUOUS
 62
     7
100
AcDbLine
 10
161.9403
 20
158.033775
 30
0.0
 11
161.9403
 21
155.365826
 31
0.0
  0
LINE
  5
E1
330
1F
100
AcDbEntity
  8
0
  6
CONTINUOUS
 62
     7
100
AcDbLine
 10
173.940298
 20
154.765831
 30
0.0
 11
173.440297
 21
155.265824
 31
0.0
  0
LINE
  5
E2
330
1F
100
AcDbEntity
  8
0
  6
CONTINUOUS
 62
     7
100
AcDbLine
 10
162.440297
 20
155.265824
 30
0.0
 11
161.9403
 21
154.765831
 31
0.0
  0
LINE
  5
E3
330
1F
100
AcDbEntity
  8
0
  6
CONTINUOUS
 62
     7
100
AcDbLine
 10
173.640301
 20
144.765825
 30
0.0
 11
173.940298
 21
145.06583
 31
0.0
  0
LINE
  5
E4
330
1F
100
AcDbEntity
  8
0
  6
CONTINUOUS
 62
     7
100
AcDbLine
 10
161.9403
 20
145.06583
 30
0.0
 11
162.240298
 21
144.765825
 31
0.0
  0
LINE
  5
E5
330
1F
100
AcDbEntity
  8
0
  6
CONTINUOUS
 62
     7
100
AcDbLine
 10
161.9403
 20
154.765831
 30
0.0
 11
161.9403
 21
145.06583
 31
0.0
  0
LINE
  5
E6
330
1F
100
AcDbEntity
  8
0
  6
CONTINUOUS
 62
     7
100
AcDbLine
 10
173.940298
 20
145.06583
 30
0.0
 11
173.940298
 21
154.765831
 31
0.0
  0
LINE
  5
E7
330
1F
100
AcDbEntity
  8
0
  6
CONTINUOUS
 62
     7
100
AcDbLine
 10
171.1903
 20
159.765826
 30
0.0
 11
171.1903
 21
182.04795
 31
0.0
  0
LINE
  5
E8
330
1F
100
AcDbEntity
  8
0
  6
CONTINUOUS
 62
     7
100
AcDbLine
 10
164.690298
 20
182.738685
 30
0.0
 11
164.690298
 21
159.765826
 31
0.0
  0
LINE
  5
E9
330
1F
100
AcDbEntity
  8
0
  6
CONTINUOUS
 62
     7
100
AcDbLine
 10
161.7403
 20
128.034995
 30
0.0
 11
161.840298
 21
128.134997
 31
0.0
  0
LINE
  5
EA
330
1F
100
AcDbEntity
  8
0
  6
CONTINUOUS
 62
     7
100
AcDbLine
 10
161.840298
 20
146.835001
 30
0.0
 11
161.7403
 21
146.935002
 31
0.0
  0
LINE
  5
EB
330
1F
100
AcDbEntity
  8
0
  6
CONTINUOUS
 62
     7
100
AcDbLine
 10
161.7403
 20
146.935002
 30
0.0
 11
161.340297
 21
146.935002
 31
0.0
  0
LINE
  5
EC
330
1F
100
AcDbEntity
  8
0
  6
CONTINUOUS
 62
     7
100
AcDbLine
 10
161.340297
 20
128.034995
 30
0.0
 11
161.7403
 21
128.034995
 31
0.0
  0
LINE
  5
ED
330
1F
100
AcDbEntity
  8
0
  6
CONTINUOUS
 62
     7
100
AcDbLine
 10
161.340297
 20
146.935002
 30
0.0
 11
161.240299
 21
146.835001
 31
0.0
  0
LINE
  5
EE
330
1F
100
AcDbEntity
  8
0
  6
CONTINUOUS
 62
     7
100
AcDbLine
 10
161.240299
 20
128.134997
 30
0.0
 11
161.340297
 21
128.034995
 31
0.0
  0
LINE
  5
EF
330
1F
100
AcDbEntity
  8
0
  6
CONTINUOUS
 62
     7
100
AcDbLine
 10
161.840298
 20
128.134997
 30
0.0
 11
173.8403
 21
128.134997
 31
0.0
  0
LINE
  5
F0
330
1F
100
AcDbEntity
  8
0
  6
CONTINUOUS
 62
     7
100
AcDbLine
 10
173.8403
 20
128.134997
 30
0.0
 11
174.0403
 21
128.335
 31
0.0
  0
LINE
  5
F1
330
1F
100
AcDbEntity
  8
0
  6
CONTINUOUS
 62
     7
100
AcDbLine
 10
87.640298
 20
128.034995
 30
0.0
 11
87.740299
 21
128.134997
 31
0.0
  0
LINE
  5
F2
330
1F
100
AcDbEntity
  8
0
  6
CONTINUOUS
 62
     7
100
AcDbLine
 10
87.740299
 20
146.835001
 30
0.0
 11
87.640298
 21
146.935002
 31
0.0
  0
LINE
  5
F3
330
1F
100
AcDbEntity
  8
0
  6
CONTINUOUS
 62
     7
100
AcDbLine
 10
85.740299
 20
128.034995
 30
0.0
 11
87.640298
 21
128.034995
 31
0.0
  0
LINE
  5
F4
330
1F
100
AcDbEntity
  8
0
  6
CONTINUOUS
 62
     7
100
AcDbLine
 10
87.640298
 20
146.935002
 30
0.0
 11
85.740299
 21
146.935002
 31
0.0
  0
LINE
  5
F5
330
1F
100
AcDbEntity
  8
0
  6
CONTINUOUS
 62
     7
100
AcDbLine
 10
85.740299
 20
146.935002
 30
0.0
 11
85.540299
 21
146.734999
 31
0.0
  0
LINE
  5
F6
330
1F
100
AcDbEntity
  8
0
  6
CONTINUOUS
 62
     7
100
AcDbLine
 10
85.540299
 20
128.234999
 30
0.0
 11
85.740299
 21
128.034995
 31
0.0
  0
LINE
  5
F7
330
1F
100
AcDbEntity
  8
0
  6
CONTINUOUS
 62
     7
100
AcDbLine
 10
87.740299
 20
129.984991
 30
0.0
 11
87.940299
 21
129.984991
 31
0.0
  0
LINE
  5
F8
330
1F
100
AcDbEntity
  8
0
  6
CONTINUOUS
 62
     7
100
AcDbLine
 10
87.940299
 20
144.984992
 30
0.0
 11
87.740299
 21
144.984992
 31
0.0
  0
LINE
  5
F9
330
1F
100
AcDbEntity
  8
0
  6
CONTINUOUS
 62
     7
100
AcDbLine
 10
91.9403
 20
142.484994
 30
0.0
 11
91.9403
 21
147.484989
 31
0.0
  0
LINE
  5
FA
330
1F
100
AcDbEntity
  8
0
  6
CONTINUOUS
 62
     7
100
AcDbLine
 10
91.9403
 20
127.484993
 30
0.0
 11
91.9403
 21
142.484994
 31
0.0
  0
LINE
  5
FB
330
1F
100
AcDbEntity
  8
0
  6
CONTINUOUS
 62
     7
100
AcDbLine
 10
148.040299
 20
142.484994
 30
0.0
 11
148.040299
 21
147.484989
 31
0.0
  0
LINE
  5
FC
330
1F
100
AcDbEntity
  8
0
  6
CONTINUOUS
 62
     7
100
AcDbLine
 10
148.040299
 20
127.484993
 30
0.0
 11
148.040299
 21
142.484994
 31
0.0
  0
LINE
  5
FD
330
1F
100
AcDbEntity
  8
0
  6
CONTINUOUS
 62
     7
100
AcDbLine
 10
89.973432
 20
142.480002
 30
0.0
 11
89.973432
 21
147.474991
 31
0.0
  0
LINE
  5
FE
330
1F
100
AcDbEntity
  8
0
  6
CONTINUOUS
 62
     7
100
AcDbLine
 10
89.973432
 20
127.494992
 30
0.0
 11
89.973432
 21
142.480002
 31
0.0
  0
LINE
  5
FF
330
1F
100
AcDbEntity
  8
0
  6
CONTINUOUS
 62
     7
100
AcDbLine
 10
87.940299
 20
142.109991
 30
0.0
 11
87.940299
 21
146.734999
 31
0.0
  0
LINE
  5
100
330
1F
100
AcDbEntity
  8
0
  6
CONTINUOUS
 62
     7
100
AcDbLine
 10
87.940299
 20
128.234999
 30
0.0
 11
87.940299
 21
142.109991
 31
0.0
  0
LINE
  5
101
330
1F
100
AcDbEntity
  8
0
  6
CONTINUOUS
 62
     7
100
AcDbLine
 10
161.140298
 20
142.480002
 30
0.0
 11
161.140298
 21
147.474991
 31
0.0
  0
LINE
  5
102
330
1F
100
AcDbEntity
  8
0
  6
CONTINUOUS
 62
     7
100
AcDbLine
 10
161.140298
 20
127.494992
 30
0.0
 11
161.140298
 21
142.480002
 31
0.0
  0
LINE
  5
103
330
1F
100
AcDbEntity
  8
0
  6
CONTINUOUS
 62
     7
100
AcDbLine
 10
161.240299
 20
142.429994
 30
0.0
 11
161.240299
 21
127.594994
 31
0.0
  0
LINE
  5
104
330
1F
100
AcDbEntity
  8
0
  6
CONTINUOUS
 62
     7
100
AcDbLine
 10
161.240299
 20
147.374989
 30
0.0
 11
161.240299
 21
142.429994
 31
0.0
  0
LINE
  5
105
330
1F
100
AcDbEntity
  8
0
  6
CONTINUOUS
 62
     7
100
AcDbLine
 10
82.9403
 20
139.784993
 30
0.0
 11
82.9403
 21
142.085002
 31
0.0
  0
LINE
  5
106
330
1F
100
AcDbEntity
  8
0
  6
CONTINUOUS
 62
     7
100
AcDbLine
 10
82.9403
 20
132.884995
 30
0.0
 11
82.9403
 21
139.784993
 31
0.0
  0
LINE
  5
107
330
1F
100
AcDbEntity
  8
0
  6
CONTINUOUS
 62
     7
100
AcDbLine
 10
82.840298
 20
139.835001
 30
0.0
 11
82.840298
 21
142.184989
 31
0.0
  0
LINE
  5
108
330
1F
100
AcDbEntity
  8
0
  6
CONTINUOUS
 62
     7
100
AcDbLine
 10
82.840298
 20
132.784994
 30
0.0
 11
82.840298
 21
139.835001
 31
0.0
  0
LINE
  5
109
330
1F
100
AcDbEntity
  8
0
  6
CONTINUOUS
 62
     7
100
AcDbLine
 10
85.440298
 20
132.885115
 30
0.0
 11
83.040298
 21
132.885115
 31
0.0
  0
LINE
  5
10A
330
1F
100
AcDbEntity
  8
0
  6
CONTINUOUS
 62
     7
100
AcDbLine
 10
74.869198
 20
137.484999
 30
0.0
 11
74.869198
 21
143.384994
 31
0.0
  0
LINE
  5
10B
330
1F
100
AcDbEntity
  8
0
  6
CONTINUOUS
 62
     7
100
AcDbLine
 10
74.869198
 20
131.585003
 30
0.0
 11
74.869198
 21
137.484999
 31
0.0
  0
LINE
  5
10C
330
1F
100
AcDbEntity
  8
0
  6
CONTINUOUS
 62
     7
100
AcDbLine
 10
75.018798
 20
139.16205
 30
0.0
 11
75.018798
 21
142.985002
 31
0.0
  0
LINE
  5
10D
330
1F
100
AcDbEntity
  8
0
  6
CONTINUOUS
 62
     7
100
AcDbLine
 10
75.018798
 20
135.807948
 30
0.0
 11
75.018798
 21
139.16205
 31
0.0
  0
LINE
  5
10E
330
1F
100
AcDbEntity
  8
0
  6
CONTINUOUS
 62
     7
100
AcDbLine
 10
75.018798
 20
131.984995
 30
0.0
 11
75.018798
 21
135.807948
 31
0.0
  0
LINE
  5
10F
330
1F
100
AcDbEntity
  8
0
  6
CONTINUOUS
 62
     7
100
AcDbLine
 10
75.018798
 20
131.734998
 30
0.0
 11
75.018798
 21
131.984995
 31
0.0
  0
LINE
  5
110
330
1F
100
AcDbEntity
  8
0
  6
CONTINUOUS
 62
     7
100
AcDbLine
 10
75.018798
 20
142.985002
 30
0.0
 11
75.018798
 21
143.234999
 31
0.0
  0
LINE
  5
111
330
1F
100
AcDbEntity
  8
0
  6
CONTINUOUS
 62
     7
100
AcDbLine
 10
82.518795
 20
142.584996
 30
0.0
 11
82.518795
 21
132.385002
 31
0.0
  0
LINE
  5
112
330
1F
100
AcDbEntity
  8
0
  6
CONTINUOUS
 62
     7
100
AcDbLine
 10
78.169198
 20
137.484999
 30
0.0
 11
78.169198
 21
143.384994
 31
0.0
  0
LINE
  5
113
330
1F
100
AcDbEntity
  8
0
  6
CONTINUOUS
 62
     7
100
AcDbLine
 10
78.169198
 20
131.585003
 30
0.0
 11
78.169198
 21
137.484999
 31
0.0
  0
LINE
  5
114
330
1F
100
AcDbEntity
  8
0
  6
CONTINUOUS
 62
     7
100
AcDbLine
 10
78.018797
 20
131.734998
 30
0.0
 11
78.018797
 21
131.984995
 31
0.0
  0
LINE
  5
115
330
1F
100
AcDbEntity
  8
0
  6
CONTINUOUS
 62
     7
100
AcDbLine
 10
78.018797
 20
131.984995
 30
0.0
 11
78.018797
 21
135.807948
 31
0.0
  0
LINE
  5
116
330
1F
100
AcDbEntity
  8
0
  6
CONTINUOUS
 62
     7
100
AcDbLine
 10
78.018797
 20
135.807948
 30
0.0
 11
78.018797
 21
139.16205
 31
0.0
  0
LINE
  5
117
330
1F
100
AcDbEntity
  8
0
  6
CONTINUOUS
 62
     7
100
AcDbLine
 10
78.018797
 20
139.16205
 30
0.0
 11
78.018797
 21
142.985002
 31
0.0
  0
LINE
  5
118
330
1F
100
AcDbEntity
  8
0
  6
CONTINUOUS
 62
     7
100
AcDbLine
 10
78.018797
 20
142.985002
 30
0.0
 11
78.018797
 21
143.234999
 31
0.0
  0
LINE
  5
119
330
1F
100
AcDbEntity
  8
0
  6
CONTINUOUS
 62
     7
100
AcDbLine
 10
75.169199
 20
131.984995
 30
0.0
 11
75.169199
 21
135.349588
 31
0.0
  0
LINE
  5
11A
330
1F
100
AcDbEntity
  8
0
  6
CONTINUOUS
 62
     7
100
AcDbLine
 10
75.169199
 20
131.984995
 30
0.0
 11
75.018798
 21
131.984995
 31
0.0
  0
LINE
  5
11B
330
1F
100
AcDbEntity
  8
0
  6
CONTINUOUS
 62
     7
100
AcDbLine
 10
75.018798
 20
135.807948
 30
0.0
 11
75.169199
 21
135.349588
 31
0.0
  0
LINE
  5
11C
330
1F
100
AcDbEntity
  8
0
  6
CONTINUOUS
 62
     7
100
AcDbLine
 10
78.018797
 20
131.984995
 30
0.0
 11
77.8692
 21
131.984995
 31
0.0
  0
LINE
  5
11D
330
1F
100
AcDbEntity
  8
0
  6
CONTINUOUS
 62
     7
100
AcDbLine
 10
77.8692
 20
131.984995
 30
0.0
 11
77.8692
 21
135.349588
 31
0.0
  0
LINE
  5
11E
330
1F
100
AcDbEntity
  8
0
  6
CONTINUOUS
 62
     7
100
AcDbLine
 10
77.8692
 20
135.349588
 30
0.0
 11
78.018797
 21
135.807948
 31
0.0
  0
LINE
  5
11F
330
1F
100
AcDbEntity
  8
0
  6
CONTINUOUS
 62
     7
100
AcDbLine
 10
75.169199
 20
135.349588
 30
0.0
 11
77.8692
 21
135.349588
 31
0.0
  0
LINE
  5
120
330
1F
100
AcDbEntity
  8
0
  6
CONTINUOUS
 62
     7
100
AcDbLine
 10
75.169199
 20
139.62041
 30
0.0
 11
75.018798
 21
139.16205
 31
0.0
  0
LINE
  5
121
330
1F
100
AcDbEntity
  8
0
  6
CONTINUOUS
 62
     7
100
AcDbLine
 10
77.8692
 20
139.62041
 30
0.0
 11
75.169199
 21
139.62041
 31
0.0
  0
LINE
  5
122
330
1F
100
AcDbEntity
  8
0
  6
CONTINUOUS
 62
     7
100
AcDbLine
 10
78.018797
 20
139.16205
 30
0.0
 11
77.8692
 21
139.62041
 31
0.0
  0
LINE
  5
123
330
1F
100
AcDbEntity
  8
0
  6
CONTINUOUS
 62
     7
100
AcDbLine
 10
77.8692
 20
131.984995
 30
0.0
 11
75.169199
 21
131.984995
 31
0.0
  0
LINE
  5
124
330
1F
100
AcDbEntity
  8
0
  6
CONTINUOUS
 62
     7
100
AcDbLine
 10
75.018798
 20
142.985002
 30
0.0
 11
75.169199
 21
142.985002
 31
0.0
  0
LINE
  5
125
330
1F
100
AcDbEntity
  8
0
  6
CONTINUOUS
 62
     7
100
AcDbLine
 10
75.169199
 20
139.62041
 30
0.0
 11
75.169199
 21
142.985002
 31
0.0
  0
LINE
  5
126
330
1F
100
AcDbEntity
  8
0
  6
CONTINUOUS
 62
     7
100
AcDbLine
 10
77.8692
 20
139.62041
 30
0.0
 11
77.8692
 21
142.985002
 31
0.0
  0
LINE
  5
127
330
1F
100
AcDbEntity
  8
0
  6
CONTINUOUS
 62
     7
100
AcDbLine
 10
77.8692
 20
142.985002
 30
0.0
 11
78.018797
 21
142.985002
 31
0.0
  0
LINE
  5
128
330
1F
100
AcDbEntity
  8
0
  6
CONTINUOUS
 62
     7
100
AcDbLine
 10
75.169199
 20
142.985002
 30
0.0
 11
77.8692
 21
142.985002
 31
0.0
  0
LINE
  5
129
330
1F
100
AcDbEntity
  8
0
  6
CONTINUOUS
 62
     7
100
AcDbLine
 10
71.018797
 20
137.484999
 30
0.0
 11
71.018797
 21
140.907647
 31
0.0
  0
LINE
  5
12A
330
1F
100
AcDbEntity
  8
0
  6
CONTINUOUS
 62
     7
100
AcDbLine
 10
71.018797
 20
134.062351
 30
0.0
 11
71.018797
 21
137.484999
 31
0.0
  0
LINE
  5
12B
330
1F
100
AcDbEntity
  8
0
  6
CONTINUOUS
 62
     7
100
AcDbLine
 10
165.542384
 20
158.033775
 30
0.0
 11
164.376118
 21
158.033775
 31
0.0
  0
INSERT
  5
12F
330
1F
100
AcDbEntity
  8
0
100
AcDbBlockReference
  2
BLKF011
 10
0.0
 20
0.0
 30
0.0
  0
LINE
  5
172
330
1F
100
AcDbEntity
  8
0
  6
CONTINUOUS
 62
     7
100
AcDbLine
 10
161.978201
 20
158.033775
 30
0.0
 11
161.9403
 21
158.033775
 31
0.0
  0
LINE
  5
173
330
1F
100
AcDbEntity
  8
0
  6
CONTINUOUS
 62
     7
100
AcDbLine
 10
173.940298
 20
158.033775
 30
0.0
 11
173.902397
 21
158.033775
 31
0.0
  0
INSERT
  5
177
330
1F
100
AcDbEntity
  8
0
100
AcDbBlockReference
  2
BLKF012
 10
0.0
 20
0.0
 30
0.0
  0
LINE
  5
227
330
1F
100
AcDbEntity
  8
0
  6
CONTINUOUS
 62
     7
100
AcDbLine
 10
171.50448
 20
158.033775
 30
0.0
 11
170.338215
 21
158.033775
 31
0.0
  0
INSERT
  5
22B
330
1F
100
AcDbEntity
  8
0
100
AcDbBlockReference
  2
BLKF013
 10
0.0
 20
0.0
 30
0.0
  0
LINE
  5
26E
330
1F
100
AcDbEntity
  8
0
  6
CONTINUOUS
 62
     7
100
AcDbLine
 10
172.270426
 20
159.765826
 30
0.0
 11
162.940298
 21
159.765826
 31
0.0
  0
LINE
  5
26F
330
1F
100
AcDbEntity
  8
0
  6
CONTINUOUS
 62
     7
100
AcDbLine
 10
172.9403
 20
159.765826
 30
0.0
 11
172.270426
 21
159.765826
 31
0.0
  0
LINE
  5
270
330
1F
100
AcDbEntity
  8
0
  6
CONTINUOUS
 62
     7
100
AcDbLine
 10
170.338215
 20
158.033775
 30
0.0
 11
170.338215
 21
155.365826
 31
0.0
  0
LINE
  5
271
330
1F
100
AcDbEntity
  8
0
  6
CONTINUOUS
 62
     7
100
AcDbLine
 10
170.075716
 20
155.265824
 30
0.0
 11
170.338214
 21
155.365826
 31
0.0
  0
LINE
  5
272
330
1F
100
AcDbEntity
  8
0
  6
CONTINUOUS
 62
     7
100
AcDbLine
 10
165.542384
 20
155.365826
 30
0.0
 11
165.804883
 21
155.265824
 31
0.0
  0
LINE
  5
273
330
1F
100
AcDbEntity
  8
0
  6
CONTINUOUS
 62
     7
100
AcDbLine
 10
165.542384
 20
158.033775
 30
0.0
 11
165.542384
 21
155.365826
 31
0.0
  0
LINE
  5
274
330
1F
100
AcDbEntity
  8
0
  6
CONTINUOUS
 62
     7
100
AcDbLine
 10
165.804883
 20
155.265824
 30
0.0
 11
170.075716
 21
155.265824
 31
0.0
  0
LINE
  5
275
330
1F
100
AcDbEntity
  8
0
  6
CONTINUOUS
 62
     7
100
AcDbLine
 10
171.50448
 20
155.365826
 30
0.0
 11
170.338215
 21
155.365826
 31
0.0
  0
LINE
  5
276
330
1F
100
AcDbEntity
  8
0
  6
CONTINUOUS
 62
     7
100
AcDbLine
 10
171.50448
 20
155.365826
 30
0.0
 11
171.635729
 21
155.265824
 31
0.0
  0
LINE
  5
277
330
1F
100
AcDbEntity
  8
0
  6
CONTINUOUS
 62
     7
100
AcDbLine
 10
171.635729
 20
155.265824
 30
0.0
 11
170.075716
 21
155.265824
 31
0.0
  0
LINE
  5
278
330
1F
100
AcDbEntity
  8
0
  6
CONTINUOUS
 62
     7
100
AcDbLine
 10
171.50448
 20
158.033775
 30
0.0
 11
171.50448
 21
155.365826
 31
0.0
  0
LINE
  5
279
330
1F
100
AcDbEntity
  8
0
  6
CONTINUOUS
 62
     7
100
AcDbLine
 10
164.244865
 20
155.265824
 30
0.0
 11
164.376118
 21
155.365826
 31
0.0
  0
LINE
  5
27A
330
1F
100
AcDbEntity
  8
0
  6
CONTINUOUS
 62
     7
100
AcDbLine
 10
165.542384
 20
155.365826
 30
0.0
 11
164.376118
 21
155.365826
 31
0.0
  0
LINE
  5
27B
330
1F
100
AcDbEntity
  8
0
  6
CONTINUOUS
 62
     7
100
AcDbLine
 10
165.804883
 20
155.265824
 30
0.0
 11
164.244865
 21
155.265824
 31
0.0
  0
LINE
  5
27C
330
1F
100
AcDbEntity
  8
0
  6
CONTINUOUS
 62
     7
100
AcDbLine
 10
164.376118
 20
158.033775
 30
0.0
 11
164.376118
 21
155.365826
 31
0.0
  0
LINE
  5
27D
330
1F
100
AcDbEntity
  8
0
  6
CONTINUOUS
 62
     7
100
AcDbLine
 10
161.978201
 20
155.365826
 30
0.0
 11
162.109451
 21
155.265824
 31
0.0
  0
LINE
  5
27E
330
1F
100
AcDbEntity
  8
0
  6
CONTINUOUS
 62
     7
100
AcDbLine
 10
161.978201
 20
158.033775
 30
0.0
 11
161.978201
 21
155.365826
 31
0.0
  0
LINE
  5
27F
330
1F
100
AcDbEntity
  8
0
  6
CONTINUOUS
 62
     7
100
AcDbLine
 10
162.109451
 20
155.265824
 30
0.0
 11
164.244865
 21
155.265824
 31
0.0
  0
LINE
  5
280
330
1F
100
AcDbEntity
  8
0
  6
CONTINUOUS
 62
     7
100
AcDbLine
 10
173.902397
 20
158.033775
 30
0.0
 11
173.902397
 21
155.365826
 31
0.0
  0
LINE
  5
281
330
1F
100
AcDbEntity
  8
0
  6
CONTINUOUS
 62
     7
100
AcDbLine
 10
173.771148
 20
155.265824
 30
0.0
 11
173.902397
 21
155.365826
 31
0.0
  0
LINE
  5
282
330
1F
100
AcDbEntity
  8
0
  6
CONTINUOUS
 62
     7
100
AcDbLine
 10
171.635729
 20
155.265824
 30
0.0
 11
173.771148
 21
155.265824
 31
0.0
  0
LINE
  5
283
330
1F
100
AcDbEntity
  8
0
  6
CONTINUOUS
 62
     7
100
AcDbLine
 10
161.978201
 20
155.365826
 30
0.0
 11
161.9403
 21
155.365826
 31
0.0
  0
LINE
  5
284
330
1F
100
AcDbEntity
  8
0
  6
CONTINUOUS
 62
     7
100
AcDbLine
 10
162.109451
 20
155.265824
 30
0.0
 11
162.040298
 21
155.265824
 31
0.0
  0
LINE
  5
285
330
1F
100
AcDbEntity
  8
0
  6
CONTINUOUS
 62
     7
100
AcDbLine
 10
173.940298
 20
155.365826
 30
0.0
 11
173.902397
 21
155.365826
 31
0.0
  0
LINE
  5
286
330
1F
100
AcDbEntity
  8
0
  6
CONTINUOUS
 62
     7
100
AcDbLine
 10
173.8403
 20
155.265824
 30
0.0
 11
173.771148
 21
155.265824
 31
0.0
  0
LINE
  5
287
330
1F
100
AcDbEntity
  8
0
  6
CONTINUOUS
 62
     7
100
AcDbLine
 10
169.436962
 20
144.765825
 30
0.0
 11
170.338214
 21
145.06583
 31
0.0
  0
INSERT
  5
28B
330
1F
100
AcDbEntity
  8
0
100
AcDbBlockReference
  2
BLKF014
 10
0.0
 20
0.0
 30
0.0
  0
LINE
  5
2A6
330
1F
100
AcDbEntity
  8
0
  6
CONTINUOUS
 62
     7
100
AcDbLine
 10
165.542384
 20
154.765831
 30
0.0
 11
165.542384
 21
145.06583
 31
0.0
  0
INSERT
  5
2AA
330
1F
100
AcDbEntity
  8
0
100
AcDbBlockReference
  2
BLKF015
 10
0.0
 20
0.0
 30
0.0
  0
INSERT
  5
2D2
330
1F
100
AcDbEntity
  8
0
100
AcDbBlockReference
  2
BLKF016
 10
0.0
 20
0.0
 30
0.0
  0
LINE
  5
2EF
330
1F
100
AcDbEntity
  8
0
  6
CONTINUOUS
 62
     7
100
AcDbLine
 10
170.338215
 20
154.765831
 30
0.0
 11
170.338215
 21
145.06583
 31
0.0
  0
LINE
  5
2F0
330
1F
100
AcDbEntity
  8
0
  6
CONTINUOUS
 62
     7
100
AcDbLine
 10
171.50448
 20
154.765831
 30
0.0
 11
170.338215
 21
154.765831
 31
0.0
  0
INSERT
  5
2F4
330
1F
100
AcDbEntity
  8
0
100
AcDbBlockReference
  2
BLKF017
 10
0.0
 20
0.0
 30
0.0
  0
LINE
  5
318
330
1F
100
AcDbEntity
  8
0
  6
CONTINUOUS
 62
     7
100
AcDbLine
 10
165.542384
 20
154.765831
 30
0.0
 11
164.376118
 21
154.765831
 31
0.0
  0
INSERT
  5
31C
330
1F
100
AcDbEntity
  8
0
100
AcDbBlockReference
  2
BLKF018
 10
0.0
 20
0.0
 30
0.0
  0
LINE
  5
339
330
1F
100
AcDbEntity
  8
0
  6
CONTINUOUS
 62
     7
100
AcDbLine
 10
171.50448
 20
145.06583
 30
0.0
 11
170.338215
 21
145.06583
 31
0.0
  0
LINE
  5
33A
330
1F
100
AcDbEntity
  8
0
  6
CONTINUOUS
 62
     7
100
AcDbLine
 10
171.50448
 20
145.06583
 30
0.0
 11
171.955106
 21
144.765825
 31
0.0
  0
LINE
  5
33B
330
1F
100
AcDbEntity
  8
0
  6
CONTINUOUS
 62
     7
100
AcDbLine
 10
163.925492
 20
144.765825
 30
0.0
 11
164.376118
 21
145.06583
 31
0.0
  0
LINE
  5
33C
330
1F
100
AcDbEntity
  8
0
  6
CONTINUOUS
 62
     7
100
AcDbLine
 10
165.542384
 20
145.06583
 30
0.0
 11
164.376118
 21
145.06583
 31
0.0
  0
LINE
  5
33D
330
1F
100
AcDbEntity
  8
0
  6
CONTINUOUS
 62
     7
100
AcDbLine
 10
171.50448
 20
154.765831
 30
0.0
 11
171.50448
 21
145.06583
 31
0.0
  0
LINE
  5
33E
330
1F
100
AcDbEntity
  8
0
  6
CONTINUOUS
 62
     7
100
AcDbLine
 10
164.376118
 20
154.765831
 30
0.0
 11
164.376118
 21
145.06583
 31
0.0
  0
LINE
  5
33F
330
1F
100
AcDbEntity
  8
0
  6
CONTINUOUS
 62
     7
100
AcDbLine
 10
173.451771
 20
144.765825
 30
0.0
 11
173.902397
 21
145.06583
 31
0.0
  0
INSERT
  5
343
330
1F
100
AcDbEntity
  8
0
100
AcDbBlockReference
  2
BLKF019
 10
0.0
 20
0.0
 30
0.0
  0
LINE
  5
360
330
1F
100
AcDbEntity
  8
0
  6
CONTINUOUS
 62
     7
100
AcDbLine
 10
173.902397
 20
154.765831
 30
0.0
 11
173.902397
 21
145.06583
 31
0.0
  0
INSERT
  5
364
330
1F
100
AcDbEntity
  8
0
100
AcDbBlockReference
  2
BLKF020
 10
0.0
 20
0.0
 30
0.0
  0
LINE
  5
37E
330
1F
100
AcDbEntity
  8
0
  6
CONTINUOUS
 62
     7
100
AcDbLine
 10
161.978201
 20
154.765831
 30
0.0
 11
161.978201
 21
145.06583
 31
0.0
  0
INSERT
  5
382
330
1F
100
AcDbEntity
  8
0
100
AcDbBlockReference
  2
BLKF021
 10
0.0
 20
0.0
 30
0.0
  0
LINE
  5
3A7
330
1F
100
AcDbEntity
  8
0
  6
CONTINUOUS
 62
     7
100
AcDbLine
 10
173.940298
 20
154.765831
 30
0.0
 11
173.902397
 21
154.765831
 31
0.0
  0
LINE
  5
3A8
330
1F
100
AcDbEntity
  8
0
  6
CONTINUOUS
 62
     7
100
AcDbLine
 10
161.978201
 20
154.765831
 30
0.0
 11
161.9403
 21
154.765831
 31
0.0
  0
LINE
  5
3A9
330
1F
100
AcDbEntity
  8
0
  6
CONTINUOUS
 62
     7
100
AcDbLine
 10
173.940298
 20
145.06583
 30
0.0
 11
173.902397
 21
145.06583
 31
0.0
  0
LINE
  5
3AA
330
1F
100
AcDbEntity
  8
0
  6
CONTINUOUS
 62
     7
100
AcDbLine
 10
161.978201
 20
145.06583
 30
0.0
 11
161.9403
 21
145.06583
 31
0.0
  0
LINE
  5
3AB
330
1F
100
AcDbEntity
  8
0
  6
CONTINUOUS
 62
     7
100
AcDbLine
 10
161.7403
 20
146.935002
 30
0.0
 11
161.7403
 21
128.034995
 31
0.0
  0
LINE
  5
3AC
330
1F
100
AcDbEntity
  8
0
  6
CONTINUOUS
 62
     7
100
AcDbLine
 10
161.840298
 20
144.765825
 30
0.0
 11
161.840298
 21
128.134997
 31
0.0
  0
LINE
  5
3AD
330
1F
100
AcDbEntity
  8
0
  6
CONTINUOUS
 62
     7
100
AcDbLine
 10
161.840298
 20
146.835001
 30
0.0
 11
161.840298
 21
144.765825
 31
0.0
  0
LINE
  5
3AE
330
1F
100
AcDbEntity
  8
0
  6
CONTINUOUS
 62
     7
100
AcDbLine
 10
161.340297
 20
146.935002
 30
0.0
 11
161.340297
 21
128.034995
 31
0.0
  0
LINE
  5
3AF
330
1F
100
AcDbEntity
  8
0
  6
CONTINUOUS
 62
     7
100
AcDbLine
 10
173.8403
 20
144.765825
 30
0.0
 11
161.840298
 21
144.765825
 31
0.0
  0
LINE
  5
3B0
330
1F
100
AcDbEntity
  8
0
  6
CONTINUOUS
 62
     7
100
AcDbLine
 10
173.8403
 20
128.134997
 30
0.0
 11
173.8403
 21
144.765825
 31
0.0
  0
LINE
  5
3B1
330
1F
100
AcDbEntity
  8
0
  6
CONTINUOUS
 62
     7
100
AcDbLine
 10
173.8403
 20
144.765825
 30
0.0
 11
174.0403
 21
144.565822
 31
0.0
  0
LINE
  5
3B2
330
1F
100
AcDbEntity
  8
0
  6
CONTINUOUS
 62
     7
100
AcDbLine
 10
174.0403
 20
144.565822
 30
0.0
 11
174.0403
 21
128.335
 31
0.0
  0
LINE
  5
3B3
330
1F
100
AcDbEntity
  8
0
  6
CONTINUOUS
 62
     7
100
AcDbLine
 10
87.640298
 20
142.209993
 30
0.0
 11
87.640298
 21
146.935002
 31
0.0
  0
LINE
  5
3B4
330
1F
100
AcDbEntity
  8
0
  6
CONTINUOUS
 62
     7
100
AcDbLine
 10
87.640298
 20
128.034995
 30
0.0
 11
87.640298
 21
142.209993
 31
0.0
  0
LINE
  5
3B5
330
1F
100
AcDbEntity
  8
0
  6
CONTINUOUS
 62
     7
100
AcDbLine
 10
87.740299
 20
142.16
 30
0.0
 11
87.740299
 21
128.134997
 31
0.0
  0
LINE
  5
3B6
330
1F
100
AcDbEntity
  8
0
  6
CONTINUOUS
 62
     7
100
AcDbLine
 10
87.740299
 20
146.835001
 30
0.0
 11
87.740299
 21
142.16
 31
0.0
  0
LINE
  5
3B7
330
1F
100
AcDbEntity
  8
0
  6
CONTINUOUS
 62
     7
100
AcDbLine
 10
85.740299
 20
146.935002
 30
0.0
 11
85.740299
 21
128.034995
 31
0.0
  0
LINE
  5
3B8
330
1F
100
AcDbEntity
  8
0
  6
CONTINUOUS
 62
     7
100
AcDbLine
 10
85.540299
 20
128.234999
 30
0.0
 11
85.540299
 21
146.734999
 31
0.0
  0
LINE
  5
3B9
330
1F
100
AcDbEntity
  8
0
  6
CONTINUOUS
 62
     7
100
AcDbLine
 10
81.718796
 20
131.585003
 30
0.0
 11
81.718796
 21
143.384994
 31
0.0
  0
LINE
  5
3BA
330
1F
100
AcDbEntity
  8
0
  6
CONTINUOUS
 62
     7
100
AcDbLine
 10
74.077641
 20
137.484999
 30
0.0
 11
74.077641
 21
143.251018
 31
0.0
  0
LINE
  5
3BB
330
1F
100
AcDbEntity
  8
0
  6
CONTINUOUS
 62
     7
100
AcDbLine
 10
74.077641
 20
131.718965
 30
0.0
 11
74.077641
 21
137.484999
 31
0.0
  0
LINE
  5
3BC
330
1F
100
AcDbEntity
  8
0
  6
CONTINUOUS
 62
     7
100
AcDbLine
 10
74.577642
 20
143.384994
 30
0.0
 11
74.577642
 21
131.585003
 31
0.0
  0
LINE
  5
3BD
330
1F
100
AcDbEntity
  8
0
  6
CONTINUOUS
 62
     7
100
AcDbLine
 10
71.518795
 20
137.484999
 30
0.0
 11
71.518795
 21
133.196325
 31
0.0
  0
LINE
  5
3BE
330
1F
100
AcDbEntity
  8
0
  6
CONTINUOUS
 62
     7
100
AcDbLine
 10
71.518795
 20
141.773672
 30
0.0
 11
71.518795
 21
137.484999
 31
0.0
  0
INSERT
  5
3C2
330
1F
100
AcDbEntity
  8
0
100
AcDbBlockReference
  2
BLKF022
 10
0.0
 20
0.0
 30
0.0
  0
INSERT
  5
3D2
330
1F
100
AcDbEntity
  8
0
100
AcDbBlockReference
  2
BLKF023
 10
0.0
 20
0.0
 30
0.0
  0
INSERT
  5
3E0
330
1F
100
AcDbEntity
  8
0
100
AcDbBlockReference
  2
BLKF024
 10
0.0
 20
0.0
 30
0.0
  0
INSERT
  5
3EF
330
1F
100
AcDbEntity
  8
0
100
AcDbBlockReference
  2
BLKF025
 10
0.0
 20
0.0
 30
0.0
  0
INSERT
  5
3FF
330
1F
100
AcDbEntity
  8
0
100
AcDbBlockReference
  2
BLKF026
 10
0.0
 20
0.0
 30
0.0
  0
INSERT
  5
40F
330
1F
100
AcDbEntity
  8
0
100
AcDbBlockReference
  2
BLKF027
 10
0.0
 20
0.0
 30
0.0
  0
INSERT
  5
41F
330
1F
100
AcDbEntity
  8
0
100
AcDbBlockReference
  2
BLKF028
 10
0.0
 20
0.0
 30
0.0
  0
INSERT
  5
42D
330
1F
100
AcDbEntity
  8
0
100
AcDbBlockReference
  2
BLKF029
 10
0.0
 20
0.0
 30
0.0
  0
INSERT
  5
43B
330
1F
100
AcDbEntity
  8
0
100
AcDbBlockReference
  2
BLKF030
 10
0.0
 20
0.0
 30
0.0
  0
INSERT
  5
44D
330
1F
100
AcDbEntity
  8
0
100
AcDbBlockReference
  2
BLKF031
 10
0.0
 20
0.0
 30
0.0
  0
ARC
  5
459
330
1F
100
AcDbEntity
  8
0
  6
DASHED
 62
     7
100
AcDbCircle
 10
170.327799
 20
187.735425
 30
0.0
 40
5.752500000000081
100
AcDbArc
 50
247.380135
 51
292.619865
  0
ARC
  5
45A
330
1F
100
AcDbEntity
  8
0
  6
DASHED
 62
     7
100
AcDbCircle
 10
165.902799
 20
177.115425
 30
0.0
 40
5.752500000000094
100
AcDbArc
 50
67.380135
 51
112.619865
  0
ARC
  5
45B
330
1F
100
AcDbEntity
  8
0
  6
DASHED
 62
     7
100
AcDbCircle
 10
170.065299
 20
190.525425
 30
0.0
 40
5.525000000000019
100
AcDbArc
 50
247.380135
 51
292.619865
  0
ARC
  5
45C
330
1F
100
AcDbEntity
  8
0
  6
DASHED
 62
     7
100
AcDbCircle
 10
165.815299
 20
180.325425
 30
0.0
 40
5.525000000000007
100
AcDbArc
 50
67.380135
 51
112.619865
  0
LINE
  5
45D
330
1F
100
AcDbEntity
  8
CSLAYER3
  6
CONTINUOUS
 62
     3
100
AcDbLine
 10
270.5561
 20
172.240497
 30
0.0
 11
246.947951
 21
138.524565
 31
0.0
  0
LINE
  5
45E
330
1F
100
AcDbEntity
  8
CSLAYER3
  6
CONTINUOUS
 62
     3
100
AcDbLine
 10
222.788261
 20
175.808804
 30
0.0
 11
244.314326
 21
138.524565
 31
0.0
  0
LINE
  5
45F
330
1F
100
AcDbEntity
  8
0
  6
CONTINUOUS
 62
     7
100
AcDbLine
 10
259.031959
 20
152.295421
 30
0.0
 11
270.881698
 21
169.218595
 31
0.0
  0
LINE
  5
460
330
1F
100
AcDbEntity
  8
0
  6
CONTINUOUS
 62
     7
100
AcDbLine
 10
267.677717
 20
171.616632
 30
0.0
 11
255.75535
 21
154.589738
 31
0.0
  0
LINE
  5
461
330
1F
100
AcDbEntity
  8
0
  6
CONTINUOUS
 62
     7
100
AcDbLine
 10
252.912537
 20
154.016669
 30
0.0
 11
247.75035
 21
146.64429
 31
0.0
  0
LINE
  5
462
330
1F
100
AcDbEntity
  8
0
  6
CONTINUOUS
 62
     7
100
AcDbLine
 10
254.303567
 20
142.055686
 30
0.0
 11
259.465754
 21
149.42805
 31
0.0
  0
LINE
  5
463
330
1F
100
AcDbEntity
  8
0
  6
CONTINUOUS
 62
     7
100
AcDbLine
 10
253.871218
 20
155.298631
 30
0.0
 11
253.297642
 21
154.479484
 31
0.0
  0
LINE
  5
464
330
1F
100
AcDbEntity
  8
0
  6
CONTINUOUS
 62
     7
100
AcDbLine
 10
259.768941
 20
149.94822
 30
0.0
 11
260.342516
 21
150.767382
 31
0.0
  0
ARC
  5
465
330
1F
100
AcDbEntity
  8
0
  6
CONTINUOUS
 62
     7
100
AcDbCircle
 10
254.280787
 20
155.011867
 30
0.0
 40
0.4999806746852052
100
AcDbArc
 50
54.997936
 51
145.001796
  0
ARC
  5
466
330
1F
100
AcDbEntity
  8
0
  6
CONTINUOUS
 62
     7
100
AcDbCircle
 10
259.932937
 20
151.054168
 30
0.0
 40
0.5000015110728966
100
AcDbArc
 50
-34.999676
 51
54.999408
  0
LINE
  5
467
330
1F
100
AcDbEntity
  8
0
  6
CONTINUOUS
 62
     7
100
AcDbLine
 10
248.569504
 20
146.070714
 30
0.0
 11
247.938566
 21
145.169656
 31
0.0
  0
LINE
  5
468
330
1F
100
AcDbEntity
  8
0
  6
CONTINUOUS
 62
     7
100
AcDbLine
 10
252.853476
 20
141.728188
 30
0.0
 11
253.484413
 21
142.629261
 31
0.0
  0
LINE
  5
469
330
1F
100
AcDbEntity
  8
0
  6
CONTINUOUS
 62
     7
100
AcDbLine
 10
254.735254
 20
153.472851
 30
0.0
 11
254.391104
 21
152.981366
 31
0.0
  0
LINE
  5
46A
330
1F
100
AcDbEntity
  8
0
  6
CONTINUOUS
 62
     7
100
AcDbLine
 10
257.987187
 20
150.463353
 30
0.0
 11
258.331329
 21
150.954853
 31
0.0
  0
LINE
  5
46B
330
1F
100
AcDbEntity
  8
0
  6
CONTINUOUS
 62
     7
100
AcDbLine
 10
238.902413
 20
158.912982
 30
0.0
 11
238.023654
 21
159.420337
 31
0.0
  0
LINE
  5
46C
330
1F
100
AcDbEntity
  8
0
  6
CONTINUOUS
 62
     7
100
AcDbLine
 10
229.363397
 20
154.420327
 30
0.0
 11
229.363397
 21
153.405632
 31
0.0
  0
LINE
  5
46D
330
1F
100
AcDbEntity
  8
0
  6
CONTINUOUS
 62
     7
100
AcDbLine
 10
236.508109
 20
158.545326
 30
0.0
 11
227.153719
 21
174.747604
 31
0.0
  0
LINE
  5
46E
330
1F
100
AcDbEntity
  8
0
  6
CONTINUOUS
 62
     7
100
AcDbLine
 10
221.508704
 20
171.525064
 30
0.0
 11
230.878942
 21
155.295338
 31
0.0
  0
ARC
  5
46F
330
1F
100
AcDbEntity
  8
0
  6
CONTINUOUS
 62
     7
100
AcDbCircle
 10
244.661157
 20
137.525137
 30
0.0
 40
41.13383094651335
100
AcDbArc
 50
50.398464
 51
55.975108
  0
ARC
  5
470
330
1F
100
AcDbEntity
  8
0
  6
CONTINUOUS
 62
     7
100
AcDbCircle
 10
244.660655
 20
137.524675
 30
0.0
 40
41.13440536509506
100
AcDbArc
 50
115.188852
 51
124.252198
  0
ARC
  5
471
330
1F
100
AcDbEntity
  8
0
  6
CONTINUOUS
 62
     7
100
AcDbCircle
 10
244.660739
 20
137.524564
 30
0.0
 40
9.890000762223464
100
AcDbArc
 50
-180.00004
 51
29.228558
  0
ARC
  5
472
330
1F
100
AcDbEntity
  8
0
  6
CONTINUOUS
 62
     7
100
AcDbCircle
 10
244.666989
 20
137.553771
 30
0.0
 40
9.860355525786707
100
AcDbArc
 50
70.821676
 51
84.827329
  0
ARC
  5
473
330
1F
100
AcDbEntity
  8
0
  6
CONTINUOUS
 62
     7
100
AcDbCircle
 10
244.660864
 20
137.52454
 30
0.0
 40
9.890126425025208
100
AcDbArc
 50
152.404828
 51
179.999824
  0
ARC
  5
474
330
1F
100
AcDbEntity
  8
0
  6
CONTINUOUS
 62
     7
100
AcDbCircle
 10
244.660891
 20
137.524536
 30
0.0
 40
9.99015501577318
100
AcDbArc
 50
152.04157
 51
179.999804
  0
ARC
  5
475
330
1F
100
AcDbEntity
  8
0
  6
CONTINUOUS
 62
     7
100
AcDbCircle
 10
244.660455
 20
137.523445
 30
0.0
 40
9.991144717310755
100
AcDbArc
 50
70.680962
 51
85.208895
  0
ARC
  5
476
330
1F
100
AcDbEntity
  8
0
  6
CONTINUOUS
 62
     7
100
AcDbCircle
 10
244.660735
 20
137.524572
 30
0.0
 40
9.989999017543839
100
AcDbArc
 50
-179.999992
 51
29.505061
  0
ARC
  5
477
330
1F
100
AcDbEntity
  8
0
  6
CONTINUOUS
 62
     7
100
AcDbCircle
 10
244.660748
 20
137.52456
 30
0.0
 40
10.00001092739735
100
AcDbArc
 50
152.005479
 51
179.999939
  0
ARC
  5
478
330
1F
100
AcDbEntity
  8
0
  6
CONTINUOUS
 62
     7
100
AcDbCircle
 10
244.66108
 20
137.526195
 30
0.0
 40
9.998344465875555
100
AcDbArc
 50
70.663024
 51
85.250949
  0
ARC
  5
479
330
1F
100
AcDbEntity
  8
0
  6
CONTINUOUS
 62
     7
100
AcDbCircle
 10
244.660736
 20
137.52456
 30
0.0
 40
9.999998943315015
100
AcDbArc
 50
-180.00006
 51
29.532463
  0
INSERT
  5
47D
330
1F
100
AcDbEntity
  8
0
100
AcDbBlockReference
  2
BLKF032
 10
0.0
 20
0.0
 30
0.0
  0
INSERT
  5
48C
330
1F
100
AcDbEntity
  8
0
100
AcDbBlockReference
  2
BLKF033
 10
0.0
 20
0.0
 30
0.0
  0
INSERT
  5
49B
330
1F
100
AcDbEntity
  8
0
100
AcDbBlockReference
  2
BLKF034
 10
0.0
 20
0.0
 30
0.0
  0
INSERT
  5
4AA
330
1F
100
AcDbEntity
  8
0
100
AcDbBlockReference
  2
BLKF035
 10
0.0
 20
0.0
 30
0.0
  0
CIRCLE
  5
4B5
330
1F
100
AcDbEntity
  8
0
  6
CONTINUOUS
 62
     7
100
AcDbCircle
 10
251.310739
 20
137.52457
 30
0.0
 40
1.800000598951817
  0
LINE
  5
4B6
330
1F
100
AcDbEntity
  8
0
  6
CONTINUOUS
 62
     7
100
AcDbLine
 10
251.310736
 20
138.774569
 30
0.0
 11
250.228204
 21
138.14957
 31
0.0
  0
LINE
  5
4B7
330
1F
100
AcDbEntity
  8
0
  6
CONTINUOUS
 62
     7
100
AcDbLine
 10
250.228204
 20
138.14957
 30
0.0
 11
250.228204
 21
136.899571
 31
0.0
  0
LINE
  5
4B8
330
1F
100
AcDbEntity
  8
0
  6
CONTINUOUS
 62
     7
100
AcDbLine
 10
251.310736
 20
136.274572
 30
0.0
 11
252.393268
 21
136.899571
 31
0.0
  0
LINE
  5
4B9
330
1F
100
AcDbEntity
  8
0
  6
CONTINUOUS
 62
     7
100
AcDbLine
 10
252.393268
 20
136.899571
 30
0.0
 11
252.393268
 21
138.14957
 31
0.0
  0
LINE
  5
4BA
330
1F
100
AcDbEntity
  8
0
  6
CONTINUOUS
 62
     7
100
AcDbLine
 10
252.393268
 20
138.14957
 30
0.0
 11
251.310736
 21
138.774569
 31
0.0
  0
LINE
  5
4BB
330
1F
100
AcDbEntity
  8
0
  6
CONTINUOUS
 62
     7
100
AcDbLine
 10
250.228204
 20
136.899571
 30
0.0
 11
251.310736
 21
136.274572
 31
0.0
  0
CIRCLE
  5
4BC
330
1F
100
AcDbEntity
  8
0
  6
CONTINUOUS
 62
     7
100
AcDbCircle
 10
251.310732
 20
137.524572
 30
0.0
 40
1.899999075410079
  0
CIRCLE
  5
4BD
330
1F
100
AcDbEntity
  8
0
  6
CONTINUOUS
 62
     7
100
AcDbCircle
 10
238.010732
 20
137.52457
 30
0.0
 40
1.899999075397632
  0
CIRCLE
  5
4BE
330
1F
100
AcDbEntity
  8
0
  6
CONTINUOUS
 62
     7
100
AcDbCircle
 10
238.010737
 20
137.52457
 30
0.0
 40
1.800000598951817
  0
LINE
  5
4BF
330
1F
100
AcDbEntity
  8
0
  6
CONTINUOUS
 62
     7
100
AcDbLine
 10
238.010735
 20
138.774569
 30
0.0
 11
236.928202
 21
138.14957
 31
0.0
  0
LINE
  5
4C0
330
1F
100
AcDbEntity
  8
0
  6
CONTINUOUS
 62
     7
100
AcDbLine
 10
236.928202
 20
138.14957
 30
0.0
 11
236.928202
 21
136.899571
 31
0.0
  0
LINE
  5
4C1
330
1F
100
AcDbEntity
  8
0
  6
CONTINUOUS
 62
     7
100
AcDbLine
 10
238.010735
 20
136.274572
 30
0.0
 11
239.093267
 21
136.899571
 31
0.0
  0
LINE
  5
4C2
330
1F
100
AcDbEntity
  8
0
  6
CONTINUOUS
 62
     7
100
AcDbLine
 10
239.093267
 20
136.899571
 30
0.0
 11
239.093267
 21
138.14957
 31
0.0
  0
LINE
  5
4C3
330
1F
100
AcDbEntity
  8
0
  6
CONTINUOUS
 62
     7
100
AcDbLine
 10
239.093267
 20
138.14957
 30
0.0
 11
238.010735
 21
138.774569
 31
0.0
  0
LINE
  5
4C4
330
1F
100
AcDbEntity
  8
0
  6
CONTINUOUS
 62
     7
100
AcDbLine
 10
236.928202
 20
136.899571
 30
0.0
 11
238.010735
 21
136.274572
 31
0.0
  0
INSERT
  5
4C8
330
1F
100
AcDbEntity
  8
0
100
AcDbBlockReference
  2
BLKF036
 10
0.0
 20
0.0
 30
0.0
  0
INSERT
  5
4D5
330
1F
100
AcDbEntity
  8
0
100
AcDbBlockReference
  2
BLKF037
 10
0.0
 20
0.0
 30
0.0
  0
INSERT
  5
4E1
330
1F
100
AcDbEntity
  8
0
100
AcDbBlockReference
  2
BLKF038
 10
0.0
 20
0.0
 30
0.0
  0
INSERT
  5
527
330
1F
100
AcDbEntity
  8
0
100
AcDbBlockReference
  2
BLKF039
 10
0.0
 20
0.0
 30
0.0
  0
INSERT
  5
533
330
1F
100
AcDbEntity
  8
0
100
AcDbBlockReference
  2
BLKF040
 10
0.0
 20
0.0
 30
0.0
  0
INSERT
  5
618
330
1F
100
AcDbEntity
  8
0
100
AcDbBlockReference
  2
BLKF041
 10
0.0
 20
0.0
 30
0.0
  0
LINE
  5
621
330
1F
100
AcDbEntity
  8
0
  6
CONTINUOUS
 62
     7
100
AcDbLine
 10
229.79641
 20
152.670334
 30
0.0
 11
229.441203
 21
153.285574
 31
0.0
  0
LINE
  5
622
330
1F
100
AcDbEntity
  8
0
  6
CONTINUOUS
 62
     7
100
AcDbLine
 10
229.441203
 20
153.285574
 30
0.0
 11
229.371891
 21
153.405632
 31
0.0
  0
INSERT
  5
626
330
1F
100
AcDbEntity
  8
0
100
AcDbBlockReference
  2
BLKF042
 10
0.0
 20
0.0
 30
0.0
  0
INSERT
  5
62E
330
1F
100
AcDbEntity
  8
0
100
AcDbBlockReference
  2
BLKF043
 10
0.0
 20
0.0
 30
0.0
  0
LINE
  5
637
330
1F
100
AcDbEntity
  8
0
  6
CONTINUOUS
 62
     7
100
AcDbLine
 10
238.739558
 20
157.833661
 30
0.0
 11
240.073532
 21
155.523147
 31
0.0
  0
LINE
  5
638
330
1F
100
AcDbEntity
  8
0
  6
CONTINUOUS
 62
     7
100
AcDbLine
 10
239.926659
 20
155.322875
 30
0.0
 11
240.073532
 21
155.523147
 31
0.0
  0
LINE
  5
639
330
1F
100
AcDbEntity
  8
0
  6
CONTINUOUS
 62
     7
100
AcDbLine
 10
236.47666
 20
153.446491
 30
0.0
 11
236.723535
 21
153.473552
 31
0.0
  0
LINE
  5
63A
330
1F
100
AcDbEntity
  8
0
  6
CONTINUOUS
 62
     7
100
AcDbLine
 10
235.142686
 20
155.757006
 30
0.0
 11
236.47666
 21
153.446491
 31
0.0
  0
LINE
  5
63B
330
1F
100
AcDbEntity
  8
0
  6
CONTINUOUS
 62
     7
100
AcDbLine
 10
236.723535
 20
153.473552
 30
0.0
 11
239.926659
 21
155.322875
 31
0.0
  0
LINE
  5
63C
330
1F
100
AcDbEntity
  8
0
  6
CONTINUOUS
 62
     7
100
AcDbLine
 10
235.163518
 20
152.572881
 30
0.0
 11
235.310391
 21
152.773152
 31
0.0
  0
INSERT
  5
640
330
1F
100
AcDbEntity
  8
0
100
AcDbBlockReference
  2
BLKF044
 10
0.0
 20
0.0
 30
0.0
  0
INSERT
  5
64C
330
1F
100
AcDbEntity
  8
0
100
AcDbBlockReference
  2
BLKF045
 10
0.0
 20
0.0
 30
0.0
  0
LINE
  5
655
330
1F
100
AcDbEntity
  8
0
  6
CONTINUOUS
 62
     7
100
AcDbLine
 10
233.976417
 20
155.083667
 30
0.0
 11
235.310391
 21
152.773152
 31
0.0
  0
LINE
  5
656
330
1F
100
AcDbEntity
  8
0
  6
CONTINUOUS
 62
     7
100
AcDbLine
 10
231.713519
 20
150.696497
 30
0.0
 11
231.960394
 21
150.723557
 31
0.0
  0
LINE
  5
657
330
1F
100
AcDbEntity
  8
0
  6
CONTINUOUS
 62
     7
100
AcDbLine
 10
230.379544
 20
153.006996
 30
0.0
 11
231.713519
 21
150.696497
 31
0.0
  0
LINE
  5
658
330
1F
100
AcDbEntity
  8
0
  6
CONTINUOUS
 62
     7
100
AcDbLine
 10
231.960394
 20
150.723557
 30
0.0
 11
235.163518
 21
152.572881
 31
0.0
  0
INSERT
  5
65C
330
1F
100
AcDbEntity
  8
0
100
AcDbBlockReference
  2
BLKF046
 10
0.0
 20
0.0
 30
0.0
  0
LINE
  5
665
330
1F
100
AcDbEntity
  8
0
  6
CONTINUOUS
 62
     7
100
AcDbLine
 10
240.656667
 20
155.859824
 30
0.0
 11
240.706668
 21
155.773218
 31
0.0
  0
INSERT
  5
669
330
1F
100
AcDbEntity
  8
0
100
AcDbBlockReference
  2
BLKF047
 10
0.0
 20
0.0
 30
0.0
  0
INSERT
  5
675
330
1F
100
AcDbEntity
  8
0
100
AcDbBlockReference
  2
BLKF048
 10
0.0
 20
0.0
 30
0.0
  0
LINE
  5
67E
330
1F
100
AcDbEntity
  8
0
  6
CONTINUOUS
 62
     7
100
AcDbLine
 10
231.180385
 20
150.273214
 30
0.0
 11
231.130384
 21
150.35982
 31
0.0
  0
INSERT
  5
682
330
1F
100
AcDbEntity
  8
0
100
AcDbBlockReference
  2
BLKF049
 10
0.0
 20
0.0
 30
0.0
  0
LINE
  5
68B
330
1F
100
AcDbEntity
  8
0
  6
CONTINUOUS
 62
     7
100
AcDbLine
 10
239.322692
 20
158.170338
 30
0.0
 11
240.656667
 21
155.859824
 31
0.0
  0
LINE
  5
68C
330
1F
100
AcDbEntity
  8
0
  6
CONTINUOUS
 62
     7
100
AcDbLine
 10
229.79641
 20
152.670334
 30
0.0
 11
231.130384
 21
150.35982
 31
0.0
  0
LINE
  5
68D
330
1F
100
AcDbEntity
  8
0
  6
CONTINUOUS
 62
     7
100
AcDbLine
 10
244.697593
 20
145.953025
 30
0.0
 11
245.22353
 21
146.603088
 31
0.0
  0
INSERT
  5
691
330
1F
100
AcDbEntity
  8
0
100
AcDbBlockReference
  2
BLKF050
 10
0.0
 20
0.0
 30
0.0
  0
LINE
  5
6AC
330
1F
100
AcDbEntity
  8
0
  6
CONTINUOUS
 62
     7
100
AcDbLine
 10
236.776658
 20
152.926873
 30
0.0
 11
241.626658
 21
144.526433
 31
0.0
  0
INSERT
  5
6B0
330
1F
100
AcDbEntity
  8
0
100
AcDbBlockReference
  2
BLKF051
 10
0.0
 20
0.0
 30
0.0
  0
LINE
  5
6D5
330
1F
100
AcDbEntity
  8
0
  6
CONTINUOUS
 62
     7
100
AcDbLine
 10
240.37353
 20
155.003528
 30
0.0
 11
238.325097
 21
154.398213
 31
0.0
  0
LINE
  5
6D6
330
1F
100
AcDbEntity
  8
0
  6
CONTINUOUS
 62
     7
100
AcDbLine
 10
240.37353
 20
155.003528
 30
0.0
 11
245.22353
 21
146.603088
 31
0.0
  0
INSERT
  5
6DA
330
1F
100
AcDbEntity
  8
0
100
AcDbBlockReference
  2
BLKF052
 10
0.0
 20
0.0
 30
0.0
  0
LINE
  5
6E3
330
1F
100
AcDbEntity
  8
0
  6
CONTINUOUS
 62
     7
100
AcDbLine
 10
235.610396
 20
152.253534
 30
0.0
 11
233.561956
 21
151.648219
 31
0.0
  0
LINE
  5
6E4
330
1F
100
AcDbEntity
  8
0
  6
CONTINUOUS
 62
     7
100
AcDbLine
 10
239.934452
 20
143.203031
 30
0.0
 11
240.460396
 21
143.853079
 31
0.0
  0
INSERT
  5
6E8
330
1F
100
AcDbEntity
  8
0
100
AcDbBlockReference
  2
BLKF053
 10
0.0
 20
0.0
 30
0.0
  0
LINE
  5
6F1
330
1F
100
AcDbEntity
  8
0
  6
CONTINUOUS
 62
     7
100
AcDbLine
 10
235.610396
 20
152.253534
 30
0.0
 11
240.460396
 21
143.853079
 31
0.0
  0
LINE
  5
6F2
330
1F
100
AcDbEntity
  8
0
  6
CONTINUOUS
 62
     7
100
AcDbLine
 10
236.863517
 20
141.776423
 30
0.0
 11
237.689458
 21
141.906883
 31
0.0
  0
LINE
  5
6F3
330
1F
100
AcDbEntity
  8
0
  6
CONTINUOUS
 62
     7
100
AcDbLine
 10
232.013516
 20
150.176878
 30
0.0
 11
236.863517
 21
141.776423
 31
0.0
  0
INSERT
  5
6F7
330
1F
100
AcDbEntity
  8
0
100
AcDbBlockReference
  2
BLKF054
 10
0.0
 20
0.0
 30
0.0
  0
INSERT
  5
71F
330
1F
100
AcDbEntity
  8
0
100
AcDbBlockReference
  2
BLKF055
 10
0.0
 20
0.0
 30
0.0
  0
LINE
  5
728
330
1F
100
AcDbEntity
  8
0
  6
CONTINUOUS
 62
     7
100
AcDbLine
 10
240.706668
 20
155.773218
 30
0.0
 11
240.877837
 21
155.476745
 31
0.0
  0
LINE
  5
729
330
1F
100
AcDbEntity
  8
0
  6
CONTINUOUS
 62
     7
100
AcDbLine
 10
240.877837
 20
155.476745
 30
0.0
 11
240.956664
 21
155.340205
 31
0.0
  0
INSERT
  5
72D
330
1F
100
AcDbEntity
  8
0
100
AcDbBlockReference
  2
BLKF056
 10
0.0
 20
0.0
 30
0.0
  0
LINE
  5
736
330
1F
100
AcDbEntity
  8
0
  6
CONTINUOUS
 62
     7
100
AcDbLine
 10
231.430389
 20
149.840202
 30
0.0
 11
231.355384
 21
149.97011
 31
0.0
  0
INSERT
  5
73A
330
1F
100
AcDbEntity
  8
0
100
AcDbBlockReference
  2
BLKF057
 10
0.0
 20
0.0
 30
0.0
  0
INSERT
  5
746
330
1F
100
AcDbEntity
  8
0
100
AcDbBlockReference
  2
BLKF058
 10
0.0
 20
0.0
 30
0.0
  0
INSERT
  5
74E
330
1F
100
AcDbEntity
  8
0
100
AcDbBlockReference
  2
BLKF059
 10
0.0
 20
0.0
 30
0.0
  0
INSERT
  5
755
330
1F
100
AcDbEntity
  8
0
100
AcDbBlockReference
  2
BLKF060
 10
0.0
 20
0.0
 30
0.0
  0
LINE
  5
75E
330
1F
100
AcDbEntity
  8
0
  6
CONTINUOUS
 62
     7
100
AcDbLine
 10
236.430384
 20
141.179945
 30
0.0
 11
236.280382
 21
141.439761
 31
0.0
  0
LINE
  5
75F
330
1F
100
AcDbEntity
  8
0
  6
CONTINUOUS
 62
     7
100
AcDbLine
 10
240.956664
 20
155.340205
 30
0.0
 11
245.806664
 21
146.939765
 31
0.0
  0
LINE
  5
760
330
1F
100
AcDbEntity
  8
0
  6
CONTINUOUS
 62
     7
100
AcDbLine
 10
231.430389
 20
149.840202
 30
0.0
 11
236.280382
 21
141.439761
 31
0.0
  0
CIRCLE
  5
761
330
1F
100
AcDbEntity
  8
0
  6
CONTINUOUS
 62
     7
100
AcDbCircle
 10
251.310734
 20
137.524557
 30
0.0
 40
2.349997921817949
  0
CIRCLE
  5
762
330
1F
100
AcDbEntity
  8
0
  6
CONTINUOUS
 62
     7
100
AcDbCircle
 10
251.310736
 20
137.524571
 30
0.0
 40
2.149998117705366
  0
CIRCLE
  5
763
330
1F
100
AcDbEntity
  8
0
  6
CONTINUOUS
 62
     7
100
AcDbCircle
 10
238.010736
 20
137.524559
 30
0.0
 40
2.350001363531358
  0
ARC
  5
764
330
1F
100
AcDbEntity
  8
0
  6
CONTINUOUS
 62
     7
100
AcDbCircle
 10
244.660736
 20
137.524564
 30
0.0
 40
9.150002216652442
100
AcDbArc
 50
-200.701951
 51
25.231796
  0
LINE
  5
765
330
1F
100
AcDbEntity
  8
0
  6
CONTINUOUS
 62
     7
100
AcDbLine
 10
245.741122
 20
146.324571
 30
0.0
 11
236.101531
 21
140.759151
 31
0.0
  0
LINE
  5
766
330
1F
100
AcDbEntity
  8
0
  6
CONTINUOUS
 62
     7
100
AcDbLine
 10
245.940492
 20
146.324571
 30
0.0
 11
245.741122
 21
146.324571
 31
0.0
  0
LINE
  5
767
330
1F
100
AcDbEntity
  8
0
  6
CONTINUOUS
 62
     7
100
AcDbLine
 10
252.937742
 20
141.425039
 30
0.0
 11
245.940492
 21
146.324571
 31
0.0
  0
LINE
  5
768
330
1F
100
AcDbEntity
  8
0
  6
CONTINUOUS
 62
     7
100
AcDbLine
 10
245.68753
 20
146.524559
 30
0.0
 11
246.003554
 21
146.524559
 31
0.0
  0
LINE
  5
769
330
1F
100
AcDbEntity
  8
0
  6
CONTINUOUS
 62
     7
100
AcDbLine
 10
245.940492
 20
146.324571
 30
0.0
 11
246.003554
 21
146.524559
 31
0.0
  0
LINE
  5
76A
330
1F
100
AcDbEntity
  8
0
  6
CONTINUOUS
 62
     7
100
AcDbLine
 10
245.68753
 20
146.524559
 30
0.0
 11
245.741122
 21
146.324571
 31
0.0
  0
LINE
  5
76B
330
1F
100
AcDbEntity
  8
0
  6
CONTINUOUS
 62
     7
100
AcDbLine
 10
246.003554
 20
146.524559
 30
0.0
 11
253.095746
 21
141.558553
 31
0.0
  0
LINE
  5
76C
330
1F
100
AcDbEntity
  8
0
  6
CONTINUOUS
 62
     7
100
AcDbLine
 10
252.937742
 20
141.425039
 30
0.0
 11
253.095746
 21
141.558553
 31
0.0
  0
ARC
  5
76D
330
1F
100
AcDbEntity
  8
0
  6
CONTINUOUS
 62
     7
100
AcDbCircle
 10
244.660732
 20
137.524566
 30
0.0
 40
9.350000606381974
100
AcDbArc
 50
-201.141588
 51
25.559136
  0
LINE
  5
76E
330
1F
100
AcDbEntity
  8
0
  6
CONTINUOUS
 62
     7
100
AcDbLine
 10
235.940062
 20
140.896867
 30
0.0
 11
236.101531
 21
140.759151
 31
0.0
  0
CIRCLE
  5
76F
330
1F
100
AcDbEntity
  8
0
  6
CONTINUOUS
 62
     7
100
AcDbCircle
 10
238.010735
 20
137.524571
 30
0.0
 40
2.149998117705366
  0
LINE
  5
770
330
1F
100
AcDbEntity
  8
0
  6
CONTINUOUS
 62
     7
100
AcDbLine
 10
235.940062
 20
140.896867
 30
0.0
 11
245.68753
 21
146.524559
 31
0.0
  0
ARC
  5
771
330
1F
100
AcDbEntity
  8
0
  6
CONTINUOUS
 62
     7
100
AcDbCircle
 10
244.660599
 20
137.524522
 30
0.0
 40
9.450139577365301
100
AcDbArc
 50
0.000293
 51
27.933199
  0
ARC
  5
772
330
1F
100
AcDbEntity
  8
0
  6
CONTINUOUS
 62
     7
100
AcDbCircle
 10
244.659806
 20
137.521179
 30
0.0
 40
9.453479556876067
100
AcDbArc
 50
67.029606
 51
82.19401
  0
ARC
  5
773
330
1F
100
AcDbEntity
  8
0
  6
CONTINUOUS
 62
     7
100
AcDbCircle
 10
244.660737
 20
137.524569
 30
0.0
 40
9.450001513284025
100
AcDbArc
 50
-205.8856
 51
0.000007
  0
LINE
  5
774
330
1F
100
AcDbEntity
  8
0
  6
CONTINUOUS
 62
     7
100
AcDbLine
 10
253.095746
 20
141.558553
 30
0.0
 11
252.945245
 21
141.859244
 31
0.0
  0
ARC
  5
775
330
1F
100
AcDbEntity
  8
0
  6
CONTINUOUS
 62
     7
100
AcDbCircle
 10
244.66082
 20
137.524831
 30
0.0
 40
9.349728201026739
100
AcDbArc
 50
65.475495
 51
82.253445
  0
INSERT
  5
779
330
1F
100
AcDbEntity
  8
0
100
AcDbBlockReference
  2
BLKF061
 10
0.0
 20
0.0
 30
0.0
  0
INSERT
  5
788
330
1F
100
AcDbEntity
  8
0
100
AcDbBlockReference
  2
BLKF062
 10
0.0
 20
0.0
 30
0.0
  0
ENDSEC
  0
SECTION
  2
OBJECTS
  0
DICTIONARY
  5
C
330
0
100
AcDbDictionary
  3
ACAD_GROUP
350
D
  3
ACAD_LAYOUT
350
1A
  3
ACAD_MLINESTYLE
350
17
  3
ACAD_PLOTSETTINGS
350
19
1001
ACAD
1000
TREAT_AS_HARD
1070
     0
  0
DICTIONARY
  5
D
102
{ACAD_REACTORS
330
C
102
}
330
C
100
AcDbDictionary
1001
ACAD
1000
TREAT_AS_HARD
1070
     0
  0
DICTIONARY
  5
1A
102
{ACAD_REACTORS
330
C
102
}
330
C
100
AcDbDictionary
1001
ACAD
1000
TREAT_AS_HARD
1070
     0
  0
DICTIONARY
  5
17
102
{ACAD_REACTORS
330
C
102
}
330
C
100
AcDbDictionary
  3
STANDARD
350
18
1001
ACAD
1000
TREAT_AS_HARD
1070
     0
  0
DICTIONARY
  5
19
102
{ACAD_REACTORS
330
C
102
}
330
C
100
AcDbDictionary
1001
ACAD
1000
TREAT_AS_HARD
1070
     0
  0
MLINESTYLE
  5
18
102
{ACAD_REACTORS
330
17
102
}
330
17
100
AcDbMlineStyle
  2
Standard
 70
     0
  3

 62
   256
 51
90.0
 52
90.0
 71
     2
 49
0.5
 62
   256
  6
BYLAYER
 49
-0.5
 62
   256
  6
BYLAYER
  0
ENDSEC
  0
EOF
