  0
SECTION
  2
HEADER
  9
$ACADVER
  1
AC1012
  9
$DWGCODEPAGE
  3
ansi_932
  9
$INSBASE
 10
0.0
 20
0.0
 30
0.0
  9
$EXTMIN
 10
0.0
 20
0.0
 30
0.0
  9
$EXTMAX
 10
300.384324
 20
487.306614
 30
0.0
  9
$LIMMIN
 10
0.0
 20
0.0
  9
$LIMMAX
 10
300.384324
 20
487.306614
  9
$ORTHOMODE
 70
     0
  9
$REGENMODE
 70
     1
  9
$FILLMODE
 70
     1
  9
$QTEXTMODE
 70
     0
  9
$MIRRTEXT
 70
     1
  9
$DRAGMODE
 70
     2
  9
$LTSCALE
 40
1.0
  9
$OSMODE
 70
    37
  9
$ATTMODE
 70
     1
  9
$TEXTSIZE
 40
0.2
  9
$TRACEWID
 40
0.05
  9
$TEXTSTYLE
  7
ED_VECTOR
  9
$CLAYER
  8
0
  9
$CELTYPE
  6
BYLAYER
  9
$CECOLOR
 62
   256
  9
$CELTSCALE
 40
1.0
  9
$DELOBJ
 70
     1
  9
$DISPSILH
 70
     0
  9
$DIMSCALE
 40
1.0
  9
$DIMASZ
 40
3.0
  9
$DIMEXO
 40
1.0
  9
$DIMDLI
 40
10.0
  9
$DIMRND
 40
0.0
  9
$DIMDLE
 40
5.0
  9
$DIMEXE
 40
1.0
  9
$DIMTP
 40
0.0
  9
$DIMTM
 40
0.0
  9
$DIMTXT
 40
4.0
  9
$DIMCEN
 40
2.5
  9
$DIMTSZ
 40
0.0
  9
$DIMTOL
 70
     0
  9
$DIMLIM
 70
     0
  9
$DIMTIH
 70
     0
  9
$DIMTOH
 70
     0
  9
$DIMSE1
 70
     0
  9
$DIMSE2
 70
     0
  9
$DIMTAD
 70
     1
  9
$DIMZIN
 70
     8
  9
$DIMBLK
  1

  9
$DIMASO
 70
     1
  9
$DIMSHO
 70
     1
  9
$DIMPOST
  1

  9
$DIMAPOST
  1

  9
$DIMALT
 70
     0
  9
$DIMALTD
 70
     3
  9
$DIMALTF
 40
0.03937
  9
$DIMLFAC
 40
1.0
  9
$DIMTOFL
 70
     1
  9
$DIMTVP
 40
0.0
  9
$DIMTIX
 70
     0
  9
$DIMSOXD
 70
     0
  9
$DIMSAH
 70
     1
  9
$DIMBLK1
  1
EDTIP_ARROW_S
  9
$DIMBLK2
  1
EDTIP_ARROW_E
  9
$DIMSTYLE
  2
EDDIMINFO
  9
$DIMCLRD
 70
     7
  9
$DIMCLRE
 70
     7
  9
$DIMCLRT
 70
     7
  9
$DIMTFAC
 40
1.0
  9
$DIMGAP
 40
1.0
  9
$DIMJUST
 70
     0
  9
$DIMSD1
 70
     0
  9
$DIMSD2
 70
     0
  9
$DIMTOLJ
 70
     0
  9
$DIMTZIN
 70
     8
  9
$DIMALTZ
 70
     0
  9
$DIMALTTZ
 70
     0
  9
$DIMFIT
 70
     3
  9
$DIMUPT
 70
     0
  9
$DIMUNIT
 70
     2
  9
$DIMDEC
 70
     2
  9
$DIMTDEC
 70
     2
  9
$DIMALTU
 70
     2
  9
$DIMALTTD
 70
     3
  9
$DIMTXSTY
  7
ED_VECTOR
  9
$DIMAUNIT
 70
     0
  9
$LUNITS
 70
     2
  9
$LUPREC
 70
     4
  9
$SKETCHINC
 40
0.1
  9
$FILLETRAD
 40
0.5
  9
$AUNITS
 70
     0
  9
$AUPREC
 70
     0
  9
$MENU
  1
.
  9
$ELEVATION
 40
0.0
  9
$PELEVATION
 40
0.0
  9
$THICKNESS
 40
0.0
  9
$LIMCHECK
 70
     0
  9
$CHAMFERA
 40
0.5
  9
$CHAMFERB
 40
0.5
  9
$CHAMFERC
 40
1.0
  9
$CHAMFERD
 40
0.0
  9
$SKPOLY
 70
     0
  9
$TDCREATE
 40
2455247.694411609
  9
$TDUPDATE
 40
2455247.694411621
  9
$TDINDWG
 40
0.0000000116
  9
$TDUSRTIMER
 40
0.0000000116
  9
$USRTIMER
 70
     1
  9
$ANGBASE
 50
0.0
  9
$ANGDIR
 70
     0
  9
$PDMODE
 70
     0
  9
$PDSIZE
 40
0.0
  9
$PLINEWID
 40
0.0
  9
$COORDS
 70
     1
  9
$SPLFRAME
 70
     0
  9
$SPLINETYPE
 70
     6
  9
$SPLINESEGS
 70
     8
  9
$ATTDIA
 70
     0
  9
$ATTREQ
 70
     1
  9
$HANDLING
 70
     1
  9
$HANDSEED
  5
846
  9
$SURFTAB1
 70
     6
  9
$SURFTAB2
 70
     6
  9
$SURFTYPE
 70
     6
  9
$SURFU
 70
     6
  9
$SURFV
 70
     6
  9
$UCSNAME
  2

  9
$UCSORG
 10
0.0
 20
0.0
 30
0.0
  9
$UCSXDIR
 10
1.0
 20
0.0
 30
0.0
  9
$UCSYDIR
 10
0.0
 20
1.0
 30
0.0
  9
$PUCSNAME
  2

  9
$PUCSORG
 10
0.0
 20
0.0
 30
0.0
  9
$PUCSXDIR
 10
1.0
 20
0.0
 30
0.0
  9
$PUCSYDIR
 10
0.0
 20
1.0
 30
0.0
  9
$USERI1
 70
     0
  9
$USERI2
 70
     0
  9
$USERI3
 70
     0
  9
$USERI4
 70
     0
  9
$USERI5
 70
     0
  9
$USERR1
 40
0.0
  9
$USERR2
 40
0.0
  9
$USERR3
 40
0.0
  9
$USERR4
 40
0.0
  9
$USERR5
 40
0.0
  9
$WORLDVIEW
 70
     1
  9
$SHADEDGE
 70
     3
  9
$SHADEDIF
 70
    70
  9
$TILEMODE
 70
     1
  9
$MAXACTVP
 70
    64
  9
$PINSBASE
 10
0.0
 20
0.0
 30
0.0
  9
$PLIMCHECK
 70
     0
  9
$PEXTMIN
 10
1.000000E+20
 20
1.000000E+20
 30
1.000000E+20
  9
$PEXTMAX
 10
-1.000000E+20
 20
-1.000000E+20
 30
-1.000000E+20
  9
$PLIMMIN
 10
0.0
 20
0.0
  9
$PLIMMAX
 10
12.0
 20
9.0
  9
$UNITMODE
 70
     0
  9
$VISRETAIN
 70
     1
  9
$PLINEGEN
 70
     0
  9
$PSLTSCALE
 70
     1
  9
$TREEDEPTH
 70
  3020
  9
$PICKSTYLE
 70
     1
  9
$CMLSTYLE
  2
STANDARD
  9
$CMLJUST
 70
     0
  9
$CMLSCALE
 40
1.0
  9
$SAVEIMAGES
 70
     1
  0
ENDSEC
  0
SECTION
  2
CLASSES
  0
CLASS
  1
ACDBDICTIONARYWDFLT
  2
AcDbDictionaryWithDefault
  3
ObjectDBX Classes
 90
    32768
280
     0
281
     0
  0
CLASS
  1
XRECORD
  2
AcDbXrecord
  3
AutoCAD 2000
 90
    32768
280
     0
281
     0
  0
CLASS
  1
LWPOLYLINE
  2
AcDbPolyline
  3
AutoCAD 2000
 90
    32768
280
     0
281
     1
  0
CLASS
  1
HATCH
  2
AcDbHatch
  3
AutoCAD 2000
 90
    32768
280
     0
281
     1
  0
CLASS
  1
ACDBPLACEHOLDER
  2
AcDbPlaceHolder
  3
ObjectDBX Classes
 90
        0
280
     0
281
     0
  0
CLASS
  1
LAYOUT
  2
AcDbLayout
  3
ObjectDBX Classes
 90
        0
280
     0
281
     0
  0
ENDSEC
  0
SECTION
  2
TABLES
  0
TABLE
  2
VPORT
  5
8
330
0
100
AcDbSymbolTable
 70
     1
  0
VPORT
  5
29
330
8
100
AcDbSymbolTableRecord
100
AcDbViewportTableRecord
  2
*ACTIVE
 70
     0
 10
0.0
 20
0.0
 11
1.0
 21
1.0
 12
150.192162
 22
243.653307
 13
0.0
 23
0.0
 14
0.5
 24
0.5
 15
0.5
 25
0.5
 16
0.0
 26
0.0
 36
1.0
 17
0.0
 27
0.0
 37
0.0
 40
487.306614
 41
0.616417
 42
50.0
 43
0.0
 44
0.0
 50
0.0
 51
0.0
 71
     0
 72
   100
 73
     1
 74
     3
 75
     0
 76
     0
 77
     0
 78
     0
  0
ENDTAB
  0
TABLE
  2
LTYPE
  5
5
330
0
100
AcDbSymbolTable
 70
     5
  0
LTYPE
  5
14
330
5
100
AcDbSymbolTableRecord
100
AcDbLinetypeTableRecord
  2
BYBLOCK
 70
     0
  3

 72
    65
 73
     0
 40
0.0
  0
LTYPE
  5
15
330
5
100
AcDbSymbolTableRecord
100
AcDbLinetypeTableRecord
  2
BYLAYER
 70
     0
  3

 72
    65
 73
     0
 40
0.0
  0
LTYPE
  5
16
330
5
100
AcDbSymbolTableRecord
100
AcDbLinetypeTableRecord
  2
CONTINUOUS
 70
     0
  3
--------------------
 72
    65
 73
     0
 40
0.0
  0
LTYPE
  5
2A
330
5
100
AcDbSymbolTableRecord
100
AcDbLinetypeTableRecord
  2
DASHED
 70
     0
  3
- - - - - - - - - - -
 72
    65
 73
     2
 40
19.1
 49
12.7
 74
     0
 49
-6.4
 74
     0
  0
LTYPE
  5
2B
330
5
100
AcDbSymbolTableRecord
100
AcDbLinetypeTableRecord
  2
CENTER
 70
     0
  3
- ･ - ･ - ･ - ･ - ･ - ･ - ･ - ･ - ･ - ･ -
 72
    65
 73
     4
 40
51.0
 49
31.8
 74
     0
 49
-6.4
 74
     0
 49
6.4
 74
     0
 49
-6.4
 74
     0
  0
LTYPE
  5
2C
330
5
100
AcDbSymbolTableRecord
100
AcDbLinetypeTableRecord
  2
PHANTOM
 70
     0
  3
- ･ ･ - ･ ･ - ･ ･ - ･ ･ - ･ ･ - ･ ･ - ･ ･ - 
 72
    65
 73
     6
 40
63.8
 49
31.8
 74
     0
 49
-6.4
 74
     0
 49
6.4
 74
     0
 49
-6.4
 74
     0
 49
6.4
 74
     0
 49
-6.4
 74
     0
  0
LTYPE
  5
2D
330
5
100
AcDbSymbolTableRecord
100
AcDbLinetypeTableRecord
  2
DOT
 70
     0
  3
・・・・・・・・・・・・・・・
 72
    65
 73
     2
 40
6.5
 49
0.1
 74
     0
 49
-6.4
 74
     0
  0
ENDTAB
  0
TABLE
  2
LAYER
  5
2
330
0
100
AcDbSymbolTable
 70
    16
  0
LAYER
  5
10
330
2
100
AcDbSymbolTableRecord
100
AcDbLayerTableRecord
  2
0
 70
     0
 62
     7
  6
CONTINUOUS
  0
LAYER
  5
2F
330
2
100
AcDbSymbolTableRecord
100
AcDbLayerTableRecord
  2
CSLAYER3
 70
     0
 62
     7
  6
CONTINUOUS
  0
ENDTAB
  0
TABLE
  2
STYLE
  5
3
330
0
100
AcDbSymbolTable
 70
     2
  0
STYLE
  5
11
330
3
100
AcDbSymbolTableRecord
100
AcDbTextStyleTableRecord
  2
STANDARD
 70
     0
 40
0.0
 41
1.0
 50
0.0
 71
     0
 42
0.2
  3
txt
  4

  0
STYLE
  5
3D
330
3
100
AcDbSymbolTableRecord
100
AcDbTextStyleTableRecord
  2
ED_VECTOR
 70
     0
 40
0.0
 41
1.0
 50
0.0
 71
     0
 42
0.2
  3
MONOTXT.SHX
  4
BIGFONT.SHX
  0
ENDTAB
  0
TABLE
  2
VIEW
  5
6
330
0
100
AcDbSymbolTable
 70
     0
  0
ENDTAB
  0
TABLE
  2
UCS
  5
7
330
0
100
AcDbSymbolTable
 70
     0
  0
ENDTAB
  0
TABLE
  2
APPID
  5
9
330
0
100
AcDbSymbolTable
 70
     1
  0
APPID
  5
12
330
9
100
AcDbSymbolTableRecord
100
AcDbRegAppTableRecord
  2
ACAD
 70
     0
  0
ENDTAB
  0
TABLE
  2
DIMSTYLE
  5
A
330
0
100
AcDbSymbolTable
 70
     2
  0
DIMSTYLE
105
27
330
A
100
AcDbSymbolTableRecord
100
AcDbDimStyleTableRecord
  2
STANDARD
 70
     0
  3

  4

  5

  6

  7

 40
1.0
 41
0.18
 42
0.0625
 43
0.38
 44
0.18
 45
0.0
 46
0.0
 47
0.0
 48
0.0
140
0.18
141
0.09
142
0.0
143
25.4
144
1.0
145
0.0
146
1.0
147
0.09
 71
     0
 72
     0
 73
     1
 74
     1
 75
     0
 76
     0
 77
     0
 78
     0
170
     0
171
     2
172
     0
173
     0
174
     0
175
     0
176
     0
177
     0
178
     0
270
     2
271
     4
272
     4
273
     2
274
     2
340
11
275
     0
280
     0
281
     0
282
     0
283
     1
284
     0
285
     0
286
     0
287
     3
288
     0
  0
DIMSTYLE
105
6E
330
A
100
AcDbSymbolTableRecord
100
AcDbDimStyleTableRecord
  2
EDDIMINFO
 70
     0
  3

  4

  5

  6
EDTIP_ARROW_S
  7
EDTIP_ARROW_E
 40
1.0
 41
3.0
 42
1.0
 43
10.0
 44
1.0
 45
0.0
 46
5.0
 47
0.0
 48
0.0
140
4.0
141
2.5
142
0.0
143
0.03937
144
1.0
145
0.0
146
1.0
147
1.0
 71
     0
 72
     0
 73
     0
 74
     0
 75
     0
 76
     0
 77
     1
 78
     8
170
     0
171
     3
172
     1
173
     1
174
     0
175
     0
176
     7
177
     7
178
     7
179
     2
270
     2
271
     2
272
     2
273
     2
274
     3
340
3D
275
     0
280
     0
281
     0
282
     0
283
     0
284
     8
285
     0
286
     0
287
     3
288
     0
  0
ENDTAB
  0
TABLE
  2
BLOCK_RECORD
  5
1
330
0
100
AcDbSymbolTable
 70
    47
  0
BLOCK_RECORD
  5
1F
330
1
100
AcDbSymbolTableRecord
100
AcDbBlockTableRecord
  2
*MODEL_SPACE
  0
BLOCK_RECORD
  5
1B
330
1
100
AcDbSymbolTableRecord
100
AcDbBlockTableRecord
  2
*PAPER_SPACE
  0
BLOCK_RECORD
  5
3E
330
1
100
AcDbSymbolTableRecord
100
AcDbBlockTableRecord
  2
EDTIP_ARROW_S
  0
BLOCK_RECORD
  5
44
330
1
100
AcDbSymbolTableRecord
100
AcDbBlockTableRecord
  2
EDTIP_ARROW_E
  0
BLOCK_RECORD
  5
4A
330
1
100
AcDbSymbolTableRecord
100
AcDbBlockTableRecord
  2
EDTIP_BLACKDOT_S
  0
BLOCK_RECORD
  5
50
330
1
100
AcDbSymbolTableRecord
100
AcDbBlockTableRecord
  2
EDTIP_BLACKDOT_E
  0
BLOCK_RECORD
  5
56
330
1
100
AcDbSymbolTableRecord
100
AcDbBlockTableRecord
  2
EDTIP_ARCHITECT_S
  0
BLOCK_RECORD
  5
5C
330
1
100
AcDbSymbolTableRecord
100
AcDbBlockTableRecord
  2
EDTIP_ARCHITECT_E
  0
BLOCK_RECORD
  5
62
330
1
100
AcDbSymbolTableRecord
100
AcDbBlockTableRecord
  2
EDTIP_CIVIL_S
  0
BLOCK_RECORD
  5
68
330
1
100
AcDbSymbolTableRecord
100
AcDbBlockTableRecord
  2
EDTIP_CIVIL_E
  0
BLOCK_RECORD
  5
10E
330
1
100
AcDbSymbolTableRecord
100
AcDbBlockTableRecord
  2
BLKF011
  0
BLOCK_RECORD
  5
196
330
1
100
AcDbSymbolTableRecord
100
AcDbBlockTableRecord
  2
BLKF012
  0
BLOCK_RECORD
  5
1F6
330
1
100
AcDbSymbolTableRecord
100
AcDbBlockTableRecord
  2
BLKF013
  0
BLOCK_RECORD
  5
232
330
1
100
AcDbSymbolTableRecord
100
AcDbBlockTableRecord
  2
BLKF014
  0
BLOCK_RECORD
  5
253
330
1
100
AcDbSymbolTableRecord
100
AcDbBlockTableRecord
  2
BLKF015
  0
BLOCK_RECORD
  5
2A2
330
1
100
AcDbSymbolTableRecord
100
AcDbBlockTableRecord
  2
BLKF016
  0
BLOCK_RECORD
  5
2E9
330
1
100
AcDbSymbolTableRecord
100
AcDbBlockTableRecord
  2
BLKF017
  0
BLOCK_RECORD
  5
3AA
330
1
100
AcDbSymbolTableRecord
100
AcDbBlockTableRecord
  2
BLKF018
  0
BLOCK_RECORD
  5
40A
330
1
100
AcDbSymbolTableRecord
100
AcDbBlockTableRecord
  2
BLKF019
  0
BLOCK_RECORD
  5
429
330
1
100
AcDbSymbolTableRecord
100
AcDbBlockTableRecord
  2
BLKF020
  0
BLOCK_RECORD
  5
453
330
1
100
AcDbSymbolTableRecord
100
AcDbBlockTableRecord
  2
BLKF021
  0
BLOCK_RECORD
  5
475
330
1
100
AcDbSymbolTableRecord
100
AcDbBlockTableRecord
  2
BLKF022
  0
BLOCK_RECORD
  5
496
330
1
100
AcDbSymbolTableRecord
100
AcDbBlockTableRecord
  2
BLKF023
  0
BLOCK_RECORD
  5
4C2
330
1
100
AcDbSymbolTableRecord
100
AcDbBlockTableRecord
  2
BLKF024
  0
BLOCK_RECORD
  5
4E4
330
1
100
AcDbSymbolTableRecord
100
AcDbBlockTableRecord
  2
BLKF025
  0
BLOCK_RECORD
  5
50D
330
1
100
AcDbSymbolTableRecord
100
AcDbBlockTableRecord
  2
BLKF026
  0
BLOCK_RECORD
  5
538
330
1
100
AcDbSymbolTableRecord
100
AcDbBlockTableRecord
  2
BLKF027
  0
BLOCK_RECORD
  5
546
330
1
100
AcDbSymbolTableRecord
100
AcDbBlockTableRecord
  2
BLKF028
  0
BLOCK_RECORD
  5
555
330
1
100
AcDbSymbolTableRecord
100
AcDbBlockTableRecord
  2
BLKF029
  0
BLOCK_RECORD
  5
565
330
1
100
AcDbSymbolTableRecord
100
AcDbBlockTableRecord
  2
BLKF030
  0
BLOCK_RECORD
  5
575
330
1
100
AcDbSymbolTableRecord
100
AcDbBlockTableRecord
  2
BLKF031
  0
BLOCK_RECORD
  5
583
330
1
100
AcDbSymbolTableRecord
100
AcDbBlockTableRecord
  2
BLKF032
  0
BLOCK_RECORD
  5
593
330
1
100
AcDbSymbolTableRecord
100
AcDbBlockTableRecord
  2
BLKF033
  0
BLOCK_RECORD
  5
5A1
330
1
100
AcDbSymbolTableRecord
100
AcDbBlockTableRecord
  2
BLKF034
  0
BLOCK_RECORD
  5
5B3
330
1
100
AcDbSymbolTableRecord
100
AcDbBlockTableRecord
  2
BLKF035
  0
BLOCK_RECORD
  5
5C2
330
1
100
AcDbSymbolTableRecord
100
AcDbBlockTableRecord
  2
BLKF036
  0
BLOCK_RECORD
  5
61C
330
1
100
AcDbSymbolTableRecord
100
AcDbBlockTableRecord
  2
BLKF037
  0
BLOCK_RECORD
  5
62B
330
1
100
AcDbSymbolTableRecord
100
AcDbBlockTableRecord
  2
BLKF038
  0
BLOCK_RECORD
  5
63A
330
1
100
AcDbSymbolTableRecord
100
AcDbBlockTableRecord
  2
BLKF039
  0
BLOCK_RECORD
  5
648
330
1
100
AcDbSymbolTableRecord
100
AcDbBlockTableRecord
  2
BLKF040
  0
BLOCK_RECORD
  5
65A
330
1
100
AcDbSymbolTableRecord
100
AcDbBlockTableRecord
  2
BLKF041
  0
BLOCK_RECORD
  5
662
330
1
100
AcDbSymbolTableRecord
100
AcDbBlockTableRecord
  2
BLKF042
  0
BLOCK_RECORD
  5
748
330
1
100
AcDbSymbolTableRecord
100
AcDbBlockTableRecord
  2
BLKF043
  0
BLOCK_RECORD
  5
7A5
330
1
100
AcDbSymbolTableRecord
100
AcDbBlockTableRecord
  2
BLKF044
  0
BLOCK_RECORD
  5
7C4
330
1
100
AcDbSymbolTableRecord
100
AcDbBlockTableRecord
  2
BLKF045
  0
BLOCK_RECORD
  5
7EF
330
1
100
AcDbSymbolTableRecord
100
AcDbBlockTableRecord
  2
BLKF046
  0
BLOCK_RECORD
  5
82B
330
1
100
AcDbSymbolTableRecord
100
AcDbBlockTableRecord
  2
BLKF047
  0
BLOCK_RECORD
  5
83A
330
1
100
AcDbSymbolTableRecord
100
AcDbBlockTableRecord
  2
BLKF048
  0
ENDTAB
  0
ENDSEC
  0
SECTION
  2
BLOCKS
  0
BLOCK
  5
20
330
1F
100
AcDbEntity
  8
0
100
AcDbBlockBegin
  2
*MODEL_SPACE
 70
     0
 71
     0
 10
0.0
 20
0.0
 30
0.0
  3
*MODEL_SPACE
  1

  0
ENDBLK
  5
21
330
1F
100
AcDbEntity
  8
0
100
AcDbBlockEnd
  0
BLOCK
  5
1C
330
1B
100
AcDbEntity
 67
     1
  8
0
100
AcDbBlockBegin
  2
*PAPER_SPACE
 70
     0
 71
     0
 10
0.0
 20
0.0
 30
0.0
  3
*PAPER_SPACE
  1

  0
ENDBLK
  5
1D
330
1B
100
AcDbEntity
 67
     1
  8
0
100
AcDbBlockEnd
  0
BLOCK
  5
3F
330
3E
100
AcDbEntity
  8
0
100
AcDbBlockBegin
  2
EDTIP_ARROW_S
 70
     0
 71
     0
 10
0.0
 20
0.0
 30
0.0
  3
EDTIP_ARROW_S
  1

  0
LINE
  5
41
330
3E
100
AcDbEntity
  8
0
  6
CONTINUOUS
 62
     0
100
AcDbLine
 10
0.0
 20
0.0
 30
0.0
 11
-1.0
 21
0.0
 31
0.0
  0
LINE
  5
42
330
3E
100
AcDbEntity
  8
0
  6
CONTINUOUS
 62
     0
100
AcDbLine
 10
0.0
 20
0.0
 30
0.0
 11
-0.965926
 21
0.258819
 31
0.0
  0
LINE
  5
43
330
3E
100
AcDbEntity
  8
0
  6
CONTINUOUS
 62
     0
100
AcDbLine
 10
0.0
 20
0.0
 30
0.0
 11
-0.965926
 21
-0.258819
 31
0.0
  0
ENDBLK
  5
40
330
3E
100
AcDbEntity
  8
0
100
AcDbBlockEnd
  0
BLOCK
  5
45
330
44
100
AcDbEntity
  8
0
100
AcDbBlockBegin
  2
EDTIP_ARROW_E
 70
     0
 71
     0
 10
0.0
 20
0.0
 30
0.0
  3
EDTIP_ARROW_E
  1

  0
LINE
  5
47
330
44
100
AcDbEntity
  8
0
  6
CONTINUOUS
 62
     0
100
AcDbLine
 10
0.0
 20
0.0
 30
0.0
 11
-1.0
 21
0.0
 31
0.0
  0
LINE
  5
48
330
44
100
AcDbEntity
  8
0
  6
CONTINUOUS
 62
     0
100
AcDbLine
 10
0.0
 20
0.0
 30
0.0
 11
-0.965926
 21
-0.258819
 31
0.0
  0
LINE
  5
49
330
44
100
AcDbEntity
  8
0
  6
CONTINUOUS
 62
     0
100
AcDbLine
 10
0.0
 20
0.0
 30
0.0
 11
-0.965926
 21
0.258819
 31
0.0
  0
ENDBLK
  5
46
330
44
100
AcDbEntity
  8
0
100
AcDbBlockEnd
  0
BLOCK
  5
4B
330
4A
100
AcDbEntity
  8
0
100
AcDbBlockBegin
  2
EDTIP_BLACKDOT_S
 70
     0
 71
     0
 10
0.0
 20
0.0
 30
0.0
  3
EDTIP_BLACKDOT_S
  1

  0
LINE
  5
4D
330
4A
100
AcDbEntity
  8
0
  6
CONTINUOUS
 62
     0
100
AcDbLine
 10
0.0
 20
0.0
 30
0.0
 11
-1.0
 21
0.0
 31
0.0
  0
CIRCLE
  5
4E
330
4A
100
AcDbEntity
  8
0
  6
CONTINUOUS
 62
     0
100
AcDbCircle
 10
0.0
 20
0.0
 30
0.0
 40
0.5
  0
CIRCLE
  5
4F
330
4A
100
AcDbEntity
  8
0
  6
CONTINUOUS
 62
     0
100
AcDbCircle
 10
0.0
 20
0.0
 30
0.0
 40
0.25
  0
ENDBLK
  5
4C
330
4A
100
AcDbEntity
  8
0
100
AcDbBlockEnd
  0
BLOCK
  5
51
330
50
100
AcDbEntity
  8
0
100
AcDbBlockBegin
  2
EDTIP_BLACKDOT_E
 70
     0
 71
     0
 10
0.0
 20
0.0
 30
0.0
  3
EDTIP_BLACKDOT_E
  1

  0
LINE
  5
53
330
50
100
AcDbEntity
  8
0
  6
CONTINUOUS
 62
     0
100
AcDbLine
 10
0.0
 20
0.0
 30
0.0
 11
-1.0
 21
0.0
 31
0.0
  0
CIRCLE
  5
54
330
50
100
AcDbEntity
  8
0
  6
CONTINUOUS
 62
     0
100
AcDbCircle
 10
0.0
 20
0.0
 30
0.0
 40
0.5
  0
CIRCLE
  5
55
330
50
100
AcDbEntity
  8
0
  6
CONTINUOUS
 62
     0
100
AcDbCircle
 10
0.0
 20
0.0
 30
0.0
 40
0.25
  0
ENDBLK
  5
52
330
50
100
AcDbEntity
  8
0
100
AcDbBlockEnd
  0
BLOCK
  5
57
330
56
100
AcDbEntity
  8
0
100
AcDbBlockBegin
  2
EDTIP_ARCHITECT_S
 70
     0
 71
     0
 10
0.0
 20
0.0
 30
0.0
  3
EDTIP_ARCHITECT_S
  1

  0
LINE
  5
59
330
56
100
AcDbEntity
  8
0
  6
CONTINUOUS
 62
     0
100
AcDbLine
 10
0.0
 20
0.0
 30
0.0
 11
-1.0
 21
0.0
 31
0.0
  0
LINE
  5
5A
330
56
100
AcDbEntity
  8
0
  6
CONTINUOUS
 62
     0
100
AcDbLine
 10
0.0
 20
0.0
 30
0.0
 11
-0.707107
 21
-0.707107
 31
0.0
  0
LINE
  5
5B
330
56
100
AcDbEntity
  8
0
  6
CONTINUOUS
 62
     0
100
AcDbLine
 10
0.0
 20
0.0
 30
0.0
 11
0.707107
 21
0.707107
 31
0.0
  0
ENDBLK
  5
58
330
56
100
AcDbEntity
  8
0
100
AcDbBlockEnd
  0
BLOCK
  5
5D
330
5C
100
AcDbEntity
  8
0
100
AcDbBlockBegin
  2
EDTIP_ARCHITECT_E
 70
     0
 71
     0
 10
0.0
 20
0.0
 30
0.0
  3
EDTIP_ARCHITECT_E
  1

  0
LINE
  5
5F
330
5C
100
AcDbEntity
  8
0
  6
CONTINUOUS
 62
     0
100
AcDbLine
 10
0.0
 20
0.0
 30
0.0
 11
-1.0
 21
0.0
 31
0.0
  0
LINE
  5
60
330
5C
100
AcDbEntity
  8
0
  6
CONTINUOUS
 62
     0
100
AcDbLine
 10
0.0
 20
0.0
 30
0.0
 11
-0.707107
 21
-0.707107
 31
0.0
  0
LINE
  5
61
330
5C
100
AcDbEntity
  8
0
  6
CONTINUOUS
 62
     0
100
AcDbLine
 10
0.0
 20
0.0
 30
0.0
 11
0.707107
 21
0.707107
 31
0.0
  0
ENDBLK
  5
5E
330
5C
100
AcDbEntity
  8
0
100
AcDbBlockEnd
  0
BLOCK
  5
63
330
62
100
AcDbEntity
  8
0
100
AcDbBlockBegin
  2
EDTIP_CIVIL_S
 70
     0
 71
     0
 10
0.0
 20
0.0
 30
0.0
  3
EDTIP_CIVIL_S
  1

  0
LINE
  5
65
330
62
100
AcDbEntity
  8
0
  6
CONTINUOUS
 62
     0
100
AcDbLine
 10
0.0
 20
0.0
 30
0.0
 11
-1.0
 21
0.0
 31
0.0
  0
LINE
  5
66
330
62
100
AcDbEntity
  8
0
  6
CONTINUOUS
 62
     0
100
AcDbLine
 10
0.0
 20
-0.083333
 30
0.0
 11
-1.0
 21
-0.083333
 31
0.0
  0
LINE
  5
67
330
62
100
AcDbEntity
  8
0
  6
CONTINUOUS
 62
     0
100
AcDbLine
 10
0.0
 20
-0.166667
 30
0.0
 11
-1.0
 21
-0.166667
 31
0.0
  0
ENDBLK
  5
64
330
62
100
AcDbEntity
  8
0
100
AcDbBlockEnd
  0
BLOCK
  5
69
330
68
100
AcDbEntity
  8
0
100
AcDbBlockBegin
  2
EDTIP_CIVIL_E
 70
     0
 71
     0
 10
0.0
 20
0.0
 30
0.0
  3
EDTIP_CIVIL_E
  1

  0
LINE
  5
6B
330
68
100
AcDbEntity
  8
0
  6
CONTINUOUS
 62
     0
100
AcDbLine
 10
0.0
 20
0.0
 30
0.0
 11
-1.0
 21
0.0
 31
0.0
  0
LINE
  5
6C
330
68
100
AcDbEntity
  8
0
  6
CONTINUOUS
 62
     0
100
AcDbLine
 10
0.0
 20
0.083333
 30
0.0
 11
-1.0
 21
0.083333
 31
0.0
  0
LINE
  5
6D
330
68
100
AcDbEntity
  8
0
  6
CONTINUOUS
 62
     0
100
AcDbLine
 10
0.0
 20
0.166667
 30
0.0
 11
-1.0
 21
0.166667
 31
0.0
  0
ENDBLK
  5
6A
330
68
100
AcDbEntity
  8
0
100
AcDbBlockEnd
  0
BLOCK
  5
10F
330
10E
100
AcDbEntity
  8
0
100
AcDbBlockBegin
  2
BLKF011
 70
     0
 71
     0
 10
0.0
 20
0.0
 30
0.0
  3
BLKF011
  1

  0
LINE
  5
112
330
10E
100
AcDbEntity
  8
0
  6
CONTINUOUS
 62
     7
100
AcDbLine
 10
93.243119
 20
161.431154
 30
0.0
 11
93.197832
 21
161.431374
 31
0.0
  0
LINE
  5
113
330
10E
100
AcDbEntity
  8
0
  6
CONTINUOUS
 62
     7
100
AcDbLine
 10
93.197832
 20
161.431374
 30
0.0
 11
93.175181
 21
161.431505
 31
0.0
  0
LINE
  5
114
330
10E
100
AcDbEntity
  8
0
  6
CONTINUOUS
 62
     7
100
AcDbLine
 10
93.175181
 20
161.431505
 30
0.0
 11
93.152521
 21
161.43166
 31
0.0
  0
LINE
  5
115
330
10E
100
AcDbEntity
  8
0
  6
CONTINUOUS
 62
     7
100
AcDbLine
 10
93.152521
 20
161.43166
 30
0.0
 11
93.129849
 21
161.431847
 31
0.0
  0
LINE
  5
116
330
10E
100
AcDbEntity
  8
0
  6
CONTINUOUS
 62
     7
100
AcDbLine
 10
93.129849
 20
161.431847
 30
0.0
 11
93.107162
 21
161.432076
 31
0.0
  0
LINE
  5
117
330
10E
100
AcDbEntity
  8
0
  6
CONTINUOUS
 62
     7
100
AcDbLine
 10
93.107162
 20
161.432076
 30
0.0
 11
93.084457
 21
161.432354
 31
0.0
  0
LINE
  5
118
330
10E
100
AcDbEntity
  8
0
  6
CONTINUOUS
 62
     7
100
AcDbLine
 10
93.084457
 20
161.432354
 30
0.0
 11
93.061731
 21
161.432689
 31
0.0
  0
LINE
  5
119
330
10E
100
AcDbEntity
  8
0
  6
CONTINUOUS
 62
     7
100
AcDbLine
 10
93.061731
 20
161.432689
 30
0.0
 11
93.040462
 21
161.433059
 31
0.0
  0
LINE
  5
11A
330
10E
100
AcDbEntity
  8
0
  6
CONTINUOUS
 62
     7
100
AcDbLine
 10
93.040462
 20
161.433059
 30
0.0
 11
93.019186
 21
161.433485
 31
0.0
  0
LINE
  5
11B
330
10E
100
AcDbEntity
  8
0
  6
CONTINUOUS
 62
     7
100
AcDbLine
 10
93.019186
 20
161.433485
 30
0.0
 11
92.997917
 21
161.433963
 31
0.0
  0
LINE
  5
11C
330
10E
100
AcDbEntity
  8
0
  6
CONTINUOUS
 62
     7
100
AcDbLine
 10
92.997917
 20
161.433963
 30
0.0
 11
92.976669
 21
161.434492
 31
0.0
  0
LINE
  5
11D
330
10E
100
AcDbEntity
  8
0
  6
CONTINUOUS
 62
     7
100
AcDbLine
 10
92.976669
 20
161.434492
 30
0.0
 11
92.955457
 21
161.435069
 31
0.0
  0
LINE
  5
11E
330
10E
100
AcDbEntity
  8
0
  6
CONTINUOUS
 62
     7
100
AcDbLine
 10
92.955457
 20
161.435069
 30
0.0
 11
92.934294
 21
161.435693
 31
0.0
  0
LINE
  5
11F
330
10E
100
AcDbEntity
  8
0
  6
CONTINUOUS
 62
     7
100
AcDbLine
 10
92.934294
 20
161.435693
 30
0.0
 11
92.913194
 21
161.43636
 31
0.0
  0
LINE
  5
120
330
10E
100
AcDbEntity
  8
0
  6
CONTINUOUS
 62
     7
100
AcDbLine
 10
92.913194
 20
161.43636
 30
0.0
 11
92.892171
 21
161.43707
 31
0.0
  0
LINE
  5
121
330
10E
100
AcDbEntity
  8
0
  6
CONTINUOUS
 62
     7
100
AcDbLine
 10
92.892171
 20
161.43707
 30
0.0
 11
92.873404
 21
161.437739
 31
0.0
  0
LINE
  5
122
330
10E
100
AcDbEntity
  8
0
  6
CONTINUOUS
 62
     7
100
AcDbLine
 10
92.873404
 20
161.437739
 30
0.0
 11
92.854692
 21
161.438441
 31
0.0
  0
LINE
  5
123
330
10E
100
AcDbEntity
  8
0
  6
CONTINUOUS
 62
     7
100
AcDbLine
 10
92.854692
 20
161.438441
 30
0.0
 11
92.836018
 21
161.439176
 31
0.0
  0
LINE
  5
124
330
10E
100
AcDbEntity
  8
0
  6
CONTINUOUS
 62
     7
100
AcDbLine
 10
92.836018
 20
161.439176
 30
0.0
 11
92.817364
 21
161.439945
 31
0.0
  0
LINE
  5
125
330
10E
100
AcDbEntity
  8
0
  6
CONTINUOUS
 62
     7
100
AcDbLine
 10
92.817364
 20
161.439945
 30
0.0
 11
92.798712
 21
161.440747
 31
0.0
  0
LINE
  5
126
330
10E
100
AcDbEntity
  8
0
  6
CONTINUOUS
 62
     7
100
AcDbLine
 10
92.798712
 20
161.440747
 30
0.0
 11
92.780043
 21
161.441584
 31
0.0
  0
LINE
  5
127
330
10E
100
AcDbEntity
  8
0
  6
CONTINUOUS
 62
     7
100
AcDbLine
 10
92.780043
 20
161.441584
 30
0.0
 11
92.76134
 21
161.442456
 31
0.0
  0
LINE
  5
128
330
10E
100
AcDbEntity
  8
0
  6
CONTINUOUS
 62
     7
100
AcDbLine
 10
92.76134
 20
161.442456
 30
0.0
 11
92.742586
 21
161.443363
 31
0.0
  0
LINE
  5
129
330
10E
100
AcDbEntity
  8
0
  6
CONTINUOUS
 62
     7
100
AcDbLine
 10
92.742586
 20
161.443363
 30
0.0
 11
92.723761
 21
161.444307
 31
0.0
  0
LINE
  5
12A
330
10E
100
AcDbEntity
  8
0
  6
CONTINUOUS
 62
     7
100
AcDbLine
 10
92.723761
 20
161.444307
 30
0.0
 11
92.704849
 21
161.445287
 31
0.0
  0
LINE
  5
12B
330
10E
100
AcDbEntity
  8
0
  6
CONTINUOUS
 62
     7
100
AcDbLine
 10
92.704849
 20
161.445287
 30
0.0
 11
92.685832
 21
161.446305
 31
0.0
  0
LINE
  5
12C
330
10E
100
AcDbEntity
  8
0
  6
CONTINUOUS
 62
     7
100
AcDbLine
 10
92.685832
 20
161.446305
 30
0.0
 11
92.666691
 21
161.44736
 31
0.0
  0
LINE
  5
12D
330
10E
100
AcDbEntity
  8
0
  6
CONTINUOUS
 62
     7
100
AcDbLine
 10
92.666691
 20
161.44736
 30
0.0
 11
92.647408
 21
161.448454
 31
0.0
  0
LINE
  5
12E
330
10E
100
AcDbEntity
  8
0
  6
CONTINUOUS
 62
     7
100
AcDbLine
 10
92.647408
 20
161.448454
 30
0.0
 11
92.627966
 21
161.449587
 31
0.0
  0
LINE
  5
12F
330
10E
100
AcDbEntity
  8
0
  6
CONTINUOUS
 62
     7
100
AcDbLine
 10
92.627966
 20
161.449587
 30
0.0
 11
92.608348
 21
161.450759
 31
0.0
  0
LINE
  5
130
330
10E
100
AcDbEntity
  8
0
  6
CONTINUOUS
 62
     7
100
AcDbLine
 10
92.608348
 20
161.450759
 30
0.0
 11
92.588534
 21
161.451971
 31
0.0
  0
LINE
  5
131
330
10E
100
AcDbEntity
  8
0
  6
CONTINUOUS
 62
     7
100
AcDbLine
 10
92.588534
 20
161.451971
 30
0.0
 11
92.560821
 21
161.45371
 31
0.0
  0
LINE
  5
132
330
10E
100
AcDbEntity
  8
0
  6
CONTINUOUS
 62
     7
100
AcDbLine
 10
92.560821
 20
161.45371
 30
0.0
 11
92.532979
 21
161.455506
 31
0.0
  0
LINE
  5
133
330
10E
100
AcDbEntity
  8
0
  6
CONTINUOUS
 62
     7
100
AcDbLine
 10
92.532979
 20
161.455506
 30
0.0
 11
92.505284
 21
161.457335
 31
0.0
  0
LINE
  5
134
330
10E
100
AcDbEntity
  8
0
  6
CONTINUOUS
 62
     7
100
AcDbLine
 10
92.505284
 20
161.457335
 30
0.0
 11
92.478013
 21
161.459175
 31
0.0
  0
LINE
  5
135
330
10E
100
AcDbEntity
  8
0
  6
CONTINUOUS
 62
     7
100
AcDbLine
 10
92.478013
 20
161.459175
 30
0.0
 11
92.451445
 21
161.461006
 31
0.0
  0
LINE
  5
136
330
10E
100
AcDbEntity
  8
0
  6
CONTINUOUS
 62
     7
100
AcDbLine
 10
92.451445
 20
161.461006
 30
0.0
 11
92.425857
 21
161.462804
 31
0.0
  0
LINE
  5
137
330
10E
100
AcDbEntity
  8
0
  6
CONTINUOUS
 62
     7
100
AcDbLine
 10
92.425857
 20
161.462804
 30
0.0
 11
92.401526
 21
161.464548
 31
0.0
  0
LINE
  5
138
330
10E
100
AcDbEntity
  8
0
  6
CONTINUOUS
 62
     7
100
AcDbLine
 10
92.401526
 20
161.464548
 30
0.0
 11
92.378729
 21
161.466216
 31
0.0
  0
LINE
  5
139
330
10E
100
AcDbEntity
  8
0
  6
CONTINUOUS
 62
     7
100
AcDbLine
 10
92.378729
 20
161.466216
 30
0.0
 11
92.356152
 21
161.467937
 31
0.0
  0
LINE
  5
13A
330
10E
100
AcDbEntity
  8
0
  6
CONTINUOUS
 62
     7
100
AcDbLine
 10
92.356152
 20
161.467937
 30
0.0
 11
92.342692
 21
161.469034
 31
0.0
  0
LINE
  5
13B
330
10E
100
AcDbEntity
  8
0
  6
CONTINUOUS
 62
     7
100
AcDbLine
 10
92.342692
 20
161.469034
 30
0.0
 11
92.326262
 21
161.470433
 31
0.0
  0
LINE
  5
13C
330
10E
100
AcDbEntity
  8
0
  6
CONTINUOUS
 62
     7
100
AcDbLine
 10
92.326262
 20
161.470433
 30
0.0
 11
92.308757
 21
161.471968
 31
0.0
  0
LINE
  5
13D
330
10E
100
AcDbEntity
  8
0
  6
CONTINUOUS
 62
     7
100
AcDbLine
 10
92.308757
 20
161.471968
 30
0.0
 11
92.32624
 21
161.470433
 31
0.0
  0
LINE
  5
13E
330
10E
100
AcDbEntity
  8
0
  6
CONTINUOUS
 62
     7
100
AcDbLine
 10
92.32624
 20
161.470433
 30
0.0
 11
92.342676
 21
161.469033
 31
0.0
  0
LINE
  5
13F
330
10E
100
AcDbEntity
  8
0
  6
CONTINUOUS
 62
     7
100
AcDbLine
 10
92.342676
 20
161.469033
 30
0.0
 11
92.356144
 21
161.467936
 31
0.0
  0
LINE
  5
140
330
10E
100
AcDbEntity
  8
0
  6
CONTINUOUS
 62
     7
100
AcDbLine
 10
92.356144
 20
161.467936
 30
0.0
 11
92.378736
 21
161.466216
 31
0.0
  0
LINE
  5
141
330
10E
100
AcDbEntity
  8
0
  6
CONTINUOUS
 62
     7
100
AcDbLine
 10
92.378736
 20
161.466216
 30
0.0
 11
92.401561
 21
161.464548
 31
0.0
  0
LINE
  5
142
330
10E
100
AcDbEntity
  8
0
  6
CONTINUOUS
 62
     7
100
AcDbLine
 10
92.401561
 20
161.464548
 30
0.0
 11
92.425921
 21
161.462802
 31
0.0
  0
LINE
  5
143
330
10E
100
AcDbEntity
  8
0
  6
CONTINUOUS
 62
     7
100
AcDbLine
 10
92.425921
 20
161.462802
 30
0.0
 11
92.451539
 21
161.461001
 31
0.0
  0
LINE
  5
144
330
10E
100
AcDbEntity
  8
0
  6
CONTINUOUS
 62
     7
100
AcDbLine
 10
92.451539
 20
161.461001
 30
0.0
 11
92.478137
 21
161.459167
 31
0.0
  0
LINE
  5
145
330
10E
100
AcDbEntity
  8
0
  6
CONTINUOUS
 62
     7
100
AcDbLine
 10
92.478137
 20
161.459167
 30
0.0
 11
92.505437
 21
161.457322
 31
0.0
  0
LINE
  5
146
330
10E
100
AcDbEntity
  8
0
  6
CONTINUOUS
 62
     7
100
AcDbLine
 10
92.505437
 20
161.457322
 30
0.0
 11
92.533162
 21
161.455488
 31
0.0
  0
LINE
  5
147
330
10E
100
AcDbEntity
  8
0
  6
CONTINUOUS
 62
     7
100
AcDbLine
 10
92.533162
 20
161.455488
 30
0.0
 11
92.561034
 21
161.453687
 31
0.0
  0
LINE
  5
148
330
10E
100
AcDbEntity
  8
0
  6
CONTINUOUS
 62
     7
100
AcDbLine
 10
92.561034
 20
161.453687
 30
0.0
 11
92.588776
 21
161.451941
 31
0.0
  0
LINE
  5
149
330
10E
100
AcDbEntity
  8
0
  6
CONTINUOUS
 62
     7
100
AcDbLine
 10
92.588776
 20
161.451941
 30
0.0
 11
92.608593
 21
161.450725
 31
0.0
  0
LINE
  5
14A
330
10E
100
AcDbEntity
  8
0
  6
CONTINUOUS
 62
     7
100
AcDbLine
 10
92.608593
 20
161.450725
 30
0.0
 11
92.628215
 21
161.449549
 31
0.0
  0
LINE
  5
14B
330
10E
100
AcDbEntity
  8
0
  6
CONTINUOUS
 62
     7
100
AcDbLine
 10
92.628215
 20
161.449549
 30
0.0
 11
92.64766
 21
161.448413
 31
0.0
  0
LINE
  5
14C
330
10E
100
AcDbEntity
  8
0
  6
CONTINUOUS
 62
     7
100
AcDbLine
 10
92.64766
 20
161.448413
 30
0.0
 11
92.666946
 21
161.447316
 31
0.0
  0
LINE
  5
14D
330
10E
100
AcDbEntity
  8
0
  6
CONTINUOUS
 62
     7
100
AcDbLine
 10
92.666946
 20
161.447316
 30
0.0
 11
92.686091
 21
161.446257
 31
0.0
  0
LINE
  5
14E
330
10E
100
AcDbEntity
  8
0
  6
CONTINUOUS
 62
     7
100
AcDbLine
 10
92.686091
 20
161.446257
 30
0.0
 11
92.705113
 21
161.445236
 31
0.0
  0
LINE
  5
14F
330
10E
100
AcDbEntity
  8
0
  6
CONTINUOUS
 62
     7
100
AcDbLine
 10
92.705113
 20
161.445236
 30
0.0
 11
92.724029
 21
161.444253
 31
0.0
  0
LINE
  5
150
330
10E
100
AcDbEntity
  8
0
  6
CONTINUOUS
 62
     7
100
AcDbLine
 10
92.724029
 20
161.444253
 30
0.0
 11
92.742858
 21
161.443308
 31
0.0
  0
LINE
  5
151
330
10E
100
AcDbEntity
  8
0
  6
CONTINUOUS
 62
     7
100
AcDbLine
 10
92.742858
 20
161.443308
 30
0.0
 11
92.761616
 21
161.442399
 31
0.0
  0
LINE
  5
152
330
10E
100
AcDbEntity
  8
0
  6
CONTINUOUS
 62
     7
100
AcDbLine
 10
92.761616
 20
161.442399
 30
0.0
 11
92.780323
 21
161.441527
 31
0.0
  0
LINE
  5
153
330
10E
100
AcDbEntity
  8
0
  6
CONTINUOUS
 62
     7
100
AcDbLine
 10
92.780323
 20
161.441527
 30
0.0
 11
92.798996
 21
161.440691
 31
0.0
  0
LINE
  5
154
330
10E
100
AcDbEntity
  8
0
  6
CONTINUOUS
 62
     7
100
AcDbLine
 10
92.798996
 20
161.440691
 30
0.0
 11
92.817653
 21
161.439891
 31
0.0
  0
LINE
  5
155
330
10E
100
AcDbEntity
  8
0
  6
CONTINUOUS
 62
     7
100
AcDbLine
 10
92.817653
 20
161.439891
 30
0.0
 11
92.836311
 21
161.439126
 31
0.0
  0
LINE
  5
156
330
10E
100
AcDbEntity
  8
0
  6
CONTINUOUS
 62
     7
100
AcDbLine
 10
92.836311
 20
161.439126
 30
0.0
 11
92.85499
 21
161.438396
 31
0.0
  0
LINE
  5
157
330
10E
100
AcDbEntity
  8
0
  6
CONTINUOUS
 62
     7
100
AcDbLine
 10
92.85499
 20
161.438396
 30
0.0
 11
92.873705
 21
161.437701
 31
0.0
  0
LINE
  5
158
330
10E
100
AcDbEntity
  8
0
  6
CONTINUOUS
 62
     7
100
AcDbLine
 10
92.873705
 20
161.437701
 30
0.0
 11
92.892476
 21
161.43704
 31
0.0
  0
LINE
  5
159
330
10E
100
AcDbEntity
  8
0
  6
CONTINUOUS
 62
     7
100
AcDbLine
 10
92.892476
 20
161.43704
 30
0.0
 11
92.913533
 21
161.436341
 31
0.0
  0
LINE
  5
15A
330
10E
100
AcDbEntity
  8
0
  6
CONTINUOUS
 62
     7
100
AcDbLine
 10
92.913533
 20
161.436341
 30
0.0
 11
92.934668
 21
161.435685
 31
0.0
  0
LINE
  5
15B
330
10E
100
AcDbEntity
  8
0
  6
CONTINUOUS
 62
     7
100
AcDbLine
 10
92.934668
 20
161.435685
 30
0.0
 11
92.955866
 21
161.435071
 31
0.0
  0
LINE
  5
15C
330
10E
100
AcDbEntity
  8
0
  6
CONTINUOUS
 62
     7
100
AcDbLine
 10
92.955866
 20
161.435071
 30
0.0
 11
92.977113
 21
161.434502
 31
0.0
  0
LINE
  5
15D
330
10E
100
AcDbEntity
  8
0
  6
CONTINUOUS
 62
     7
100
AcDbLine
 10
92.977113
 20
161.434502
 30
0.0
 11
92.998395
 21
161.433977
 31
0.0
  0
LINE
  5
15E
330
10E
100
AcDbEntity
  8
0
  6
CONTINUOUS
 62
     7
100
AcDbLine
 10
92.998395
 20
161.433977
 30
0.0
 11
93.019698
 21
161.433497
 31
0.0
  0
LINE
  5
15F
330
10E
100
AcDbEntity
  8
0
  6
CONTINUOUS
 62
     7
100
AcDbLine
 10
93.019698
 20
161.433497
 30
0.0
 11
93.041009
 21
161.433062
 31
0.0
  0
LINE
  5
160
330
10E
100
AcDbEntity
  8
0
  6
CONTINUOUS
 62
     7
100
AcDbLine
 10
93.041009
 20
161.433062
 30
0.0
 11
93.062312
 21
161.432674
 31
0.0
  0
LINE
  5
161
330
10E
100
AcDbEntity
  8
0
  6
CONTINUOUS
 62
     7
100
AcDbLine
 10
93.062312
 20
161.432674
 30
0.0
 11
93.085093
 21
161.432309
 31
0.0
  0
LINE
  5
162
330
10E
100
AcDbEntity
  8
0
  6
CONTINUOUS
 62
     7
100
AcDbLine
 10
93.085093
 20
161.432309
 30
0.0
 11
93.107852
 21
161.431997
 31
0.0
  0
LINE
  5
163
330
10E
100
AcDbEntity
  8
0
  6
CONTINUOUS
 62
     7
100
AcDbLine
 10
93.107852
 20
161.431997
 30
0.0
 11
93.130593
 21
161.431735
 31
0.0
  0
LINE
  5
164
330
10E
100
AcDbEntity
  8
0
  6
CONTINUOUS
 62
     7
100
AcDbLine
 10
93.130593
 20
161.431735
 30
0.0
 11
93.15332
 21
161.431524
 31
0.0
  0
LINE
  5
165
330
10E
100
AcDbEntity
  8
0
  6
CONTINUOUS
 62
     7
100
AcDbLine
 10
93.15332
 20
161.431524
 30
0.0
 11
93.176034
 21
161.431361
 31
0.0
  0
LINE
  5
166
330
10E
100
AcDbEntity
  8
0
  6
CONTINUOUS
 62
     7
100
AcDbLine
 10
93.176034
 20
161.431361
 30
0.0
 11
93.19874
 21
161.431246
 31
0.0
  0
LINE
  5
167
330
10E
100
AcDbEntity
  8
0
  6
CONTINUOUS
 62
     7
100
AcDbLine
 10
93.19874
 20
161.431246
 30
0.0
 11
93.221439
 21
161.431177
 31
0.0
  0
LINE
  5
168
330
10E
100
AcDbEntity
  8
0
  6
CONTINUOUS
 62
     7
100
AcDbLine
 10
93.221439
 20
161.431177
 30
0.0
 11
93.244136
 21
161.431154
 31
0.0
  0
LINE
  5
169
330
10E
100
AcDbEntity
  8
0
  6
CONTINUOUS
 62
     7
100
AcDbLine
 10
93.244136
 20
161.431154
 30
0.0
 11
93.266771
 21
161.431175
 31
0.0
  0
LINE
  5
16A
330
10E
100
AcDbEntity
  8
0
  6
CONTINUOUS
 62
     7
100
AcDbLine
 10
93.266771
 20
161.431175
 30
0.0
 11
93.289409
 21
161.431241
 31
0.0
  0
LINE
  5
16B
330
10E
100
AcDbEntity
  8
0
  6
CONTINUOUS
 62
     7
100
AcDbLine
 10
93.289409
 20
161.431241
 30
0.0
 11
93.312053
 21
161.431354
 31
0.0
  0
LINE
  5
16C
330
10E
100
AcDbEntity
  8
0
  6
CONTINUOUS
 62
     7
100
AcDbLine
 10
93.312053
 20
161.431354
 30
0.0
 11
93.334706
 21
161.431514
 31
0.0
  0
LINE
  5
16D
330
10E
100
AcDbEntity
  8
0
  6
CONTINUOUS
 62
     7
100
AcDbLine
 10
93.334706
 20
161.431514
 30
0.0
 11
93.35737
 21
161.431724
 31
0.0
  0
LINE
  5
16E
330
10E
100
AcDbEntity
  8
0
  6
CONTINUOUS
 62
     7
100
AcDbLine
 10
93.35737
 20
161.431724
 30
0.0
 11
93.380049
 21
161.431983
 31
0.0
  0
LINE
  5
16F
330
10E
100
AcDbEntity
  8
0
  6
CONTINUOUS
 62
     7
100
AcDbLine
 10
93.380049
 20
161.431983
 30
0.0
 11
93.402745
 21
161.432295
 31
0.0
  0
LINE
  5
170
330
10E
100
AcDbEntity
  8
0
  6
CONTINUOUS
 62
     7
100
AcDbLine
 10
93.402745
 20
161.432295
 30
0.0
 11
93.425461
 21
161.432659
 31
0.0
  0
LINE
  5
171
330
10E
100
AcDbEntity
  8
0
  6
CONTINUOUS
 62
     7
100
AcDbLine
 10
93.425461
 20
161.432659
 30
0.0
 11
93.446724
 21
161.433048
 31
0.0
  0
LINE
  5
172
330
10E
100
AcDbEntity
  8
0
  6
CONTINUOUS
 62
     7
100
AcDbLine
 10
93.446724
 20
161.433048
 30
0.0
 11
93.467993
 21
161.433484
 31
0.0
  0
LINE
  5
173
330
10E
100
AcDbEntity
  8
0
  6
CONTINUOUS
 62
     7
100
AcDbLine
 10
93.467993
 20
161.433484
 30
0.0
 11
93.489255
 21
161.433965
 31
0.0
  0
LINE
  5
174
330
10E
100
AcDbEntity
  8
0
  6
CONTINUOUS
 62
     7
100
AcDbLine
 10
93.489255
 20
161.433965
 30
0.0
 11
93.510497
 21
161.434492
 31
0.0
  0
LINE
  5
175
330
10E
100
AcDbEntity
  8
0
  6
CONTINUOUS
 62
     7
100
AcDbLine
 10
93.510497
 20
161.434492
 30
0.0
 11
93.531704
 21
161.435064
 31
0.0
  0
LINE
  5
176
330
10E
100
AcDbEntity
  8
0
  6
CONTINUOUS
 62
     7
100
AcDbLine
 10
93.531704
 20
161.435064
 30
0.0
 11
93.552864
 21
161.435679
 31
0.0
  0
LINE
  5
177
330
10E
100
AcDbEntity
  8
0
  6
CONTINUOUS
 62
     7
100
AcDbLine
 10
93.552864
 20
161.435679
 30
0.0
 11
93.573963
 21
161.436338
 31
0.0
  0
LINE
  5
178
330
10E
100
AcDbEntity
  8
0
  6
CONTINUOUS
 62
     7
100
AcDbLine
 10
93.573963
 20
161.436338
 30
0.0
 11
93.594988
 21
161.43704
 31
0.0
  0
LINE
  5
179
330
10E
100
AcDbEntity
  8
0
  6
CONTINUOUS
 62
     7
100
AcDbLine
 10
93.594988
 20
161.43704
 30
0.0
 11
93.613764
 21
161.437704
 31
0.0
  0
LINE
  5
17A
330
10E
100
AcDbEntity
  8
0
  6
CONTINUOUS
 62
     7
100
AcDbLine
 10
93.613764
 20
161.437704
 30
0.0
 11
93.632487
 21
161.438403
 31
0.0
  0
LINE
  5
17B
330
10E
100
AcDbEntity
  8
0
  6
CONTINUOUS
 62
     7
100
AcDbLine
 10
93.632487
 20
161.438403
 30
0.0
 11
93.651174
 21
161.439136
 31
0.0
  0
LINE
  5
17C
330
10E
100
AcDbEntity
  8
0
  6
CONTINUOUS
 62
     7
100
AcDbLine
 10
93.651174
 20
161.439136
 30
0.0
 11
93.669842
 21
161.439904
 31
0.0
  0
LINE
  5
17D
330
10E
100
AcDbEntity
  8
0
  6
CONTINUOUS
 62
     7
100
AcDbLine
 10
93.669842
 20
161.439904
 30
0.0
 11
93.688507
 21
161.440708
 31
0.0
  0
LINE
  5
17E
330
10E
100
AcDbEntity
  8
0
  6
CONTINUOUS
 62
     7
100
AcDbLine
 10
93.688507
 20
161.440708
 30
0.0
 11
93.707189
 21
161.441546
 31
0.0
  0
LINE
  5
17F
330
10E
100
AcDbEntity
  8
0
  6
CONTINUOUS
 62
     7
100
AcDbLine
 10
93.707189
 20
161.441546
 30
0.0
 11
93.725903
 21
161.442421
 31
0.0
  0
LINE
  5
180
330
10E
100
AcDbEntity
  8
0
  6
CONTINUOUS
 62
     7
100
AcDbLine
 10
93.725903
 20
161.442421
 30
0.0
 11
93.744667
 21
161.443332
 31
0.0
  0
LINE
  5
181
330
10E
100
AcDbEntity
  8
0
  6
CONTINUOUS
 62
     7
100
AcDbLine
 10
93.744667
 20
161.443332
 30
0.0
 11
93.763499
 21
161.44428
 31
0.0
  0
LINE
  5
182
330
10E
100
AcDbEntity
  8
0
  6
CONTINUOUS
 62
     7
100
AcDbLine
 10
93.763499
 20
161.44428
 30
0.0
 11
93.782414
 21
161.445264
 31
0.0
  0
LINE
  5
183
330
10E
100
AcDbEntity
  8
0
  6
CONTINUOUS
 62
     7
100
AcDbLine
 10
93.782414
 20
161.445264
 30
0.0
 11
93.801432
 21
161.446286
 31
0.0
  0
LINE
  5
184
330
10E
100
AcDbEntity
  8
0
  6
CONTINUOUS
 62
     7
100
AcDbLine
 10
93.801432
 20
161.446286
 30
0.0
 11
93.820569
 21
161.447346
 31
0.0
  0
LINE
  5
185
330
10E
100
AcDbEntity
  8
0
  6
CONTINUOUS
 62
     7
100
AcDbLine
 10
93.820569
 20
161.447346
 30
0.0
 11
93.839842
 21
161.448444
 31
0.0
  0
LINE
  5
186
330
10E
100
AcDbEntity
  8
0
  6
CONTINUOUS
 62
     7
100
AcDbLine
 10
93.839842
 20
161.448444
 30
0.0
 11
93.859268
 21
161.449581
 31
0.0
  0
LINE
  5
187
330
10E
100
AcDbEntity
  8
0
  6
CONTINUOUS
 62
     7
100
AcDbLine
 10
93.859268
 20
161.449581
 30
0.0
 11
93.878866
 21
161.450756
 31
0.0
  0
LINE
  5
188
330
10E
100
AcDbEntity
  8
0
  6
CONTINUOUS
 62
     7
100
AcDbLine
 10
93.878866
 20
161.450756
 30
0.0
 11
93.898651
 21
161.451971
 31
0.0
  0
LINE
  5
189
330
10E
100
AcDbEntity
  8
0
  6
CONTINUOUS
 62
     7
100
AcDbLine
 10
93.898651
 20
161.451971
 30
0.0
 11
93.926224
 21
161.453707
 31
0.0
  0
LINE
  5
18A
330
10E
100
AcDbEntity
  8
0
  6
CONTINUOUS
 62
     7
100
AcDbLine
 10
93.926224
 20
161.453707
 30
0.0
 11
93.953921
 21
161.455498
 31
0.0
  0
LINE
  5
18B
330
10E
100
AcDbEntity
  8
0
  6
CONTINUOUS
 62
     7
100
AcDbLine
 10
93.953921
 20
161.455498
 30
0.0
 11
93.981475
 21
161.457322
 31
0.0
  0
LINE
  5
18C
330
10E
100
AcDbEntity
  8
0
  6
CONTINUOUS
 62
     7
100
AcDbLine
 10
93.981475
 20
161.457322
 30
0.0
 11
94.008621
 21
161.459159
 31
0.0
  0
LINE
  5
18D
330
10E
100
AcDbEntity
  8
0
  6
CONTINUOUS
 62
     7
100
AcDbLine
 10
94.008621
 20
161.459159
 30
0.0
 11
94.035093
 21
161.460988
 31
0.0
  0
LINE
  5
18E
330
10E
100
AcDbEntity
  8
0
  6
CONTINUOUS
 62
     7
100
AcDbLine
 10
94.035093
 20
161.460988
 30
0.0
 11
94.060623
 21
161.462788
 31
0.0
  0
LINE
  5
18F
330
10E
100
AcDbEntity
  8
0
  6
CONTINUOUS
 62
     7
100
AcDbLine
 10
94.060623
 20
161.462788
 30
0.0
 11
94.084947
 21
161.464537
 31
0.0
  0
LINE
  5
190
330
10E
100
AcDbEntity
  8
0
  6
CONTINUOUS
 62
     7
100
AcDbLine
 10
94.084947
 20
161.464537
 30
0.0
 11
94.107796
 21
161.466216
 31
0.0
  0
LINE
  5
191
330
10E
100
AcDbEntity
  8
0
  6
CONTINUOUS
 62
     7
100
AcDbLine
 10
94.107796
 20
161.466216
 30
0.0
 11
94.130424
 21
161.467949
 31
0.0
  0
LINE
  5
192
330
10E
100
AcDbEntity
  8
0
  6
CONTINUOUS
 62
     7
100
AcDbLine
 10
94.130424
 20
161.467949
 30
0.0
 11
94.143822
 21
161.469044
 31
0.0
  0
LINE
  5
193
330
10E
100
AcDbEntity
  8
0
  6
CONTINUOUS
 62
     7
100
AcDbLine
 10
94.143822
 20
161.469044
 30
0.0
 11
94.16007
 21
161.470433
 31
0.0
  0
LINE
  5
194
330
10E
100
AcDbEntity
  8
0
  6
CONTINUOUS
 62
     7
100
AcDbLine
 10
94.16007
 20
161.470433
 30
0.0
 11
94.177482
 21
161.471968
 31
0.0
  0
LINE
  5
195
330
10E
100
AcDbEntity
  8
0
  6
CONTINUOUS
 62
     7
100
AcDbLine
 10
94.177482
 20
161.471968
 30
0.0
 11
94.159969
 21
161.470418
 31
0.0
  0
ENDBLK
  5
110
330
10E
100
AcDbEntity
  8
0
100
AcDbBlockEnd
  0
BLOCK
  5
197
330
196
100
AcDbEntity
  8
0
100
AcDbBlockBegin
  2
BLKF012
 70
     0
 71
     0
 10
0.0
 20
0.0
 30
0.0
  3
BLKF012
  1

  0
LINE
  5
19A
330
196
100
AcDbEntity
  8
0
  6
CONTINUOUS
 62
     7
100
AcDbLine
 10
93.424377
 20
139.711281
 30
0.0
 11
93.333723
 21
139.712269
 31
0.0
  0
LINE
  5
19B
330
196
100
AcDbEntity
  8
0
  6
CONTINUOUS
 62
     7
100
AcDbLine
 10
93.333723
 20
139.712269
 30
0.0
 11
93.288411
 21
139.712616
 31
0.0
  0
LINE
  5
19C
330
196
100
AcDbEntity
  8
0
  6
CONTINUOUS
 62
     7
100
AcDbLine
 10
93.288411
 20
139.712616
 30
0.0
 11
93.243119
 21
139.712786
 31
0.0
  0
LINE
  5
19D
330
196
100
AcDbEntity
  8
0
  6
CONTINUOUS
 62
     7
100
AcDbLine
 10
93.243119
 20
139.712786
 30
0.0
 11
93.197814
 21
139.712732
 31
0.0
  0
LINE
  5
19E
330
196
100
AcDbEntity
  8
0
  6
CONTINUOUS
 62
     7
100
AcDbLine
 10
93.197814
 20
139.712732
 30
0.0
 11
93.152502
 21
139.712452
 31
0.0
  0
LINE
  5
19F
330
196
100
AcDbEntity
  8
0
  6
CONTINUOUS
 62
     7
100
AcDbLine
 10
93.152502
 20
139.712452
 30
0.0
 11
93.107152
 21
139.711955
 31
0.0
  0
LINE
  5
1A0
330
196
100
AcDbEntity
  8
0
  6
CONTINUOUS
 62
     7
100
AcDbLine
 10
93.107152
 20
139.711955
 30
0.0
 11
93.061731
 21
139.711251
 31
0.0
  0
LINE
  5
1A1
330
196
100
AcDbEntity
  8
0
  6
CONTINUOUS
 62
     7
100
AcDbLine
 10
93.061731
 20
139.711251
 30
0.0
 11
93.019191
 21
139.710413
 31
0.0
  0
LINE
  5
1A2
330
196
100
AcDbEntity
  8
0
  6
CONTINUOUS
 62
     7
100
AcDbLine
 10
93.019191
 20
139.710413
 30
0.0
 11
92.976674
 21
139.709403
 31
0.0
  0
LINE
  5
1A3
330
196
100
AcDbEntity
  8
0
  6
CONTINUOUS
 62
     7
100
AcDbLine
 10
92.976674
 20
139.709403
 30
0.0
 11
92.934296
 21
139.708222
 31
0.0
  0
LINE
  5
1A4
330
196
100
AcDbEntity
  8
0
  6
CONTINUOUS
 62
     7
100
AcDbLine
 10
92.934296
 20
139.708222
 30
0.0
 11
92.892171
 21
139.70687
 31
0.0
  0
LINE
  5
1A5
330
196
100
AcDbEntity
  8
0
  6
CONTINUOUS
 62
     7
100
AcDbLine
 10
92.892171
 20
139.70687
 30
0.0
 11
92.854691
 21
139.705514
 31
0.0
  0
LINE
  5
1A6
330
196
100
AcDbEntity
  8
0
  6
CONTINUOUS
 62
     7
100
AcDbLine
 10
92.854691
 20
139.705514
 30
0.0
 11
92.817362
 21
139.704019
 31
0.0
  0
LINE
  5
1A7
330
196
100
AcDbEntity
  8
0
  6
CONTINUOUS
 62
     7
100
AcDbLine
 10
92.817362
 20
139.704019
 30
0.0
 11
92.78004
 21
139.702382
 31
0.0
  0
LINE
  5
1A8
330
196
100
AcDbEntity
  8
0
  6
CONTINUOUS
 62
     7
100
AcDbLine
 10
92.78004
 20
139.702382
 30
0.0
 11
92.742583
 21
139.700601
 31
0.0
  0
LINE
  5
1A9
330
196
100
AcDbEntity
  8
0
  6
CONTINUOUS
 62
     7
100
AcDbLine
 10
92.742583
 20
139.700601
 30
0.0
 11
92.704847
 21
139.698671
 31
0.0
  0
LINE
  5
1AA
330
196
100
AcDbEntity
  8
0
  6
CONTINUOUS
 62
     7
100
AcDbLine
 10
92.704847
 20
139.698671
 30
0.0
 11
92.666689
 21
139.696592
 31
0.0
  0
LINE
  5
1AB
330
196
100
AcDbEntity
  8
0
  6
CONTINUOUS
 62
     7
100
AcDbLine
 10
92.666689
 20
139.696592
 30
0.0
 11
92.627966
 21
139.694358
 31
0.0
  0
LINE
  5
1AC
330
196
100
AcDbEntity
  8
0
  6
CONTINUOUS
 62
     7
100
AcDbLine
 10
92.627966
 20
139.694358
 30
0.0
 11
92.588534
 21
139.691969
 31
0.0
  0
LINE
  5
1AD
330
196
100
AcDbEntity
  8
0
  6
CONTINUOUS
 62
     7
100
AcDbLine
 10
92.588534
 20
139.691969
 30
0.0
 11
92.532979
 21
139.68843
 31
0.0
  0
LINE
  5
1AE
330
196
100
AcDbEntity
  8
0
  6
CONTINUOUS
 62
     7
100
AcDbLine
 10
92.532979
 20
139.68843
 30
0.0
 11
92.478014
 21
139.684761
 31
0.0
  0
LINE
  5
1AF
330
196
100
AcDbEntity
  8
0
  6
CONTINUOUS
 62
     7
100
AcDbLine
 10
92.478014
 20
139.684761
 30
0.0
 11
92.425857
 21
139.681134
 31
0.0
  0
LINE
  5
1B0
330
196
100
AcDbEntity
  8
0
  6
CONTINUOUS
 62
     7
100
AcDbLine
 10
92.425857
 20
139.681134
 30
0.0
 11
92.378729
 21
139.677723
 31
0.0
  0
LINE
  5
1B1
330
196
100
AcDbEntity
  8
0
  6
CONTINUOUS
 62
     7
100
AcDbLine
 10
92.378729
 20
139.677723
 30
0.0
 11
92.356152
 21
139.676002
 31
0.0
  0
LINE
  5
1B2
330
196
100
AcDbEntity
  8
0
  6
CONTINUOUS
 62
     7
100
AcDbLine
 10
92.356152
 20
139.676002
 30
0.0
 11
92.326262
 21
139.673506
 31
0.0
  0
LINE
  5
1B3
330
196
100
AcDbEntity
  8
0
  6
CONTINUOUS
 62
     7
100
AcDbLine
 10
92.326262
 20
139.673506
 30
0.0
 11
92.308757
 21
139.671972
 31
0.0
  0
LINE
  5
1B4
330
196
100
AcDbEntity
  8
0
  6
CONTINUOUS
 62
     7
100
AcDbLine
 10
92.308757
 20
139.671972
 30
0.0
 11
92.32624
 21
139.673506
 31
0.0
  0
LINE
  5
1B5
330
196
100
AcDbEntity
  8
0
  6
CONTINUOUS
 62
     7
100
AcDbLine
 10
92.32624
 20
139.673506
 30
0.0
 11
92.356144
 21
139.676003
 31
0.0
  0
LINE
  5
1B6
330
196
100
AcDbEntity
  8
0
  6
CONTINUOUS
 62
     7
100
AcDbLine
 10
92.356144
 20
139.676003
 30
0.0
 11
92.378736
 21
139.677723
 31
0.0
  0
LINE
  5
1B7
330
196
100
AcDbEntity
  8
0
  6
CONTINUOUS
 62
     7
100
AcDbLine
 10
92.378736
 20
139.677723
 30
0.0
 11
92.425921
 21
139.681136
 31
0.0
  0
LINE
  5
1B8
330
196
100
AcDbEntity
  8
0
  6
CONTINUOUS
 62
     7
100
AcDbLine
 10
92.425921
 20
139.681136
 30
0.0
 11
92.478136
 21
139.684767
 31
0.0
  0
LINE
  5
1B9
330
196
100
AcDbEntity
  8
0
  6
CONTINUOUS
 62
     7
100
AcDbLine
 10
92.478136
 20
139.684767
 30
0.0
 11
92.533162
 21
139.688441
 31
0.0
  0
LINE
  5
1BA
330
196
100
AcDbEntity
  8
0
  6
CONTINUOUS
 62
     7
100
AcDbLine
 10
92.533162
 20
139.688441
 30
0.0
 11
92.588776
 21
139.691984
 31
0.0
  0
LINE
  5
1BB
330
196
100
AcDbEntity
  8
0
  6
CONTINUOUS
 62
     7
100
AcDbLine
 10
92.588776
 20
139.691984
 30
0.0
 11
92.628215
 21
139.694373
 31
0.0
  0
LINE
  5
1BC
330
196
100
AcDbEntity
  8
0
  6
CONTINUOUS
 62
     7
100
AcDbLine
 10
92.628215
 20
139.694373
 30
0.0
 11
92.666947
 21
139.696605
 31
0.0
  0
LINE
  5
1BD
330
196
100
AcDbEntity
  8
0
  6
CONTINUOUS
 62
     7
100
AcDbLine
 10
92.666947
 20
139.696605
 30
0.0
 11
92.705113
 21
139.698683
 31
0.0
  0
LINE
  5
1BE
330
196
100
AcDbEntity
  8
0
  6
CONTINUOUS
 62
     7
100
AcDbLine
 10
92.705113
 20
139.698683
 30
0.0
 11
92.742858
 21
139.700611
 31
0.0
  0
LINE
  5
1BF
330
196
100
AcDbEntity
  8
0
  6
CONTINUOUS
 62
     7
100
AcDbLine
 10
92.742858
 20
139.700611
 30
0.0
 11
92.780324
 21
139.702392
 31
0.0
  0
LINE
  5
1C0
330
196
100
AcDbEntity
  8
0
  6
CONTINUOUS
 62
     7
100
AcDbLine
 10
92.780324
 20
139.702392
 30
0.0
 11
92.817653
 21
139.704029
 31
0.0
  0
LINE
  5
1C1
330
196
100
AcDbEntity
  8
0
  6
CONTINUOUS
 62
     7
100
AcDbLine
 10
92.817653
 20
139.704029
 30
0.0
 11
92.85499
 21
139.705526
 31
0.0
  0
LINE
  5
1C2
330
196
100
AcDbEntity
  8
0
  6
CONTINUOUS
 62
     7
100
AcDbLine
 10
92.85499
 20
139.705526
 30
0.0
 11
92.892476
 21
139.706885
 31
0.0
  0
LINE
  5
1C3
330
196
100
AcDbEntity
  8
0
  6
CONTINUOUS
 62
     7
100
AcDbLine
 10
92.892476
 20
139.706885
 30
0.0
 11
92.934668
 21
139.708244
 31
0.0
  0
LINE
  5
1C4
330
196
100
AcDbEntity
  8
0
  6
CONTINUOUS
 62
     7
100
AcDbLine
 10
92.934668
 20
139.708244
 30
0.0
 11
92.977112
 21
139.70943
 31
0.0
  0
LINE
  5
1C5
330
196
100
AcDbEntity
  8
0
  6
CONTINUOUS
 62
     7
100
AcDbLine
 10
92.977112
 20
139.70943
 30
0.0
 11
93.019698
 21
139.710439
 31
0.0
  0
LINE
  5
1C6
330
196
100
AcDbEntity
  8
0
  6
CONTINUOUS
 62
     7
100
AcDbLine
 10
93.019698
 20
139.710439
 30
0.0
 11
93.062312
 21
139.711266
 31
0.0
  0
LINE
  5
1C7
330
196
100
AcDbEntity
  8
0
  6
CONTINUOUS
 62
     7
100
AcDbLine
 10
93.062312
 20
139.711266
 30
0.0
 11
93.107852
 21
139.711945
 31
0.0
  0
LINE
  5
1C8
330
196
100
AcDbEntity
  8
0
  6
CONTINUOUS
 62
     7
100
AcDbLine
 10
93.107852
 20
139.711945
 30
0.0
 11
93.15332
 21
139.712419
 31
0.0
  0
LINE
  5
1C9
330
196
100
AcDbEntity
  8
0
  6
CONTINUOUS
 62
     7
100
AcDbLine
 10
93.15332
 20
139.712419
 30
0.0
 11
93.19874
 21
139.712696
 31
0.0
  0
LINE
  5
1CA
330
196
100
AcDbEntity
  8
0
  6
CONTINUOUS
 62
     7
100
AcDbLine
 10
93.19874
 20
139.712696
 30
0.0
 11
93.244136
 21
139.712786
 31
0.0
  0
LINE
  5
1CB
330
196
100
AcDbEntity
  8
0
  6
CONTINUOUS
 62
     7
100
AcDbLine
 10
93.244136
 20
139.712786
 30
0.0
 11
93.289408
 21
139.712695
 31
0.0
  0
LINE
  5
1CC
330
196
100
AcDbEntity
  8
0
  6
CONTINUOUS
 62
     7
100
AcDbLine
 10
93.289408
 20
139.712695
 30
0.0
 11
93.334703
 21
139.712418
 31
0.0
  0
LINE
  5
1CD
330
196
100
AcDbEntity
  8
0
  6
CONTINUOUS
 62
     7
100
AcDbLine
 10
93.334703
 20
139.712418
 30
0.0
 11
93.380046
 21
139.711945
 31
0.0
  0
LINE
  5
1CE
330
196
100
AcDbEntity
  8
0
  6
CONTINUOUS
 62
     7
100
AcDbLine
 10
93.380046
 20
139.711945
 30
0.0
 11
93.425461
 21
139.711266
 31
0.0
  0
LINE
  5
1CF
330
196
100
AcDbEntity
  8
0
  6
CONTINUOUS
 62
     7
100
AcDbLine
 10
93.425461
 20
139.711266
 30
0.0
 11
93.467998
 21
139.710439
 31
0.0
  0
LINE
  5
1D0
330
196
100
AcDbEntity
  8
0
  6
CONTINUOUS
 62
     7
100
AcDbLine
 10
93.467998
 20
139.710439
 30
0.0
 11
93.510505
 21
139.70943
 31
0.0
  0
LINE
  5
1D1
330
196
100
AcDbEntity
  8
0
  6
CONTINUOUS
 62
     7
100
AcDbLine
 10
93.510505
 20
139.70943
 30
0.0
 11
93.552873
 21
139.708243
 31
0.0
  0
LINE
  5
1D2
330
196
100
AcDbEntity
  8
0
  6
CONTINUOUS
 62
     7
100
AcDbLine
 10
93.552873
 20
139.708243
 30
0.0
 11
93.594988
 21
139.706885
 31
0.0
  0
LINE
  5
1D3
330
196
100
AcDbEntity
  8
0
  6
CONTINUOUS
 62
     7
100
AcDbLine
 10
93.594988
 20
139.706885
 30
0.0
 11
93.632471
 21
139.705525
 31
0.0
  0
LINE
  5
1D4
330
196
100
AcDbEntity
  8
0
  6
CONTINUOUS
 62
     7
100
AcDbLine
 10
93.632471
 20
139.705525
 30
0.0
 11
93.669803
 21
139.704027
 31
0.0
  0
LINE
  5
1D5
330
196
100
AcDbEntity
  8
0
  6
CONTINUOUS
 62
     7
100
AcDbLine
 10
93.669803
 20
139.704027
 30
0.0
 11
93.707129
 21
139.702388
 31
0.0
  0
LINE
  5
1D6
330
196
100
AcDbEntity
  8
0
  6
CONTINUOUS
 62
     7
100
AcDbLine
 10
93.707129
 20
139.702388
 30
0.0
 11
93.744591
 21
139.700605
 31
0.0
  0
LINE
  5
1D7
330
196
100
AcDbEntity
  8
0
  6
CONTINUOUS
 62
     7
100
AcDbLine
 10
93.744591
 20
139.700605
 30
0.0
 11
93.782331
 21
139.698673
 31
0.0
  0
LINE
  5
1D8
330
196
100
AcDbEntity
  8
0
  6
CONTINUOUS
 62
     7
100
AcDbLine
 10
93.782331
 20
139.698673
 30
0.0
 11
93.820492
 21
139.69659
 31
0.0
  0
LINE
  5
1D9
330
196
100
AcDbEntity
  8
0
  6
CONTINUOUS
 62
     7
100
AcDbLine
 10
93.820492
 20
139.69659
 30
0.0
 11
93.859218
 21
139.694352
 31
0.0
  0
LINE
  5
1DA
330
196
100
AcDbEntity
  8
0
  6
CONTINUOUS
 62
     7
100
AcDbLine
 10
93.859218
 20
139.694352
 30
0.0
 11
93.898651
 21
139.691954
 31
0.0
  0
LINE
  5
1DB
330
196
100
AcDbEntity
  8
0
  6
CONTINUOUS
 62
     7
100
AcDbLine
 10
93.898651
 20
139.691954
 30
0.0
 11
93.954024
 21
139.688412
 31
0.0
  0
LINE
  5
1DC
330
196
100
AcDbEntity
  8
0
  6
CONTINUOUS
 62
     7
100
AcDbLine
 10
93.954024
 20
139.688412
 30
0.0
 11
94.008809
 21
139.684738
 31
0.0
  0
LINE
  5
1DD
330
196
100
AcDbEntity
  8
0
  6
CONTINUOUS
 62
     7
100
AcDbLine
 10
94.008809
 20
139.684738
 30
0.0
 11
94.060801
 21
139.681111
 31
0.0
  0
LINE
  5
1DE
330
196
100
AcDbEntity
  8
0
  6
CONTINUOUS
 62
     7
100
AcDbLine
 10
94.060801
 20
139.681111
 30
0.0
 11
94.107796
 21
139.677709
 31
0.0
  0
LINE
  5
1DF
330
196
100
AcDbEntity
  8
0
  6
CONTINUOUS
 62
     7
100
AcDbLine
 10
94.107796
 20
139.677709
 30
0.0
 11
94.130302
 21
139.675996
 31
0.0
  0
LINE
  5
1E0
330
196
100
AcDbEntity
  8
0
  6
CONTINUOUS
 62
     7
100
AcDbLine
 10
94.130302
 20
139.675996
 30
0.0
 11
94.16007
 21
139.673506
 31
0.0
  0
LINE
  5
1E1
330
196
100
AcDbEntity
  8
0
  6
CONTINUOUS
 62
     7
100
AcDbLine
 10
94.16007
 20
139.673506
 30
0.0
 11
94.177482
 21
139.671972
 31
0.0
  0
LINE
  5
1E2
330
196
100
AcDbEntity
  8
0
  6
CONTINUOUS
 62
     7
100
AcDbLine
 10
94.177482
 20
139.671972
 30
0.0
 11
94.159969
 21
139.673506
 31
0.0
  0
LINE
  5
1E3
330
196
100
AcDbEntity
  8
0
  6
CONTINUOUS
 62
     7
100
AcDbLine
 10
94.159969
 20
139.673506
 30
0.0
 11
94.130056
 21
139.676004
 31
0.0
  0
LINE
  5
1E4
330
196
100
AcDbEntity
  8
0
  6
CONTINUOUS
 62
     7
100
AcDbLine
 10
94.130056
 20
139.676004
 30
0.0
 11
94.107476
 21
139.677723
 31
0.0
  0
LINE
  5
1E5
330
196
100
AcDbEntity
  8
0
  6
CONTINUOUS
 62
     7
100
AcDbLine
 10
94.107476
 20
139.677723
 30
0.0
 11
94.060332
 21
139.681131
 31
0.0
  0
LINE
  5
1E6
330
196
100
AcDbEntity
  8
0
  6
CONTINUOUS
 62
     7
100
AcDbLine
 10
94.060332
 20
139.681131
 30
0.0
 11
94.008145
 21
139.68476
 31
0.0
  0
LINE
  5
1E7
330
196
100
AcDbEntity
  8
0
  6
CONTINUOUS
 62
     7
100
AcDbLine
 10
94.008145
 20
139.68476
 30
0.0
 11
93.953139
 21
139.688439
 31
0.0
  0
LINE
  5
1E8
330
196
100
AcDbEntity
  8
0
  6
CONTINUOUS
 62
     7
100
AcDbLine
 10
93.953139
 20
139.688439
 30
0.0
 11
93.897537
 21
139.691999
 31
0.0
  0
LINE
  5
1E9
330
196
100
AcDbEntity
  8
0
  6
CONTINUOUS
 62
     7
100
AcDbLine
 10
93.897537
 20
139.691999
 30
0.0
 11
93.858089
 21
139.69441
 31
0.0
  0
LINE
  5
1EA
330
196
100
AcDbEntity
  8
0
  6
CONTINUOUS
 62
     7
100
AcDbLine
 10
93.858089
 20
139.69441
 30
0.0
 11
93.819349
 21
139.696669
 31
0.0
  0
LINE
  5
1EB
330
196
100
AcDbEntity
  8
0
  6
CONTINUOUS
 62
     7
100
AcDbLine
 10
93.819349
 20
139.696669
 30
0.0
 11
93.781176
 21
139.698773
 31
0.0
  0
LINE
  5
1EC
330
196
100
AcDbEntity
  8
0
  6
CONTINUOUS
 62
     7
100
AcDbLine
 10
93.781176
 20
139.698773
 30
0.0
 11
93.743428
 21
139.700721
 31
0.0
  0
LINE
  5
1ED
330
196
100
AcDbEntity
  8
0
  6
CONTINUOUS
 62
     7
100
AcDbLine
 10
93.743428
 20
139.700721
 30
0.0
 11
93.705964
 21
139.70251
 31
0.0
  0
LINE
  5
1EE
330
196
100
AcDbEntity
  8
0
  6
CONTINUOUS
 62
     7
100
AcDbLine
 10
93.705964
 20
139.70251
 30
0.0
 11
93.668643
 21
139.70414
 31
0.0
  0
LINE
  5
1EF
330
196
100
AcDbEntity
  8
0
  6
CONTINUOUS
 62
     7
100
AcDbLine
 10
93.668643
 20
139.70414
 30
0.0
 11
93.631325
 21
139.705609
 31
0.0
  0
LINE
  5
1F0
330
196
100
AcDbEntity
  8
0
  6
CONTINUOUS
 62
     7
100
AcDbLine
 10
93.631325
 20
139.705609
 30
0.0
 11
93.593867
 21
139.706915
 31
0.0
  0
LINE
  5
1F1
330
196
100
AcDbEntity
  8
0
  6
CONTINUOUS
 62
     7
100
AcDbLine
 10
93.593867
 20
139.706915
 30
0.0
 11
93.5518
 21
139.708186
 31
0.0
  0
LINE
  5
1F2
330
196
100
AcDbEntity
  8
0
  6
CONTINUOUS
 62
     7
100
AcDbLine
 10
93.5518
 20
139.708186
 30
0.0
 11
93.509471
 21
139.709303
 31
0.0
  0
LINE
  5
1F3
330
196
100
AcDbEntity
  8
0
  6
CONTINUOUS
 62
     7
100
AcDbLine
 10
93.509471
 20
139.709303
 30
0.0
 11
93.424377
 21
139.711281
 31
0.0
  0
ENDBLK
  5
198
330
196
100
AcDbEntity
  8
0
100
AcDbBlockEnd
  0
BLOCK
  5
1F7
330
1F6
100
AcDbEntity
  8
0
100
AcDbBlockBegin
  2
BLKF013
 70
     0
 71
     0
 10
0.0
 20
0.0
 30
0.0
  3
BLKF013
  1

  0
LINE
  5
1FA
330
1F6
100
AcDbEntity
  8
0
  6
CONTINUOUS
 62
     7
100
AcDbLine
 10
94.093044
 20
161.379238
 30
0.0
 11
94.070576
 21
161.376632
 31
0.0
  0
LINE
  5
1FB
330
1F6
100
AcDbEntity
  8
0
  6
CONTINUOUS
 62
     7
100
AcDbLine
 10
94.070576
 20
161.376632
 30
0.0
 11
94.048091
 21
161.374202
 31
0.0
  0
LINE
  5
1FC
330
1F6
100
AcDbEntity
  8
0
  6
CONTINUOUS
 62
     7
100
AcDbLine
 10
94.048091
 20
161.374202
 30
0.0
 11
94.029196
 21
161.372397
 31
0.0
  0
LINE
  5
1FD
330
1F6
100
AcDbEntity
  8
0
  6
CONTINUOUS
 62
     7
100
AcDbLine
 10
94.029196
 20
161.372397
 30
0.0
 11
94.010282
 21
161.370781
 31
0.0
  0
LINE
  5
1FE
330
1F6
100
AcDbEntity
  8
0
  6
CONTINUOUS
 62
     7
100
AcDbLine
 10
94.010282
 20
161.370781
 30
0.0
 11
93.991356
 21
161.369296
 31
0.0
  0
LINE
  5
1FF
330
1F6
100
AcDbEntity
  8
0
  6
CONTINUOUS
 62
     7
100
AcDbLine
 10
93.991356
 20
161.369296
 30
0.0
 11
93.972423
 21
161.367883
 31
0.0
  0
LINE
  5
200
330
1F6
100
AcDbEntity
  8
0
  6
CONTINUOUS
 62
     7
100
AcDbLine
 10
93.972423
 20
161.367883
 30
0.0
 11
93.940515
 21
161.365557
 31
0.0
  0
LINE
  5
201
330
1F6
100
AcDbEntity
  8
0
  6
CONTINUOUS
 62
     7
100
AcDbLine
 10
93.940515
 20
161.365557
 30
0.0
 11
93.908605
 21
161.363294
 31
0.0
  0
LINE
  5
202
330
1F6
100
AcDbEntity
  8
0
  6
CONTINUOUS
 62
     7
100
AcDbLine
 10
93.908605
 20
161.363294
 30
0.0
 11
93.87669
 21
161.361112
 31
0.0
  0
LINE
  5
203
330
1F6
100
AcDbEntity
  8
0
  6
CONTINUOUS
 62
     7
100
AcDbLine
 10
93.87669
 20
161.361112
 30
0.0
 11
93.844769
 21
161.359032
 31
0.0
  0
LINE
  5
204
330
1F6
100
AcDbEntity
  8
0
  6
CONTINUOUS
 62
     7
100
AcDbLine
 10
93.844769
 20
161.359032
 30
0.0
 11
93.824339
 21
161.357763
 31
0.0
  0
LINE
  5
205
330
1F6
100
AcDbEntity
  8
0
  6
CONTINUOUS
 62
     7
100
AcDbLine
 10
93.824339
 20
161.357763
 30
0.0
 11
93.803906
 21
161.356542
 31
0.0
  0
LINE
  5
206
330
1F6
100
AcDbEntity
  8
0
  6
CONTINUOUS
 62
     7
100
AcDbLine
 10
93.803906
 20
161.356542
 30
0.0
 11
93.78347
 21
161.355368
 31
0.0
  0
LINE
  5
207
330
1F6
100
AcDbEntity
  8
0
  6
CONTINUOUS
 62
     7
100
AcDbLine
 10
93.78347
 20
161.355368
 30
0.0
 11
93.763032
 21
161.35424
 31
0.0
  0
LINE
  5
208
330
1F6
100
AcDbEntity
  8
0
  6
CONTINUOUS
 62
     7
100
AcDbLine
 10
93.763032
 20
161.35424
 30
0.0
 11
93.722147
 21
161.352118
 31
0.0
  0
LINE
  5
209
330
1F6
100
AcDbEntity
  8
0
  6
CONTINUOUS
 62
     7
100
AcDbLine
 10
93.722147
 20
161.352118
 30
0.0
 11
93.681254
 21
161.350166
 31
0.0
  0
LINE
  5
20A
330
1F6
100
AcDbEntity
  8
0
  6
CONTINUOUS
 62
     7
100
AcDbLine
 10
93.681254
 20
161.350166
 30
0.0
 11
93.640393
 21
161.348376
 31
0.0
  0
LINE
  5
20B
330
1F6
100
AcDbEntity
  8
0
  6
CONTINUOUS
 62
     7
100
AcDbLine
 10
93.640393
 20
161.348376
 30
0.0
 11
93.599526
 21
161.346734
 31
0.0
  0
LINE
  5
20C
330
1F6
100
AcDbEntity
  8
0
  6
CONTINUOUS
 62
     7
100
AcDbLine
 10
93.599526
 20
161.346734
 30
0.0
 11
93.558653
 21
161.345229
 31
0.0
  0
LINE
  5
20D
330
1F6
100
AcDbEntity
  8
0
  6
CONTINUOUS
 62
     7
100
AcDbLine
 10
93.558653
 20
161.345229
 30
0.0
 11
93.517774
 21
161.343848
 31
0.0
  0
LINE
  5
20E
330
1F6
100
AcDbEntity
  8
0
  6
CONTINUOUS
 62
     7
100
AcDbLine
 10
93.517774
 20
161.343848
 30
0.0
 11
93.483566
 21
161.342783
 31
0.0
  0
LINE
  5
20F
330
1F6
100
AcDbEntity
  8
0
  6
CONTINUOUS
 62
     7
100
AcDbLine
 10
93.483566
 20
161.342783
 30
0.0
 11
93.449354
 21
161.341813
 31
0.0
  0
LINE
  5
210
330
1F6
100
AcDbEntity
  8
0
  6
CONTINUOUS
 62
     7
100
AcDbLine
 10
93.449354
 20
161.341813
 30
0.0
 11
93.41514
 21
161.340951
 31
0.0
  0
LINE
  5
211
330
1F6
100
AcDbEntity
  8
0
  6
CONTINUOUS
 62
     7
100
AcDbLine
 10
93.41514
 20
161.340951
 30
0.0
 11
93.380924
 21
161.340212
 31
0.0
  0
LINE
  5
212
330
1F6
100
AcDbEntity
  8
0
  6
CONTINUOUS
 62
     7
100
AcDbLine
 10
93.380924
 20
161.340212
 30
0.0
 11
93.346705
 21
161.33961
 31
0.0
  0
LINE
  5
213
330
1F6
100
AcDbEntity
  8
0
  6
CONTINUOUS
 62
     7
100
AcDbLine
 10
93.346705
 20
161.33961
 30
0.0
 11
93.312485
 21
161.339162
 31
0.0
  0
LINE
  5
214
330
1F6
100
AcDbEntity
  8
0
  6
CONTINUOUS
 62
     7
100
AcDbLine
 10
93.312485
 20
161.339162
 30
0.0
 11
93.278265
 21
161.338881
 31
0.0
  0
LINE
  5
215
330
1F6
100
AcDbEntity
  8
0
  6
CONTINUOUS
 62
     7
100
AcDbLine
 10
93.278265
 20
161.338881
 30
0.0
 11
93.244043
 21
161.338781
 31
0.0
  0
LINE
  5
216
330
1F6
100
AcDbEntity
  8
0
  6
CONTINUOUS
 62
     7
100
AcDbLine
 10
93.244043
 20
161.338781
 30
0.0
 11
93.209806
 21
161.338874
 31
0.0
  0
LINE
  5
217
330
1F6
100
AcDbEntity
  8
0
  6
CONTINUOUS
 62
     7
100
AcDbLine
 10
93.209806
 20
161.338874
 30
0.0
 11
93.175569
 21
161.33915
 31
0.0
  0
LINE
  5
218
330
1F6
100
AcDbEntity
  8
0
  6
CONTINUOUS
 62
     7
100
AcDbLine
 10
93.175569
 20
161.33915
 30
0.0
 11
93.141334
 21
161.339593
 31
0.0
  0
LINE
  5
219
330
1F6
100
AcDbEntity
  8
0
  6
CONTINUOUS
 62
     7
100
AcDbLine
 10
93.141334
 20
161.339593
 30
0.0
 11
93.107099
 21
161.340189
 31
0.0
  0
LINE
  5
21A
330
1F6
100
AcDbEntity
  8
0
  6
CONTINUOUS
 62
     7
100
AcDbLine
 10
93.107099
 20
161.340189
 30
0.0
 11
93.072867
 21
161.340925
 31
0.0
  0
LINE
  5
21B
330
1F6
100
AcDbEntity
  8
0
  6
CONTINUOUS
 62
     7
100
AcDbLine
 10
93.072867
 20
161.340925
 30
0.0
 11
93.038637
 21
161.341784
 31
0.0
  0
LINE
  5
21C
330
1F6
100
AcDbEntity
  8
0
  6
CONTINUOUS
 62
     7
100
AcDbLine
 10
93.038637
 20
161.341784
 30
0.0
 11
93.00441
 21
161.342754
 31
0.0
  0
LINE
  5
21D
330
1F6
100
AcDbEntity
  8
0
  6
CONTINUOUS
 62
     7
100
AcDbLine
 10
93.00441
 20
161.342754
 30
0.0
 11
92.970186
 21
161.343818
 31
0.0
  0
LINE
  5
21E
330
1F6
100
AcDbEntity
  8
0
  6
CONTINUOUS
 62
     7
100
AcDbLine
 10
92.970186
 20
161.343818
 30
0.0
 11
92.929207
 21
161.345203
 31
0.0
  0
LINE
  5
21F
330
1F6
100
AcDbEntity
  8
0
  6
CONTINUOUS
 62
     7
100
AcDbLine
 10
92.929207
 20
161.345203
 30
0.0
 11
92.888233
 21
161.346714
 31
0.0
  0
LINE
  5
220
330
1F6
100
AcDbEntity
  8
0
  6
CONTINUOUS
 62
     7
100
AcDbLine
 10
92.888233
 20
161.346714
 30
0.0
 11
92.847265
 21
161.34836
 31
0.0
  0
LINE
  5
221
330
1F6
100
AcDbEntity
  8
0
  6
CONTINUOUS
 62
     7
100
AcDbLine
 10
92.847265
 20
161.34836
 30
0.0
 11
92.806303
 21
161.350151
 31
0.0
  0
LINE
  5
222
330
1F6
100
AcDbEntity
  8
0
  6
CONTINUOUS
 62
     7
100
AcDbLine
 10
92.806303
 20
161.350151
 30
0.0
 11
92.765273
 21
161.352101
 31
0.0
  0
LINE
  5
223
330
1F6
100
AcDbEntity
  8
0
  6
CONTINUOUS
 62
     7
100
AcDbLine
 10
92.765273
 20
161.352101
 30
0.0
 11
92.724252
 21
161.354218
 31
0.0
  0
LINE
  5
224
330
1F6
100
AcDbEntity
  8
0
  6
CONTINUOUS
 62
     7
100
AcDbLine
 10
92.724252
 20
161.354218
 30
0.0
 11
92.703745
 21
161.355343
 31
0.0
  0
LINE
  5
225
330
1F6
100
AcDbEntity
  8
0
  6
CONTINUOUS
 62
     7
100
AcDbLine
 10
92.703745
 20
161.355343
 30
0.0
 11
92.68324
 21
161.356514
 31
0.0
  0
LINE
  5
226
330
1F6
100
AcDbEntity
  8
0
  6
CONTINUOUS
 62
     7
100
AcDbLine
 10
92.68324
 20
161.356514
 30
0.0
 11
92.662739
 21
161.357734
 31
0.0
  0
LINE
  5
227
330
1F6
100
AcDbEntity
  8
0
  6
CONTINUOUS
 62
     7
100
AcDbLine
 10
92.662739
 20
161.357734
 30
0.0
 11
92.642241
 21
161.359002
 31
0.0
  0
LINE
  5
228
330
1F6
100
AcDbEntity
  8
0
  6
CONTINUOUS
 62
     7
100
AcDbLine
 10
92.642241
 20
161.359002
 30
0.0
 11
92.610245
 21
161.361081
 31
0.0
  0
LINE
  5
229
330
1F6
100
AcDbEntity
  8
0
  6
CONTINUOUS
 62
     7
100
AcDbLine
 10
92.610245
 20
161.361081
 30
0.0
 11
92.578256
 21
161.363263
 31
0.0
  0
LINE
  5
22A
330
1F6
100
AcDbEntity
  8
0
  6
CONTINUOUS
 62
     7
100
AcDbLine
 10
92.578256
 20
161.363263
 30
0.0
 11
92.546271
 21
161.365528
 31
0.0
  0
LINE
  5
22B
330
1F6
100
AcDbEntity
  8
0
  6
CONTINUOUS
 62
     7
100
AcDbLine
 10
92.546271
 20
161.365528
 30
0.0
 11
92.514289
 21
161.367854
 31
0.0
  0
LINE
  5
22C
330
1F6
100
AcDbEntity
  8
0
  6
CONTINUOUS
 62
     7
100
AcDbLine
 10
92.514289
 20
161.367854
 30
0.0
 11
92.495301
 21
161.369266
 31
0.0
  0
LINE
  5
22D
330
1F6
100
AcDbEntity
  8
0
  6
CONTINUOUS
 62
     7
100
AcDbLine
 10
92.495301
 20
161.369266
 30
0.0
 11
92.47632
 21
161.370751
 31
0.0
  0
LINE
  5
22E
330
1F6
100
AcDbEntity
  8
0
  6
CONTINUOUS
 62
     7
100
AcDbLine
 10
92.47632
 20
161.370751
 30
0.0
 11
92.457351
 21
161.372367
 31
0.0
  0
LINE
  5
22F
330
1F6
100
AcDbEntity
  8
0
  6
CONTINUOUS
 62
     7
100
AcDbLine
 10
92.457351
 20
161.372367
 30
0.0
 11
92.438401
 21
161.374172
 31
0.0
  0
LINE
  5
230
330
1F6
100
AcDbEntity
  8
0
  6
CONTINUOUS
 62
     7
100
AcDbLine
 10
92.438401
 20
161.374172
 30
0.0
 11
92.415751
 21
161.376616
 31
0.0
  0
LINE
  5
231
330
1F6
100
AcDbEntity
  8
0
  6
CONTINUOUS
 62
     7
100
AcDbLine
 10
92.415751
 20
161.376616
 30
0.0
 11
92.39312
 21
161.379238
 31
0.0
  0
ENDBLK
  5
1F8
330
1F6
100
AcDbEntity
  8
0
100
AcDbBlockEnd
  0
BLOCK
  5
233
330
232
100
AcDbEntity
  8
0
100
AcDbBlockBegin
  2
BLKF014
 70
     0
 71
     0
 10
0.0
 20
0.0
 30
0.0
  3
BLKF014
  1

  0
LINE
  5
236
330
232
100
AcDbEntity
  8
0
  6
CONTINUOUS
 62
     7
100
AcDbLine
 10
93.243119
 20
139.805158
 30
0.0
 11
93.311494
 21
139.804256
 31
0.0
  0
LINE
  5
237
330
232
100
AcDbEntity
  8
0
  6
CONTINUOUS
 62
     7
100
AcDbLine
 10
93.311494
 20
139.804256
 30
0.0
 11
93.345679
 21
139.803759
 31
0.0
  0
LINE
  5
238
330
232
100
AcDbEntity
  8
0
  6
CONTINUOUS
 62
     7
100
AcDbLine
 10
93.345679
 20
139.803759
 30
0.0
 11
93.379864
 21
139.803209
 31
0.0
  0
LINE
  5
239
330
232
100
AcDbEntity
  8
0
  6
CONTINUOUS
 62
     7
100
AcDbLine
 10
93.379864
 20
139.803209
 30
0.0
 11
93.414046
 21
139.802586
 31
0.0
  0
LINE
  5
23A
330
232
100
AcDbEntity
  8
0
  6
CONTINUOUS
 62
     7
100
AcDbLine
 10
93.414046
 20
139.802586
 30
0.0
 11
93.448227
 21
139.801874
 31
0.0
  0
LINE
  5
23B
330
232
100
AcDbEntity
  8
0
  6
CONTINUOUS
 62
     7
100
AcDbLine
 10
93.448227
 20
139.801874
 30
0.0
 11
93.482404
 21
139.801053
 31
0.0
  0
LINE
  5
23C
330
232
100
AcDbEntity
  8
0
  6
CONTINUOUS
 62
     7
100
AcDbLine
 10
93.482404
 20
139.801053
 30
0.0
 11
93.516578
 21
139.800107
 31
0.0
  0
LINE
  5
23D
330
232
100
AcDbEntity
  8
0
  6
CONTINUOUS
 62
     7
100
AcDbLine
 10
93.516578
 20
139.800107
 30
0.0
 11
93.537033
 21
139.799473
 31
0.0
  0
LINE
  5
23E
330
232
100
AcDbEntity
  8
0
  6
CONTINUOUS
 62
     7
100
AcDbLine
 10
93.537033
 20
139.799473
 30
0.0
 11
93.557487
 21
139.79879
 31
0.0
  0
LINE
  5
23F
330
232
100
AcDbEntity
  8
0
  6
CONTINUOUS
 62
     7
100
AcDbLine
 10
93.557487
 20
139.79879
 30
0.0
 11
93.57794
 21
139.798061
 31
0.0
  0
LINE
  5
240
330
232
100
AcDbEntity
  8
0
  6
CONTINUOUS
 62
     7
100
AcDbLine
 10
93.57794
 20
139.798061
 30
0.0
 11
93.598391
 21
139.797286
 31
0.0
  0
LINE
  5
241
330
232
100
AcDbEntity
  8
0
  6
CONTINUOUS
 62
     7
100
AcDbLine
 10
93.598391
 20
139.797286
 30
0.0
 11
93.639289
 21
139.795613
 31
0.0
  0
LINE
  5
242
330
232
100
AcDbEntity
  8
0
  6
CONTINUOUS
 62
     7
100
AcDbLine
 10
93.639289
 20
139.795613
 30
0.0
 11
93.680182
 21
139.793789
 31
0.0
  0
LINE
  5
243
330
232
100
AcDbEntity
  8
0
  6
CONTINUOUS
 62
     7
100
AcDbLine
 10
93.680182
 20
139.793789
 30
0.0
 11
93.721143
 21
139.791823
 31
0.0
  0
LINE
  5
244
330
232
100
AcDbEntity
  8
0
  6
CONTINUOUS
 62
     7
100
AcDbLine
 10
93.721143
 20
139.791823
 30
0.0
 11
93.762097
 21
139.789705
 31
0.0
  0
LINE
  5
245
330
232
100
AcDbEntity
  8
0
  6
CONTINUOUS
 62
     7
100
AcDbLine
 10
93.762097
 20
139.789705
 30
0.0
 11
93.78257
 21
139.788583
 31
0.0
  0
LINE
  5
246
330
232
100
AcDbEntity
  8
0
  6
CONTINUOUS
 62
     7
100
AcDbLine
 10
93.78257
 20
139.788583
 30
0.0
 11
93.80304
 21
139.787416
 31
0.0
  0
LINE
  5
247
330
232
100
AcDbEntity
  8
0
  6
CONTINUOUS
 62
     7
100
AcDbLine
 10
93.80304
 20
139.787416
 30
0.0
 11
93.823507
 21
139.786202
 31
0.0
  0
LINE
  5
248
330
232
100
AcDbEntity
  8
0
  6
CONTINUOUS
 62
     7
100
AcDbLine
 10
93.823507
 20
139.786202
 30
0.0
 11
93.843971
 21
139.784937
 31
0.0
  0
LINE
  5
249
330
232
100
AcDbEntity
  8
0
  6
CONTINUOUS
 62
     7
100
AcDbLine
 10
93.843971
 20
139.784937
 30
0.0
 11
93.875952
 21
139.78286
 31
0.0
  0
LINE
  5
24A
330
232
100
AcDbEntity
  8
0
  6
CONTINUOUS
 62
     7
100
AcDbLine
 10
93.875952
 20
139.78286
 30
0.0
 11
93.907927
 21
139.780678
 31
0.0
  0
LINE
  5
24B
330
232
100
AcDbEntity
  8
0
  6
CONTINUOUS
 62
     7
100
AcDbLine
 10
93.907927
 20
139.780678
 30
0.0
 11
93.939897
 21
139.778412
 31
0.0
  0
LINE
  5
24C
330
232
100
AcDbEntity
  8
0
  6
CONTINUOUS
 62
     7
100
AcDbLine
 10
93.939897
 20
139.778412
 30
0.0
 11
93.971864
 21
139.776086
 31
0.0
  0
LINE
  5
24D
330
232
100
AcDbEntity
  8
0
  6
CONTINUOUS
 62
     7
100
AcDbLine
 10
93.971864
 20
139.776086
 30
0.0
 11
93.990855
 21
139.774674
 31
0.0
  0
LINE
  5
24E
330
232
100
AcDbEntity
  8
0
  6
CONTINUOUS
 62
     7
100
AcDbLine
 10
93.990855
 20
139.774674
 30
0.0
 11
94.009839
 21
139.77319
 31
0.0
  0
LINE
  5
24F
330
232
100
AcDbEntity
  8
0
  6
CONTINUOUS
 62
     7
100
AcDbLine
 10
94.009839
 20
139.77319
 30
0.0
 11
94.02881
 21
139.771574
 31
0.0
  0
LINE
  5
250
330
232
100
AcDbEntity
  8
0
  6
CONTINUOUS
 62
     7
100
AcDbLine
 10
94.02881
 20
139.771574
 30
0.0
 11
94.047763
 21
139.769768
 31
0.0
  0
LINE
  5
251
330
232
100
AcDbEntity
  8
0
  6
CONTINUOUS
 62
     7
100
AcDbLine
 10
94.047763
 20
139.769768
 30
0.0
 11
94.07045
 21
139.767317
 31
0.0
  0
LINE
  5
252
330
232
100
AcDbEntity
  8
0
  6
CONTINUOUS
 62
     7
100
AcDbLine
 10
94.07045
 20
139.767317
 30
0.0
 11
94.093119
 21
139.764687
 31
0.0
  0
ENDBLK
  5
234
330
232
100
AcDbEntity
  8
0
100
AcDbBlockEnd
  0
BLOCK
  5
254
330
253
100
AcDbEntity
  8
0
100
AcDbBlockBegin
  2
BLKF015
 70
     0
 71
     0
 10
0.0
 20
0.0
 30
0.0
  3
BLKF015
  1

  0
LINE
  5
257
330
253
100
AcDbEntity
  8
0
  6
CONTINUOUS
 62
     7
100
AcDbLine
 10
92.393172
 20
139.764701
 30
0.0
 11
92.415684
 21
139.767316
 31
0.0
  0
LINE
  5
258
330
253
100
AcDbEntity
  8
0
  6
CONTINUOUS
 62
     7
100
AcDbLine
 10
92.415684
 20
139.767316
 30
0.0
 11
92.438214
 21
139.769753
 31
0.0
  0
LINE
  5
259
330
253
100
AcDbEntity
  8
0
  6
CONTINUOUS
 62
     7
100
AcDbLine
 10
92.438214
 20
139.769753
 30
0.0
 11
92.457142
 21
139.771559
 31
0.0
  0
LINE
  5
25A
330
253
100
AcDbEntity
  8
0
  6
CONTINUOUS
 62
     7
100
AcDbLine
 10
92.457142
 20
139.771559
 30
0.0
 11
92.476089
 21
139.773175
 31
0.0
  0
LINE
  5
25B
330
253
100
AcDbEntity
  8
0
  6
CONTINUOUS
 62
     7
100
AcDbLine
 10
92.476089
 20
139.773175
 30
0.0
 11
92.495048
 21
139.77466
 31
0.0
  0
LINE
  5
25C
330
253
100
AcDbEntity
  8
0
  6
CONTINUOUS
 62
     7
100
AcDbLine
 10
92.495048
 20
139.77466
 30
0.0
 11
92.514013
 21
139.776071
 31
0.0
  0
LINE
  5
25D
330
253
100
AcDbEntity
  8
0
  6
CONTINUOUS
 62
     7
100
AcDbLine
 10
92.514013
 20
139.776071
 30
0.0
 11
92.545998
 21
139.778399
 31
0.0
  0
LINE
  5
25E
330
253
100
AcDbEntity
  8
0
  6
CONTINUOUS
 62
     7
100
AcDbLine
 10
92.545998
 20
139.778399
 30
0.0
 11
92.577986
 21
139.780665
 31
0.0
  0
LINE
  5
25F
330
253
100
AcDbEntity
  8
0
  6
CONTINUOUS
 62
     7
100
AcDbLine
 10
92.577986
 20
139.780665
 30
0.0
 11
92.609978
 21
139.782846
 31
0.0
  0
LINE
  5
260
330
253
100
AcDbEntity
  8
0
  6
CONTINUOUS
 62
     7
100
AcDbLine
 10
92.609978
 20
139.782846
 30
0.0
 11
92.641977
 21
139.784922
 31
0.0
  0
LINE
  5
261
330
253
100
AcDbEntity
  8
0
  6
CONTINUOUS
 62
     7
100
AcDbLine
 10
92.641977
 20
139.784922
 30
0.0
 11
92.662455
 21
139.786187
 31
0.0
  0
LINE
  5
262
330
253
100
AcDbEntity
  8
0
  6
CONTINUOUS
 62
     7
100
AcDbLine
 10
92.662455
 20
139.786187
 30
0.0
 11
92.682936
 21
139.787401
 31
0.0
  0
LINE
  5
263
330
253
100
AcDbEntity
  8
0
  6
CONTINUOUS
 62
     7
100
AcDbLine
 10
92.682936
 20
139.787401
 30
0.0
 11
92.70342
 21
139.788568
 31
0.0
  0
LINE
  5
264
330
253
100
AcDbEntity
  8
0
  6
CONTINUOUS
 62
     7
100
AcDbLine
 10
92.70342
 20
139.788568
 30
0.0
 11
92.723907
 21
139.78969
 31
0.0
  0
LINE
  5
265
330
253
100
AcDbEntity
  8
0
  6
CONTINUOUS
 62
     7
100
AcDbLine
 10
92.723907
 20
139.78969
 30
0.0
 11
92.764889
 21
139.791807
 31
0.0
  0
LINE
  5
266
330
253
100
AcDbEntity
  8
0
  6
CONTINUOUS
 62
     7
100
AcDbLine
 10
92.764889
 20
139.791807
 30
0.0
 11
92.805878
 21
139.793774
 31
0.0
  0
LINE
  5
267
330
253
100
AcDbEntity
  8
0
  6
CONTINUOUS
 62
     7
100
AcDbLine
 10
92.805878
 20
139.793774
 30
0.0
 11
92.846797
 21
139.795598
 31
0.0
  0
LINE
  5
268
330
253
100
AcDbEntity
  8
0
  6
CONTINUOUS
 62
     7
100
AcDbLine
 10
92.846797
 20
139.795598
 30
0.0
 11
92.887723
 21
139.797271
 31
0.0
  0
LINE
  5
269
330
253
100
AcDbEntity
  8
0
  6
CONTINUOUS
 62
     7
100
AcDbLine
 10
92.887723
 20
139.797271
 30
0.0
 11
92.908187
 21
139.798045
 31
0.0
  0
LINE
  5
26A
330
253
100
AcDbEntity
  8
0
  6
CONTINUOUS
 62
     7
100
AcDbLine
 10
92.908187
 20
139.798045
 30
0.0
 11
92.928653
 21
139.798775
 31
0.0
  0
LINE
  5
26B
330
253
100
AcDbEntity
  8
0
  6
CONTINUOUS
 62
     7
100
AcDbLine
 10
92.928653
 20
139.798775
 30
0.0
 11
92.949121
 21
139.799458
 31
0.0
  0
LINE
  5
26C
330
253
100
AcDbEntity
  8
0
  6
CONTINUOUS
 62
     7
100
AcDbLine
 10
92.949121
 20
139.799458
 30
0.0
 11
92.96959
 21
139.800092
 31
0.0
  0
LINE
  5
26D
330
253
100
AcDbEntity
  8
0
  6
CONTINUOUS
 62
     7
100
AcDbLine
 10
92.96959
 20
139.800092
 30
0.0
 11
93.003773
 21
139.801039
 31
0.0
  0
LINE
  5
26E
330
253
100
AcDbEntity
  8
0
  6
CONTINUOUS
 62
     7
100
AcDbLine
 10
93.003773
 20
139.801039
 30
0.0
 11
93.037959
 21
139.801861
 31
0.0
  0
LINE
  5
26F
330
253
100
AcDbEntity
  8
0
  6
CONTINUOUS
 62
     7
100
AcDbLine
 10
93.037959
 20
139.801861
 30
0.0
 11
93.072148
 21
139.802575
 31
0.0
  0
LINE
  5
270
330
253
100
AcDbEntity
  8
0
  6
CONTINUOUS
 62
     7
100
AcDbLine
 10
93.072148
 20
139.802575
 30
0.0
 11
93.106339
 21
139.803199
 31
0.0
  0
LINE
  5
271
330
253
100
AcDbEntity
  8
0
  6
CONTINUOUS
 62
     7
100
AcDbLine
 10
93.106339
 20
139.803199
 30
0.0
 11
93.140533
 21
139.803752
 31
0.0
  0
LINE
  5
272
330
253
100
AcDbEntity
  8
0
  6
CONTINUOUS
 62
     7
100
AcDbLine
 10
93.140533
 20
139.803752
 30
0.0
 11
93.174727
 21
139.80425
 31
0.0
  0
LINE
  5
273
330
253
100
AcDbEntity
  8
0
  6
CONTINUOUS
 62
     7
100
AcDbLine
 10
93.174727
 20
139.80425
 30
0.0
 11
93.243119
 21
139.805158
 31
0.0
  0
ENDBLK
  5
255
330
253
100
AcDbEntity
  8
0
100
AcDbBlockEnd
  0
BLOCK
  5
2A3
330
2A2
100
AcDbEntity
  8
0
100
AcDbBlockBegin
  2
BLKF016
 70
     0
 71
     0
 10
0.0
 20
0.0
 30
0.0
  3
BLKF016
  1

  0
LINE
  5
2A6
330
2A2
100
AcDbEntity
  8
0
  6
CONTINUOUS
 62
     7
100
AcDbLine
 10
176.841036
 20
171.839913
 30
0.0
 11
176.671779
 21
171.943156
 31
0.0
  0
LINE
  5
2A7
330
2A2
100
AcDbEntity
  8
0
  6
CONTINUOUS
 62
     7
100
AcDbLine
 10
176.671779
 20
171.943156
 30
0.0
 11
176.586981
 21
171.994348
 31
0.0
  0
LINE
  5
2A8
330
2A2
100
AcDbEntity
  8
0
  6
CONTINUOUS
 62
     7
100
AcDbLine
 10
176.586981
 20
171.994348
 30
0.0
 11
176.501978
 21
172.045024
 31
0.0
  0
LINE
  5
2A9
330
2A2
100
AcDbEntity
  8
0
  6
CONTINUOUS
 62
     7
100
AcDbLine
 10
176.501978
 20
172.045024
 30
0.0
 11
176.416703
 21
172.095012
 31
0.0
  0
LINE
  5
2AA
330
2A2
100
AcDbEntity
  8
0
  6
CONTINUOUS
 62
     7
100
AcDbLine
 10
176.416703
 20
172.095012
 30
0.0
 11
176.331088
 21
172.144141
 31
0.0
  0
LINE
  5
2AB
330
2A2
100
AcDbEntity
  8
0
  6
CONTINUOUS
 62
     7
100
AcDbLine
 10
176.331088
 20
172.144141
 30
0.0
 11
176.245065
 21
172.192239
 31
0.0
  0
LINE
  5
2AC
330
2A2
100
AcDbEntity
  8
0
  6
CONTINUOUS
 62
     7
100
AcDbLine
 10
176.245065
 20
172.192239
 30
0.0
 11
176.158566
 21
172.239133
 31
0.0
  0
LINE
  5
2AD
330
2A2
100
AcDbEntity
  8
0
  6
CONTINUOUS
 62
     7
100
AcDbLine
 10
176.158566
 20
172.239133
 30
0.0
 11
176.071523
 21
172.284652
 31
0.0
  0
LINE
  5
2AE
330
2A2
100
AcDbEntity
  8
0
  6
CONTINUOUS
 62
     7
100
AcDbLine
 10
176.071523
 20
172.284652
 30
0.0
 11
175.983867
 21
172.328624
 31
0.0
  0
LINE
  5
2AF
330
2A2
100
AcDbEntity
  8
0
  6
CONTINUOUS
 62
     7
100
AcDbLine
 10
175.983867
 20
172.328624
 30
0.0
 11
175.895531
 21
172.370877
 31
0.0
  0
LINE
  5
2B0
330
2A2
100
AcDbEntity
  8
0
  6
CONTINUOUS
 62
     7
100
AcDbLine
 10
175.895531
 20
172.370877
 30
0.0
 11
175.806447
 21
172.411239
 31
0.0
  0
LINE
  5
2B1
330
2A2
100
AcDbEntity
  8
0
  6
CONTINUOUS
 62
     7
100
AcDbLine
 10
175.806447
 20
172.411239
 30
0.0
 11
175.761603
 21
172.430657
 31
0.0
  0
LINE
  5
2B2
330
2A2
100
AcDbEntity
  8
0
  6
CONTINUOUS
 62
     7
100
AcDbLine
 10
175.761603
 20
172.430657
 30
0.0
 11
175.716546
 21
172.449538
 31
0.0
  0
LINE
  5
2B3
330
2A2
100
AcDbEntity
  8
0
  6
CONTINUOUS
 62
     7
100
AcDbLine
 10
175.716546
 20
172.449538
 30
0.0
 11
175.671268
 21
172.467861
 31
0.0
  0
LINE
  5
2B4
330
2A2
100
AcDbEntity
  8
0
  6
CONTINUOUS
 62
     7
100
AcDbLine
 10
175.671268
 20
172.467861
 30
0.0
 11
175.625761
 21
172.485603
 31
0.0
  0
LINE
  5
2B5
330
2A2
100
AcDbEntity
  8
0
  6
CONTINUOUS
 62
     7
100
AcDbLine
 10
175.625761
 20
172.485603
 30
0.0
 11
175.580016
 21
172.502744
 31
0.0
  0
LINE
  5
2B6
330
2A2
100
AcDbEntity
  8
0
  6
CONTINUOUS
 62
     7
100
AcDbLine
 10
175.580016
 20
172.502744
 30
0.0
 11
175.534024
 21
172.519261
 31
0.0
  0
LINE
  5
2B7
330
2A2
100
AcDbEntity
  8
0
  6
CONTINUOUS
 62
     7
100
AcDbLine
 10
175.534024
 20
172.519261
 30
0.0
 11
175.487777
 21
172.535134
 31
0.0
  0
LINE
  5
2B8
330
2A2
100
AcDbEntity
  8
0
  6
CONTINUOUS
 62
     7
100
AcDbLine
 10
175.487777
 20
172.535134
 30
0.0
 11
175.441266
 21
172.550341
 31
0.0
  0
LINE
  5
2B9
330
2A2
100
AcDbEntity
  8
0
  6
CONTINUOUS
 62
     7
100
AcDbLine
 10
175.441266
 20
172.550341
 30
0.0
 11
175.374545
 21
172.57082
 31
0.0
  0
LINE
  5
2BA
330
2A2
100
AcDbEntity
  8
0
  6
CONTINUOUS
 62
     7
100
AcDbLine
 10
175.374545
 20
172.57082
 30
0.0
 11
175.30731
 21
172.589895
 31
0.0
  0
LINE
  5
2BB
330
2A2
100
AcDbEntity
  8
0
  6
CONTINUOUS
 62
     7
100
AcDbLine
 10
175.30731
 20
172.589895
 30
0.0
 11
175.239601
 21
172.607555
 31
0.0
  0
LINE
  5
2BC
330
2A2
100
AcDbEntity
  8
0
  6
CONTINUOUS
 62
     7
100
AcDbLine
 10
175.239601
 20
172.607555
 30
0.0
 11
175.171455
 21
172.623791
 31
0.0
  0
LINE
  5
2BD
330
2A2
100
AcDbEntity
  8
0
  6
CONTINUOUS
 62
     7
100
AcDbLine
 10
175.171455
 20
172.623791
 30
0.0
 11
175.102911
 21
172.638593
 31
0.0
  0
LINE
  5
2BE
330
2A2
100
AcDbEntity
  8
0
  6
CONTINUOUS
 62
     7
100
AcDbLine
 10
175.102911
 20
172.638593
 30
0.0
 11
175.034009
 21
172.651952
 31
0.0
  0
LINE
  5
2BF
330
2A2
100
AcDbEntity
  8
0
  6
CONTINUOUS
 62
     7
100
AcDbLine
 10
175.034009
 20
172.651952
 30
0.0
 11
174.964786
 21
172.663858
 31
0.0
  0
LINE
  5
2C0
330
2A2
100
AcDbEntity
  8
0
  6
CONTINUOUS
 62
     7
100
AcDbLine
 10
174.964786
 20
172.663858
 30
0.0
 11
174.895282
 21
172.674302
 31
0.0
  0
LINE
  5
2C1
330
2A2
100
AcDbEntity
  8
0
  6
CONTINUOUS
 62
     7
100
AcDbLine
 10
174.895282
 20
172.674302
 30
0.0
 11
174.825535
 21
172.683274
 31
0.0
  0
LINE
  5
2C2
330
2A2
100
AcDbEntity
  8
0
  6
CONTINUOUS
 62
     7
100
AcDbLine
 10
174.825535
 20
172.683274
 30
0.0
 11
174.755584
 21
172.690764
 31
0.0
  0
LINE
  5
2C3
330
2A2
100
AcDbEntity
  8
0
  6
CONTINUOUS
 62
     7
100
AcDbLine
 10
174.755584
 20
172.690764
 30
0.0
 11
174.685467
 21
172.696764
 31
0.0
  0
LINE
  5
2C4
330
2A2
100
AcDbEntity
  8
0
  6
CONTINUOUS
 62
     7
100
AcDbLine
 10
174.685467
 20
172.696764
 30
0.0
 11
174.615223
 21
172.701263
 31
0.0
  0
LINE
  5
2C5
330
2A2
100
AcDbEntity
  8
0
  6
CONTINUOUS
 62
     7
100
AcDbLine
 10
174.615223
 20
172.701263
 30
0.0
 11
174.544891
 21
172.704251
 31
0.0
  0
LINE
  5
2C6
330
2A2
100
AcDbEntity
  8
0
  6
CONTINUOUS
 62
     7
100
AcDbLine
 10
174.544891
 20
172.704251
 30
0.0
 11
174.474509
 21
172.70572
 31
0.0
  0
LINE
  5
2C7
330
2A2
100
AcDbEntity
  8
0
  6
CONTINUOUS
 62
     7
100
AcDbLine
 10
174.474509
 20
172.70572
 30
0.0
 11
174.404117
 21
172.70566
 31
0.0
  0
LINE
  5
2C8
330
2A2
100
AcDbEntity
  8
0
  6
CONTINUOUS
 62
     7
100
AcDbLine
 10
174.404117
 20
172.70566
 30
0.0
 11
174.333752
 21
172.704061
 31
0.0
  0
LINE
  5
2C9
330
2A2
100
AcDbEntity
  8
0
  6
CONTINUOUS
 62
     7
100
AcDbLine
 10
174.333752
 20
172.704061
 30
0.0
 11
174.263389
 21
172.700915
 31
0.0
  0
LINE
  5
2CA
330
2A2
100
AcDbEntity
  8
0
  6
CONTINUOUS
 62
     7
100
AcDbLine
 10
174.263389
 20
172.700915
 30
0.0
 11
174.193125
 21
172.696235
 31
0.0
  0
LINE
  5
2CB
330
2A2
100
AcDbEntity
  8
0
  6
CONTINUOUS
 62
     7
100
AcDbLine
 10
174.193125
 20
172.696235
 30
0.0
 11
174.122989
 21
172.69004
 31
0.0
  0
LINE
  5
2CC
330
2A2
100
AcDbEntity
  8
0
  6
CONTINUOUS
 62
     7
100
AcDbLine
 10
174.122989
 20
172.69004
 30
0.0
 11
174.053015
 21
172.682347
 31
0.0
  0
LINE
  5
2CD
330
2A2
100
AcDbEntity
  8
0
  6
CONTINUOUS
 62
     7
100
AcDbLine
 10
174.053015
 20
172.682347
 30
0.0
 11
173.983233
 21
172.673174
 31
0.0
  0
LINE
  5
2CE
330
2A2
100
AcDbEntity
  8
0
  6
CONTINUOUS
 62
     7
100
AcDbLine
 10
173.983233
 20
172.673174
 30
0.0
 11
173.913675
 21
172.662539
 31
0.0
  0
LINE
  5
2CF
330
2A2
100
AcDbEntity
  8
0
  6
CONTINUOUS
 62
     7
100
AcDbLine
 10
173.913675
 20
172.662539
 30
0.0
 11
173.844372
 21
172.65046
 31
0.0
  0
LINE
  5
2D0
330
2A2
100
AcDbEntity
  8
0
  6
CONTINUOUS
 62
     7
100
AcDbLine
 10
173.844372
 20
172.65046
 30
0.0
 11
173.775357
 21
172.636954
 31
0.0
  0
LINE
  5
2D1
330
2A2
100
AcDbEntity
  8
0
  6
CONTINUOUS
 62
     7
100
AcDbLine
 10
173.775357
 20
172.636954
 30
0.0
 11
173.706659
 21
172.62204
 31
0.0
  0
LINE
  5
2D2
330
2A2
100
AcDbEntity
  8
0
  6
CONTINUOUS
 62
     7
100
AcDbLine
 10
173.706659
 20
172.62204
 30
0.0
 11
173.638312
 21
172.605735
 31
0.0
  0
LINE
  5
2D3
330
2A2
100
AcDbEntity
  8
0
  6
CONTINUOUS
 62
     7
100
AcDbLine
 10
173.638312
 20
172.605735
 30
0.0
 11
173.570346
 21
172.588057
 31
0.0
  0
LINE
  5
2D4
330
2A2
100
AcDbEntity
  8
0
  6
CONTINUOUS
 62
     7
100
AcDbLine
 10
173.570346
 20
172.588057
 30
0.0
 11
173.502792
 21
172.569024
 31
0.0
  0
LINE
  5
2D5
330
2A2
100
AcDbEntity
  8
0
  6
CONTINUOUS
 62
     7
100
AcDbLine
 10
173.502792
 20
172.569024
 30
0.0
 11
173.435683
 21
172.548653
 31
0.0
  0
LINE
  5
2D6
330
2A2
100
AcDbEntity
  8
0
  6
CONTINUOUS
 62
     7
100
AcDbLine
 10
173.435683
 20
172.548653
 30
0.0
 11
173.36905
 21
172.526962
 31
0.0
  0
LINE
  5
2D7
330
2A2
100
AcDbEntity
  8
0
  6
CONTINUOUS
 62
     7
100
AcDbLine
 10
173.36905
 20
172.526962
 30
0.0
 11
173.302923
 21
172.50397
 31
0.0
  0
LINE
  5
2D8
330
2A2
100
AcDbEntity
  8
0
  6
CONTINUOUS
 62
     7
100
AcDbLine
 10
173.302923
 20
172.50397
 30
0.0
 11
173.237336
 21
172.479694
 31
0.0
  0
LINE
  5
2D9
330
2A2
100
AcDbEntity
  8
0
  6
CONTINUOUS
 62
     7
100
AcDbLine
 10
173.237336
 20
172.479694
 30
0.0
 11
173.158791
 21
172.448671
 31
0.0
  0
LINE
  5
2DA
330
2A2
100
AcDbEntity
  8
0
  6
CONTINUOUS
 62
     7
100
AcDbLine
 10
173.158791
 20
172.448671
 30
0.0
 11
173.081028
 21
172.415913
 31
0.0
  0
LINE
  5
2DB
330
2A2
100
AcDbEntity
  8
0
  6
CONTINUOUS
 62
     7
100
AcDbLine
 10
173.081028
 20
172.415913
 30
0.0
 11
173.003994
 21
172.381536
 31
0.0
  0
LINE
  5
2DC
330
2A2
100
AcDbEntity
  8
0
  6
CONTINUOUS
 62
     7
100
AcDbLine
 10
173.003994
 20
172.381536
 30
0.0
 11
172.927637
 21
172.345656
 31
0.0
  0
LINE
  5
2DD
330
2A2
100
AcDbEntity
  8
0
  6
CONTINUOUS
 62
     7
100
AcDbLine
 10
172.927637
 20
172.345656
 30
0.0
 11
172.851905
 21
172.308388
 31
0.0
  0
LINE
  5
2DE
330
2A2
100
AcDbEntity
  8
0
  6
CONTINUOUS
 62
     7
100
AcDbLine
 10
172.851905
 20
172.308388
 30
0.0
 11
172.776746
 21
172.269847
 31
0.0
  0
LINE
  5
2DF
330
2A2
100
AcDbEntity
  8
0
  6
CONTINUOUS
 62
     7
100
AcDbLine
 10
172.776746
 20
172.269847
 30
0.0
 11
172.702108
 21
172.23015
 31
0.0
  0
LINE
  5
2E0
330
2A2
100
AcDbEntity
  8
0
  6
CONTINUOUS
 62
     7
100
AcDbLine
 10
172.702108
 20
172.23015
 30
0.0
 11
172.627938
 21
172.189412
 31
0.0
  0
LINE
  5
2E1
330
2A2
100
AcDbEntity
  8
0
  6
CONTINUOUS
 62
     7
100
AcDbLine
 10
172.627938
 20
172.189412
 30
0.0
 11
172.554185
 21
172.147748
 31
0.0
  0
LINE
  5
2E2
330
2A2
100
AcDbEntity
  8
0
  6
CONTINUOUS
 62
     7
100
AcDbLine
 10
172.554185
 20
172.147748
 30
0.0
 11
172.480797
 21
172.105275
 31
0.0
  0
LINE
  5
2E3
330
2A2
100
AcDbEntity
  8
0
  6
CONTINUOUS
 62
     7
100
AcDbLine
 10
172.480797
 20
172.105275
 30
0.0
 11
172.407721
 21
172.062108
 31
0.0
  0
LINE
  5
2E4
330
2A2
100
AcDbEntity
  8
0
  6
CONTINUOUS
 62
     7
100
AcDbLine
 10
172.407721
 20
172.062108
 30
0.0
 11
172.334905
 21
172.018363
 31
0.0
  0
LINE
  5
2E5
330
2A2
100
AcDbEntity
  8
0
  6
CONTINUOUS
 62
     7
100
AcDbLine
 10
172.334905
 20
172.018363
 30
0.0
 11
172.262298
 21
171.974155
 31
0.0
  0
LINE
  5
2E6
330
2A2
100
AcDbEntity
  8
0
  6
CONTINUOUS
 62
     7
100
AcDbLine
 10
172.262298
 20
171.974155
 30
0.0
 11
172.189847
 21
171.929601
 31
0.0
  0
LINE
  5
2E7
330
2A2
100
AcDbEntity
  8
0
  6
CONTINUOUS
 62
     7
100
AcDbLine
 10
172.189847
 20
171.929601
 30
0.0
 11
172.045206
 21
171.839913
 31
0.0
  0
ENDBLK
  5
2A4
330
2A2
100
AcDbEntity
  8
0
100
AcDbBlockEnd
  0
BLOCK
  5
2EA
330
2E9
100
AcDbEntity
  8
0
100
AcDbBlockBegin
  2
BLKF017
 70
     0
 71
     0
 10
0.0
 20
0.0
 30
0.0
  3
BLKF017
  1

  0
LINE
  5
2ED
330
2E9
100
AcDbEntity
  8
0
  6
CONTINUOUS
 62
     7
100
AcDbLine
 10
170.87894
 20
171.839913
 30
0.0
 11
170.860377
 21
171.864824
 31
0.0
  0
LINE
  5
2EE
330
2E9
100
AcDbEntity
  8
0
  6
CONTINUOUS
 62
     7
100
AcDbLine
 10
170.860377
 20
171.864824
 30
0.0
 11
170.841787
 21
171.889713
 31
0.0
  0
LINE
  5
2EF
330
2E9
100
AcDbEntity
  8
0
  6
CONTINUOUS
 62
     7
100
AcDbLine
 10
170.841787
 20
171.889713
 30
0.0
 11
170.823142
 21
171.914561
 31
0.0
  0
LINE
  5
2F0
330
2E9
100
AcDbEntity
  8
0
  6
CONTINUOUS
 62
     7
100
AcDbLine
 10
170.823142
 20
171.914561
 30
0.0
 11
170.804416
 21
171.939345
 31
0.0
  0
LINE
  5
2F1
330
2E9
100
AcDbEntity
  8
0
  6
CONTINUOUS
 62
     7
100
AcDbLine
 10
170.804416
 20
171.939345
 30
0.0
 11
170.78558
 21
171.964045
 31
0.0
  0
LINE
  5
2F2
330
2E9
100
AcDbEntity
  8
0
  6
CONTINUOUS
 62
     7
100
AcDbLine
 10
170.78558
 20
171.964045
 30
0.0
 11
170.766608
 21
171.988639
 31
0.0
  0
LINE
  5
2F3
330
2E9
100
AcDbEntity
  8
0
  6
CONTINUOUS
 62
     7
100
AcDbLine
 10
170.766608
 20
171.988639
 30
0.0
 11
170.747471
 21
172.013107
 31
0.0
  0
LINE
  5
2F4
330
2E9
100
AcDbEntity
  8
0
  6
CONTINUOUS
 62
     7
100
AcDbLine
 10
170.747471
 20
172.013107
 30
0.0
 11
170.728144
 21
172.037428
 31
0.0
  0
LINE
  5
2F5
330
2E9
100
AcDbEntity
  8
0
  6
CONTINUOUS
 62
     7
100
AcDbLine
 10
170.728144
 20
172.037428
 30
0.0
 11
170.710044
 21
172.059815
 31
0.0
  0
LINE
  5
2F6
330
2E9
100
AcDbEntity
  8
0
  6
CONTINUOUS
 62
     7
100
AcDbLine
 10
170.710044
 20
172.059815
 30
0.0
 11
170.691752
 21
172.08205
 31
0.0
  0
LINE
  5
2F7
330
2E9
100
AcDbEntity
  8
0
  6
CONTINUOUS
 62
     7
100
AcDbLine
 10
170.691752
 20
172.08205
 30
0.0
 11
170.673263
 21
172.104125
 31
0.0
  0
LINE
  5
2F8
330
2E9
100
AcDbEntity
  8
0
  6
CONTINUOUS
 62
     7
100
AcDbLine
 10
170.673263
 20
172.104125
 30
0.0
 11
170.654574
 21
172.126034
 31
0.0
  0
LINE
  5
2F9
330
2E9
100
AcDbEntity
  8
0
  6
CONTINUOUS
 62
     7
100
AcDbLine
 10
170.654574
 20
172.126034
 30
0.0
 11
170.63568
 21
172.147769
 31
0.0
  0
LINE
  5
2FA
330
2E9
100
AcDbEntity
  8
0
  6
CONTINUOUS
 62
     7
100
AcDbLine
 10
170.63568
 20
172.147769
 30
0.0
 11
170.616576
 21
172.169323
 31
0.0
  0
LINE
  5
2FB
330
2E9
100
AcDbEntity
  8
0
  6
CONTINUOUS
 62
     7
100
AcDbLine
 10
170.616576
 20
172.169323
 30
0.0
 11
170.597259
 21
172.190688
 31
0.0
  0
LINE
  5
2FC
330
2E9
100
AcDbEntity
  8
0
  6
CONTINUOUS
 62
     7
100
AcDbLine
 10
170.597259
 20
172.190688
 30
0.0
 11
170.587518
 21
172.201297
 31
0.0
  0
LINE
  5
2FD
330
2E9
100
AcDbEntity
  8
0
  6
CONTINUOUS
 62
     7
100
AcDbLine
 10
170.587518
 20
172.201297
 30
0.0
 11
170.577723
 21
172.211857
 31
0.0
  0
LINE
  5
2FE
330
2E9
100
AcDbEntity
  8
0
  6
CONTINUOUS
 62
     7
100
AcDbLine
 10
170.577723
 20
172.211857
 30
0.0
 11
170.567872
 21
172.222366
 31
0.0
  0
LINE
  5
2FF
330
2E9
100
AcDbEntity
  8
0
  6
CONTINUOUS
 62
     7
100
AcDbLine
 10
170.567872
 20
172.222366
 30
0.0
 11
170.557964
 21
172.232823
 31
0.0
  0
LINE
  5
300
330
2E9
100
AcDbEntity
  8
0
  6
CONTINUOUS
 62
     7
100
AcDbLine
 10
170.557964
 20
172.232823
 30
0.0
 11
170.548
 21
172.243228
 31
0.0
  0
LINE
  5
301
330
2E9
100
AcDbEntity
  8
0
  6
CONTINUOUS
 62
     7
100
AcDbLine
 10
170.548
 20
172.243228
 30
0.0
 11
170.537979
 21
172.253579
 31
0.0
  0
LINE
  5
302
330
2E9
100
AcDbEntity
  8
0
  6
CONTINUOUS
 62
     7
100
AcDbLine
 10
170.537979
 20
172.253579
 30
0.0
 11
170.5279
 21
172.263875
 31
0.0
  0
LINE
  5
303
330
2E9
100
AcDbEntity
  8
0
  6
CONTINUOUS
 62
     7
100
AcDbLine
 10
170.5279
 20
172.263875
 30
0.0
 11
170.517762
 21
172.274117
 31
0.0
  0
LINE
  5
304
330
2E9
100
AcDbEntity
  8
0
  6
CONTINUOUS
 62
     7
100
AcDbLine
 10
170.517762
 20
172.274117
 30
0.0
 11
170.507565
 21
172.284302
 31
0.0
  0
LINE
  5
305
330
2E9
100
AcDbEntity
  8
0
  6
CONTINUOUS
 62
     7
100
AcDbLine
 10
170.507565
 20
172.284302
 30
0.0
 11
170.497309
 21
172.29443
 31
0.0
  0
LINE
  5
306
330
2E9
100
AcDbEntity
  8
0
  6
CONTINUOUS
 62
     7
100
AcDbLine
 10
170.497309
 20
172.29443
 30
0.0
 11
170.486993
 21
172.304499
 31
0.0
  0
LINE
  5
307
330
2E9
100
AcDbEntity
  8
0
  6
CONTINUOUS
 62
     7
100
AcDbLine
 10
170.486993
 20
172.304499
 30
0.0
 11
170.476616
 21
172.31451
 31
0.0
  0
LINE
  5
308
330
2E9
100
AcDbEntity
  8
0
  6
CONTINUOUS
 62
     7
100
AcDbLine
 10
170.476616
 20
172.31451
 30
0.0
 11
170.466178
 21
172.324461
 31
0.0
  0
LINE
  5
309
330
2E9
100
AcDbEntity
  8
0
  6
CONTINUOUS
 62
     7
100
AcDbLine
 10
170.466178
 20
172.324461
 30
0.0
 11
170.455679
 21
172.334351
 31
0.0
  0
LINE
  5
30A
330
2E9
100
AcDbEntity
  8
0
  6
CONTINUOUS
 62
     7
100
AcDbLine
 10
170.455679
 20
172.334351
 30
0.0
 11
170.445117
 21
172.344179
 31
0.0
  0
LINE
  5
30B
330
2E9
100
AcDbEntity
  8
0
  6
CONTINUOUS
 62
     7
100
AcDbLine
 10
170.445117
 20
172.344179
 30
0.0
 11
170.434492
 21
172.353945
 31
0.0
  0
LINE
  5
30C
330
2E9
100
AcDbEntity
  8
0
  6
CONTINUOUS
 62
     7
100
AcDbLine
 10
170.434492
 20
172.353945
 30
0.0
 11
170.423804
 21
172.363647
 31
0.0
  0
LINE
  5
30D
330
2E9
100
AcDbEntity
  8
0
  6
CONTINUOUS
 62
     7
100
AcDbLine
 10
170.423804
 20
172.363647
 30
0.0
 11
170.413052
 21
172.373285
 31
0.0
  0
LINE
  5
30E
330
2E9
100
AcDbEntity
  8
0
  6
CONTINUOUS
 62
     7
100
AcDbLine
 10
170.413052
 20
172.373285
 30
0.0
 11
170.393299
 21
172.390671
 31
0.0
  0
LINE
  5
30F
330
2E9
100
AcDbEntity
  8
0
  6
CONTINUOUS
 62
     7
100
AcDbLine
 10
170.393299
 20
172.390671
 30
0.0
 11
170.383341
 21
172.399276
 31
0.0
  0
LINE
  5
310
330
2E9
100
AcDbEntity
  8
0
  6
CONTINUOUS
 62
     7
100
AcDbLine
 10
170.383341
 20
172.399276
 30
0.0
 11
170.373327
 21
172.407819
 31
0.0
  0
LINE
  5
311
330
2E9
100
AcDbEntity
  8
0
  6
CONTINUOUS
 62
     7
100
AcDbLine
 10
170.373327
 20
172.407819
 30
0.0
 11
170.363258
 21
172.416298
 31
0.0
  0
LINE
  5
312
330
2E9
100
AcDbEntity
  8
0
  6
CONTINUOUS
 62
     7
100
AcDbLine
 10
170.363258
 20
172.416298
 30
0.0
 11
170.353131
 21
172.42471
 31
0.0
  0
LINE
  5
313
330
2E9
100
AcDbEntity
  8
0
  6
CONTINUOUS
 62
     7
100
AcDbLine
 10
170.353131
 20
172.42471
 30
0.0
 11
170.342948
 21
172.433052
 31
0.0
  0
LINE
  5
314
330
2E9
100
AcDbEntity
  8
0
  6
CONTINUOUS
 62
     7
100
AcDbLine
 10
170.342948
 20
172.433052
 30
0.0
 11
170.332707
 21
172.441323
 31
0.0
  0
LINE
  5
315
330
2E9
100
AcDbEntity
  8
0
  6
CONTINUOUS
 62
     7
100
AcDbLine
 10
170.332707
 20
172.441323
 30
0.0
 11
170.322407
 21
172.449519
 31
0.0
  0
LINE
  5
316
330
2E9
100
AcDbEntity
  8
0
  6
CONTINUOUS
 62
     7
100
AcDbLine
 10
170.322407
 20
172.449519
 30
0.0
 11
170.312048
 21
172.457638
 31
0.0
  0
LINE
  5
317
330
2E9
100
AcDbEntity
  8
0
  6
CONTINUOUS
 62
     7
100
AcDbLine
 10
170.312048
 20
172.457638
 30
0.0
 11
170.301629
 21
172.465677
 31
0.0
  0
LINE
  5
318
330
2E9
100
AcDbEntity
  8
0
  6
CONTINUOUS
 62
     7
100
AcDbLine
 10
170.301629
 20
172.465677
 30
0.0
 11
170.291149
 21
172.473634
 31
0.0
  0
LINE
  5
319
330
2E9
100
AcDbEntity
  8
0
  6
CONTINUOUS
 62
     7
100
AcDbLine
 10
170.291149
 20
172.473634
 30
0.0
 11
170.280609
 21
172.481507
 31
0.0
  0
LINE
  5
31A
330
2E9
100
AcDbEntity
  8
0
  6
CONTINUOUS
 62
     7
100
AcDbLine
 10
170.280609
 20
172.481507
 30
0.0
 11
170.270006
 21
172.489292
 31
0.0
  0
LINE
  5
31B
330
2E9
100
AcDbEntity
  8
0
  6
CONTINUOUS
 62
     7
100
AcDbLine
 10
170.270006
 20
172.489292
 30
0.0
 11
170.259342
 21
172.496988
 31
0.0
  0
LINE
  5
31C
330
2E9
100
AcDbEntity
  8
0
  6
CONTINUOUS
 62
     7
100
AcDbLine
 10
170.259342
 20
172.496988
 30
0.0
 11
170.248614
 21
172.504591
 31
0.0
  0
LINE
  5
31D
330
2E9
100
AcDbEntity
  8
0
  6
CONTINUOUS
 62
     7
100
AcDbLine
 10
170.248614
 20
172.504591
 30
0.0
 11
170.237823
 21
172.5121
 31
0.0
  0
LINE
  5
31E
330
2E9
100
AcDbEntity
  8
0
  6
CONTINUOUS
 62
     7
100
AcDbLine
 10
170.237823
 20
172.5121
 30
0.0
 11
170.226968
 21
172.519511
 31
0.0
  0
LINE
  5
31F
330
2E9
100
AcDbEntity
  8
0
  6
CONTINUOUS
 62
     7
100
AcDbLine
 10
170.226968
 20
172.519511
 30
0.0
 11
170.216047
 21
172.526823
 31
0.0
  0
LINE
  5
320
330
2E9
100
AcDbEntity
  8
0
  6
CONTINUOUS
 62
     7
100
AcDbLine
 10
170.216047
 20
172.526823
 30
0.0
 11
170.205062
 21
172.534032
 31
0.0
  0
LINE
  5
321
330
2E9
100
AcDbEntity
  8
0
  6
CONTINUOUS
 62
     7
100
AcDbLine
 10
170.205062
 20
172.534032
 30
0.0
 11
170.194009
 21
172.541136
 31
0.0
  0
LINE
  5
322
330
2E9
100
AcDbEntity
  8
0
  6
CONTINUOUS
 62
     7
100
AcDbLine
 10
170.194009
 20
172.541136
 30
0.0
 11
170.182891
 21
172.548132
 31
0.0
  0
LINE
  5
323
330
2E9
100
AcDbEntity
  8
0
  6
CONTINUOUS
 62
     7
100
AcDbLine
 10
170.182891
 20
172.548132
 30
0.0
 11
170.171704
 21
172.555019
 31
0.0
  0
LINE
  5
324
330
2E9
100
AcDbEntity
  8
0
  6
CONTINUOUS
 62
     7
100
AcDbLine
 10
170.171704
 20
172.555019
 30
0.0
 11
170.16045
 21
172.561793
 31
0.0
  0
LINE
  5
325
330
2E9
100
AcDbEntity
  8
0
  6
CONTINUOUS
 62
     7
100
AcDbLine
 10
170.16045
 20
172.561793
 30
0.0
 11
170.149127
 21
172.568452
 31
0.0
  0
LINE
  5
326
330
2E9
100
AcDbEntity
  8
0
  6
CONTINUOUS
 62
     7
100
AcDbLine
 10
170.149127
 20
172.568452
 30
0.0
 11
170.137735
 21
172.574993
 31
0.0
  0
LINE
  5
327
330
2E9
100
AcDbEntity
  8
0
  6
CONTINUOUS
 62
     7
100
AcDbLine
 10
170.137735
 20
172.574993
 30
0.0
 11
170.126272
 21
172.581414
 31
0.0
  0
LINE
  5
328
330
2E9
100
AcDbEntity
  8
0
  6
CONTINUOUS
 62
     7
100
AcDbLine
 10
170.126272
 20
172.581414
 30
0.0
 11
170.114739
 21
172.587713
 31
0.0
  0
LINE
  5
329
330
2E9
100
AcDbEntity
  8
0
  6
CONTINUOUS
 62
     7
100
AcDbLine
 10
170.114739
 20
172.587713
 30
0.0
 11
170.103135
 21
172.593886
 31
0.0
  0
LINE
  5
32A
330
2E9
100
AcDbEntity
  8
0
  6
CONTINUOUS
 62
     7
100
AcDbLine
 10
170.103135
 20
172.593886
 30
0.0
 11
170.091459
 21
172.599932
 31
0.0
  0
LINE
  5
32B
330
2E9
100
AcDbEntity
  8
0
  6
CONTINUOUS
 62
     7
100
AcDbLine
 10
170.091459
 20
172.599932
 30
0.0
 11
170.07971
 21
172.605847
 31
0.0
  0
LINE
  5
32C
330
2E9
100
AcDbEntity
  8
0
  6
CONTINUOUS
 62
     7
100
AcDbLine
 10
170.07971
 20
172.605847
 30
0.0
 11
170.067889
 21
172.611629
 31
0.0
  0
LINE
  5
32D
330
2E9
100
AcDbEntity
  8
0
  6
CONTINUOUS
 62
     7
100
AcDbLine
 10
170.067889
 20
172.611629
 30
0.0
 11
170.050308
 21
172.619914
 31
0.0
  0
LINE
  5
32E
330
2E9
100
AcDbEntity
  8
0
  6
CONTINUOUS
 62
     7
100
AcDbLine
 10
170.050308
 20
172.619914
 30
0.0
 11
170.032573
 21
172.627893
 31
0.0
  0
LINE
  5
32F
330
2E9
100
AcDbEntity
  8
0
  6
CONTINUOUS
 62
     7
100
AcDbLine
 10
170.032573
 20
172.627893
 30
0.0
 11
170.014689
 21
172.635552
 31
0.0
  0
LINE
  5
330
330
2E9
100
AcDbEntity
  8
0
  6
CONTINUOUS
 62
     7
100
AcDbLine
 10
170.014689
 20
172.635552
 30
0.0
 11
169.996663
 21
172.642881
 31
0.0
  0
LINE
  5
331
330
2E9
100
AcDbEntity
  8
0
  6
CONTINUOUS
 62
     7
100
AcDbLine
 10
169.996663
 20
172.642881
 30
0.0
 11
169.9785
 21
172.649867
 31
0.0
  0
LINE
  5
332
330
2E9
100
AcDbEntity
  8
0
  6
CONTINUOUS
 62
     7
100
AcDbLine
 10
169.9785
 20
172.649867
 30
0.0
 11
169.960207
 21
172.656499
 31
0.0
  0
LINE
  5
333
330
2E9
100
AcDbEntity
  8
0
  6
CONTINUOUS
 62
     7
100
AcDbLine
 10
169.960207
 20
172.656499
 30
0.0
 11
169.94179
 21
172.662764
 31
0.0
  0
LINE
  5
334
330
2E9
100
AcDbEntity
  8
0
  6
CONTINUOUS
 62
     7
100
AcDbLine
 10
169.94179
 20
172.662764
 30
0.0
 11
169.923255
 21
172.66865
 31
0.0
  0
LINE
  5
335
330
2E9
100
AcDbEntity
  8
0
  6
CONTINUOUS
 62
     7
100
AcDbLine
 10
169.923255
 20
172.66865
 30
0.0
 11
169.904608
 21
172.674146
 31
0.0
  0
LINE
  5
336
330
2E9
100
AcDbEntity
  8
0
  6
CONTINUOUS
 62
     7
100
AcDbLine
 10
169.904608
 20
172.674146
 30
0.0
 11
169.885854
 21
172.679239
 31
0.0
  0
LINE
  5
337
330
2E9
100
AcDbEntity
  8
0
  6
CONTINUOUS
 62
     7
100
AcDbLine
 10
169.885854
 20
172.679239
 30
0.0
 11
169.867001
 21
172.683918
 31
0.0
  0
LINE
  5
338
330
2E9
100
AcDbEntity
  8
0
  6
CONTINUOUS
 62
     7
100
AcDbLine
 10
169.867001
 20
172.683918
 30
0.0
 11
169.857539
 21
172.686099
 31
0.0
  0
LINE
  5
339
330
2E9
100
AcDbEntity
  8
0
  6
CONTINUOUS
 62
     7
100
AcDbLine
 10
169.857539
 20
172.686099
 30
0.0
 11
169.848054
 21
172.688171
 31
0.0
  0
LINE
  5
33A
330
2E9
100
AcDbEntity
  8
0
  6
CONTINUOUS
 62
     7
100
AcDbLine
 10
169.848054
 20
172.688171
 30
0.0
 11
169.838547
 21
172.690133
 31
0.0
  0
LINE
  5
33B
330
2E9
100
AcDbEntity
  8
0
  6
CONTINUOUS
 62
     7
100
AcDbLine
 10
169.838547
 20
172.690133
 30
0.0
 11
169.829019
 21
172.691985
 31
0.0
  0
LINE
  5
33C
330
2E9
100
AcDbEntity
  8
0
  6
CONTINUOUS
 62
     7
100
AcDbLine
 10
169.829019
 20
172.691985
 30
0.0
 11
169.819471
 21
172.693724
 31
0.0
  0
LINE
  5
33D
330
2E9
100
AcDbEntity
  8
0
  6
CONTINUOUS
 62
     7
100
AcDbLine
 10
169.819471
 20
172.693724
 30
0.0
 11
169.809902
 21
172.695349
 31
0.0
  0
LINE
  5
33E
330
2E9
100
AcDbEntity
  8
0
  6
CONTINUOUS
 62
     7
100
AcDbLine
 10
169.809902
 20
172.695349
 30
0.0
 11
169.800315
 21
172.696859
 31
0.0
  0
LINE
  5
33F
330
2E9
100
AcDbEntity
  8
0
  6
CONTINUOUS
 62
     7
100
AcDbLine
 10
169.800315
 20
172.696859
 30
0.0
 11
169.79071
 21
172.698251
 31
0.0
  0
LINE
  5
340
330
2E9
100
AcDbEntity
  8
0
  6
CONTINUOUS
 62
     7
100
AcDbLine
 10
169.79071
 20
172.698251
 30
0.0
 11
169.781088
 21
172.699525
 31
0.0
  0
LINE
  5
341
330
2E9
100
AcDbEntity
  8
0
  6
CONTINUOUS
 62
     7
100
AcDbLine
 10
169.781088
 20
172.699525
 30
0.0
 11
169.771449
 21
172.700678
 31
0.0
  0
LINE
  5
342
330
2E9
100
AcDbEntity
  8
0
  6
CONTINUOUS
 62
     7
100
AcDbLine
 10
169.771449
 20
172.700678
 30
0.0
 11
169.761741
 21
172.701716
 31
0.0
  0
LINE
  5
343
330
2E9
100
AcDbEntity
  8
0
  6
CONTINUOUS
 62
     7
100
AcDbLine
 10
169.761741
 20
172.701716
 30
0.0
 11
169.75202
 21
172.702632
 31
0.0
  0
LINE
  5
344
330
2E9
100
AcDbEntity
  8
0
  6
CONTINUOUS
 62
     7
100
AcDbLine
 10
169.75202
 20
172.702632
 30
0.0
 11
169.742285
 21
172.703425
 31
0.0
  0
LINE
  5
345
330
2E9
100
AcDbEntity
  8
0
  6
CONTINUOUS
 62
     7
100
AcDbLine
 10
169.742285
 20
172.703425
 30
0.0
 11
169.732539
 21
172.704098
 31
0.0
  0
LINE
  5
346
330
2E9
100
AcDbEntity
  8
0
  6
CONTINUOUS
 62
     7
100
AcDbLine
 10
169.732539
 20
172.704098
 30
0.0
 11
169.722783
 21
172.70465
 31
0.0
  0
LINE
  5
347
330
2E9
100
AcDbEntity
  8
0
  6
CONTINUOUS
 62
     7
100
AcDbLine
 10
169.722783
 20
172.70465
 30
0.0
 11
169.713018
 21
172.705081
 31
0.0
  0
LINE
  5
348
330
2E9
100
AcDbEntity
  8
0
  6
CONTINUOUS
 62
     7
100
AcDbLine
 10
169.713018
 20
172.705081
 30
0.0
 11
169.703247
 21
172.705393
 31
0.0
  0
LINE
  5
349
330
2E9
100
AcDbEntity
  8
0
  6
CONTINUOUS
 62
     7
100
AcDbLine
 10
169.703247
 20
172.705393
 30
0.0
 11
169.693471
 21
172.705586
 31
0.0
  0
LINE
  5
34A
330
2E9
100
AcDbEntity
  8
0
  6
CONTINUOUS
 62
     7
100
AcDbLine
 10
169.693471
 20
172.705586
 30
0.0
 11
169.68369
 21
172.70566
 31
0.0
  0
LINE
  5
34B
330
2E9
100
AcDbEntity
  8
0
  6
CONTINUOUS
 62
     7
100
AcDbLine
 10
169.68369
 20
172.70566
 30
0.0
 11
169.673908
 21
172.705616
 31
0.0
  0
LINE
  5
34C
330
2E9
100
AcDbEntity
  8
0
  6
CONTINUOUS
 62
     7
100
AcDbLine
 10
169.673908
 20
172.705616
 30
0.0
 11
169.664125
 21
172.705454
 31
0.0
  0
LINE
  5
34D
330
2E9
100
AcDbEntity
  8
0
  6
CONTINUOUS
 62
     7
100
AcDbLine
 10
169.664125
 20
172.705454
 30
0.0
 11
169.654342
 21
172.705176
 31
0.0
  0
LINE
  5
34E
330
2E9
100
AcDbEntity
  8
0
  6
CONTINUOUS
 62
     7
100
AcDbLine
 10
169.654342
 20
172.705176
 30
0.0
 11
169.644562
 21
172.704781
 31
0.0
  0
LINE
  5
34F
330
2E9
100
AcDbEntity
  8
0
  6
CONTINUOUS
 62
     7
100
AcDbLine
 10
169.644562
 20
172.704781
 30
0.0
 11
169.634786
 21
172.70427
 31
0.0
  0
LINE
  5
350
330
2E9
100
AcDbEntity
  8
0
  6
CONTINUOUS
 62
     7
100
AcDbLine
 10
169.634786
 20
172.70427
 30
0.0
 11
169.625016
 21
172.703644
 31
0.0
  0
LINE
  5
351
330
2E9
100
AcDbEntity
  8
0
  6
CONTINUOUS
 62
     7
100
AcDbLine
 10
169.625016
 20
172.703644
 30
0.0
 11
169.615252
 21
172.702902
 31
0.0
  0
LINE
  5
352
330
2E9
100
AcDbEntity
  8
0
  6
CONTINUOUS
 62
     7
100
AcDbLine
 10
169.615252
 20
172.702902
 30
0.0
 11
169.605497
 21
172.702047
 31
0.0
  0
LINE
  5
353
330
2E9
100
AcDbEntity
  8
0
  6
CONTINUOUS
 62
     7
100
AcDbLine
 10
169.605497
 20
172.702047
 30
0.0
 11
169.595752
 21
172.701077
 31
0.0
  0
LINE
  5
354
330
2E9
100
AcDbEntity
  8
0
  6
CONTINUOUS
 62
     7
100
AcDbLine
 10
169.595752
 20
172.701077
 30
0.0
 11
169.586019
 21
172.699995
 31
0.0
  0
LINE
  5
355
330
2E9
100
AcDbEntity
  8
0
  6
CONTINUOUS
 62
     7
100
AcDbLine
 10
169.586019
 20
172.699995
 30
0.0
 11
169.576298
 21
172.698799
 31
0.0
  0
LINE
  5
356
330
2E9
100
AcDbEntity
  8
0
  6
CONTINUOUS
 62
     7
100
AcDbLine
 10
169.576298
 20
172.698799
 30
0.0
 11
169.566593
 21
172.697492
 31
0.0
  0
LINE
  5
357
330
2E9
100
AcDbEntity
  8
0
  6
CONTINUOUS
 62
     7
100
AcDbLine
 10
169.566593
 20
172.697492
 30
0.0
 11
169.556903
 21
172.696072
 31
0.0
  0
LINE
  5
358
330
2E9
100
AcDbEntity
  8
0
  6
CONTINUOUS
 62
     7
100
AcDbLine
 10
169.556903
 20
172.696072
 30
0.0
 11
169.547231
 21
172.694542
 31
0.0
  0
LINE
  5
359
330
2E9
100
AcDbEntity
  8
0
  6
CONTINUOUS
 62
     7
100
AcDbLine
 10
169.547231
 20
172.694542
 30
0.0
 11
169.537579
 21
172.692901
 31
0.0
  0
LINE
  5
35A
330
2E9
100
AcDbEntity
  8
0
  6
CONTINUOUS
 62
     7
100
AcDbLine
 10
169.537579
 20
172.692901
 30
0.0
 11
169.527947
 21
172.691149
 31
0.0
  0
LINE
  5
35B
330
2E9
100
AcDbEntity
  8
0
  6
CONTINUOUS
 62
     7
100
AcDbLine
 10
169.527947
 20
172.691149
 30
0.0
 11
169.518338
 21
172.689289
 31
0.0
  0
LINE
  5
35C
330
2E9
100
AcDbEntity
  8
0
  6
CONTINUOUS
 62
     7
100
AcDbLine
 10
169.518338
 20
172.689289
 30
0.0
 11
169.508752
 21
172.687319
 31
0.0
  0
LINE
  5
35D
330
2E9
100
AcDbEntity
  8
0
  6
CONTINUOUS
 62
     7
100
AcDbLine
 10
169.508752
 20
172.687319
 30
0.0
 11
169.499192
 21
172.685241
 31
0.0
  0
LINE
  5
35E
330
2E9
100
AcDbEntity
  8
0
  6
CONTINUOUS
 62
     7
100
AcDbLine
 10
169.499192
 20
172.685241
 30
0.0
 11
169.489659
 21
172.683054
 31
0.0
  0
LINE
  5
35F
330
2E9
100
AcDbEntity
  8
0
  6
CONTINUOUS
 62
     7
100
AcDbLine
 10
169.489659
 20
172.683054
 30
0.0
 11
169.480154
 21
172.680761
 31
0.0
  0
LINE
  5
360
330
2E9
100
AcDbEntity
  8
0
  6
CONTINUOUS
 62
     7
100
AcDbLine
 10
169.480154
 20
172.680761
 30
0.0
 11
169.47068
 21
172.67836
 31
0.0
  0
LINE
  5
361
330
2E9
100
AcDbEntity
  8
0
  6
CONTINUOUS
 62
     7
100
AcDbLine
 10
169.47068
 20
172.67836
 30
0.0
 11
169.461236
 21
172.675853
 31
0.0
  0
LINE
  5
362
330
2E9
100
AcDbEntity
  8
0
  6
CONTINUOUS
 62
     7
100
AcDbLine
 10
169.461236
 20
172.675853
 30
0.0
 11
169.45157
 21
172.673168
 31
0.0
  0
LINE
  5
363
330
2E9
100
AcDbEntity
  8
0
  6
CONTINUOUS
 62
     7
100
AcDbLine
 10
169.45157
 20
172.673168
 30
0.0
 11
169.441938
 21
172.670372
 31
0.0
  0
LINE
  5
364
330
2E9
100
AcDbEntity
  8
0
  6
CONTINUOUS
 62
     7
100
AcDbLine
 10
169.441938
 20
172.670372
 30
0.0
 11
169.432342
 21
172.667469
 31
0.0
  0
LINE
  5
365
330
2E9
100
AcDbEntity
  8
0
  6
CONTINUOUS
 62
     7
100
AcDbLine
 10
169.432342
 20
172.667469
 30
0.0
 11
169.422781
 21
172.664458
 31
0.0
  0
LINE
  5
366
330
2E9
100
AcDbEntity
  8
0
  6
CONTINUOUS
 62
     7
100
AcDbLine
 10
169.422781
 20
172.664458
 30
0.0
 11
169.413256
 21
172.661343
 31
0.0
  0
LINE
  5
367
330
2E9
100
AcDbEntity
  8
0
  6
CONTINUOUS
 62
     7
100
AcDbLine
 10
169.413256
 20
172.661343
 30
0.0
 11
169.403766
 21
172.658124
 31
0.0
  0
LINE
  5
368
330
2E9
100
AcDbEntity
  8
0
  6
CONTINUOUS
 62
     7
100
AcDbLine
 10
169.403766
 20
172.658124
 30
0.0
 11
169.394313
 21
172.654804
 31
0.0
  0
LINE
  5
369
330
2E9
100
AcDbEntity
  8
0
  6
CONTINUOUS
 62
     7
100
AcDbLine
 10
169.394313
 20
172.654804
 30
0.0
 11
169.384895
 21
172.651383
 31
0.0
  0
LINE
  5
36A
330
2E9
100
AcDbEntity
  8
0
  6
CONTINUOUS
 62
     7
100
AcDbLine
 10
169.384895
 20
172.651383
 30
0.0
 11
169.36617
 21
172.644249
 31
0.0
  0
LINE
  5
36B
330
2E9
100
AcDbEntity
  8
0
  6
CONTINUOUS
 62
     7
100
AcDbLine
 10
169.36617
 20
172.644249
 30
0.0
 11
169.34759
 21
172.636734
 31
0.0
  0
LINE
  5
36C
330
2E9
100
AcDbEntity
  8
0
  6
CONTINUOUS
 62
     7
100
AcDbLine
 10
169.34759
 20
172.636734
 30
0.0
 11
169.329159
 21
172.628853
 31
0.0
  0
LINE
  5
36D
330
2E9
100
AcDbEntity
  8
0
  6
CONTINUOUS
 62
     7
100
AcDbLine
 10
169.329159
 20
172.628853
 30
0.0
 11
169.310878
 21
172.620619
 31
0.0
  0
LINE
  5
36E
330
2E9
100
AcDbEntity
  8
0
  6
CONTINUOUS
 62
     7
100
AcDbLine
 10
169.310878
 20
172.620619
 30
0.0
 11
169.292747
 21
172.612044
 31
0.0
  0
LINE
  5
36F
330
2E9
100
AcDbEntity
  8
0
  6
CONTINUOUS
 62
     7
100
AcDbLine
 10
169.292747
 20
172.612044
 30
0.0
 11
169.274768
 21
172.603143
 31
0.0
  0
LINE
  5
370
330
2E9
100
AcDbEntity
  8
0
  6
CONTINUOUS
 62
     7
100
AcDbLine
 10
169.274768
 20
172.603143
 30
0.0
 11
169.256943
 21
172.593928
 31
0.0
  0
LINE
  5
371
330
2E9
100
AcDbEntity
  8
0
  6
CONTINUOUS
 62
     7
100
AcDbLine
 10
169.256943
 20
172.593928
 30
0.0
 11
169.239273
 21
172.584413
 31
0.0
  0
LINE
  5
372
330
2E9
100
AcDbEntity
  8
0
  6
CONTINUOUS
 62
     7
100
AcDbLine
 10
169.239273
 20
172.584413
 30
0.0
 11
169.22176
 21
172.574612
 31
0.0
  0
LINE
  5
373
330
2E9
100
AcDbEntity
  8
0
  6
CONTINUOUS
 62
     7
100
AcDbLine
 10
169.22176
 20
172.574612
 30
0.0
 11
169.204404
 21
172.564537
 31
0.0
  0
LINE
  5
374
330
2E9
100
AcDbEntity
  8
0
  6
CONTINUOUS
 62
     7
100
AcDbLine
 10
169.204404
 20
172.564537
 30
0.0
 11
169.187208
 21
172.554202
 31
0.0
  0
LINE
  5
375
330
2E9
100
AcDbEntity
  8
0
  6
CONTINUOUS
 62
     7
100
AcDbLine
 10
169.187208
 20
172.554202
 30
0.0
 11
169.170172
 21
172.54362
 31
0.0
  0
LINE
  5
376
330
2E9
100
AcDbEntity
  8
0
  6
CONTINUOUS
 62
     7
100
AcDbLine
 10
169.170172
 20
172.54362
 30
0.0
 11
169.150966
 21
172.531284
 31
0.0
  0
LINE
  5
377
330
2E9
100
AcDbEntity
  8
0
  6
CONTINUOUS
 62
     7
100
AcDbLine
 10
169.150966
 20
172.531284
 30
0.0
 11
169.131967
 21
172.518654
 31
0.0
  0
LINE
  5
378
330
2E9
100
AcDbEntity
  8
0
  6
CONTINUOUS
 62
     7
100
AcDbLine
 10
169.131967
 20
172.518654
 30
0.0
 11
169.113171
 21
172.505741
 31
0.0
  0
LINE
  5
379
330
2E9
100
AcDbEntity
  8
0
  6
CONTINUOUS
 62
     7
100
AcDbLine
 10
169.113171
 20
172.505741
 30
0.0
 11
169.094575
 21
172.492554
 31
0.0
  0
LINE
  5
37A
330
2E9
100
AcDbEntity
  8
0
  6
CONTINUOUS
 62
     7
100
AcDbLine
 10
169.094575
 20
172.492554
 30
0.0
 11
169.076173
 21
172.479103
 31
0.0
  0
LINE
  5
37B
330
2E9
100
AcDbEntity
  8
0
  6
CONTINUOUS
 62
     7
100
AcDbLine
 10
169.076173
 20
172.479103
 30
0.0
 11
169.057964
 21
172.465398
 31
0.0
  0
LINE
  5
37C
330
2E9
100
AcDbEntity
  8
0
  6
CONTINUOUS
 62
     7
100
AcDbLine
 10
169.057964
 20
172.465398
 30
0.0
 11
169.039943
 21
172.451447
 31
0.0
  0
LINE
  5
37D
330
2E9
100
AcDbEntity
  8
0
  6
CONTINUOUS
 62
     7
100
AcDbLine
 10
169.039943
 20
172.451447
 30
0.0
 11
169.022106
 21
172.437262
 31
0.0
  0
LINE
  5
37E
330
2E9
100
AcDbEntity
  8
0
  6
CONTINUOUS
 62
     7
100
AcDbLine
 10
169.022106
 20
172.437262
 30
0.0
 11
169.004451
 21
172.422851
 31
0.0
  0
LINE
  5
37F
330
2E9
100
AcDbEntity
  8
0
  6
CONTINUOUS
 62
     7
100
AcDbLine
 10
169.004451
 20
172.422851
 30
0.0
 11
168.986972
 21
172.408224
 31
0.0
  0
LINE
  5
380
330
2E9
100
AcDbEntity
  8
0
  6
CONTINUOUS
 62
     7
100
AcDbLine
 10
168.986972
 20
172.408224
 30
0.0
 11
168.969667
 21
172.39339
 31
0.0
  0
LINE
  5
381
330
2E9
100
AcDbEntity
  8
0
  6
CONTINUOUS
 62
     7
100
AcDbLine
 10
168.969667
 20
172.39339
 30
0.0
 11
168.952533
 21
172.37836
 31
0.0
  0
LINE
  5
382
330
2E9
100
AcDbEntity
  8
0
  6
CONTINUOUS
 62
     7
100
AcDbLine
 10
168.952533
 20
172.37836
 30
0.0
 11
168.935564
 21
172.363143
 31
0.0
  0
LINE
  5
383
330
2E9
100
AcDbEntity
  8
0
  6
CONTINUOUS
 62
     7
100
AcDbLine
 10
168.935564
 20
172.363143
 30
0.0
 11
168.918758
 21
172.347749
 31
0.0
  0
LINE
  5
384
330
2E9
100
AcDbEntity
  8
0
  6
CONTINUOUS
 62
     7
100
AcDbLine
 10
168.918758
 20
172.347749
 30
0.0
 11
168.902111
 21
172.332187
 31
0.0
  0
LINE
  5
385
330
2E9
100
AcDbEntity
  8
0
  6
CONTINUOUS
 62
     7
100
AcDbLine
 10
168.902111
 20
172.332187
 30
0.0
 11
168.885619
 21
172.316467
 31
0.0
  0
LINE
  5
386
330
2E9
100
AcDbEntity
  8
0
  6
CONTINUOUS
 62
     7
100
AcDbLine
 10
168.885619
 20
172.316467
 30
0.0
 11
168.873143
 21
172.304376
 31
0.0
  0
LINE
  5
387
330
2E9
100
AcDbEntity
  8
0
  6
CONTINUOUS
 62
     7
100
AcDbLine
 10
168.873143
 20
172.304376
 30
0.0
 11
168.860753
 21
172.292201
 31
0.0
  0
LINE
  5
388
330
2E9
100
AcDbEntity
  8
0
  6
CONTINUOUS
 62
     7
100
AcDbLine
 10
168.860753
 20
172.292201
 30
0.0
 11
168.848448
 21
172.279943
 31
0.0
  0
LINE
  5
389
330
2E9
100
AcDbEntity
  8
0
  6
CONTINUOUS
 62
     7
100
AcDbLine
 10
168.848448
 20
172.279943
 30
0.0
 11
168.836227
 21
172.267605
 31
0.0
  0
LINE
  5
38A
330
2E9
100
AcDbEntity
  8
0
  6
CONTINUOUS
 62
     7
100
AcDbLine
 10
168.836227
 20
172.267605
 30
0.0
 11
168.824089
 21
172.255188
 31
0.0
  0
LINE
  5
38B
330
2E9
100
AcDbEntity
  8
0
  6
CONTINUOUS
 62
     7
100
AcDbLine
 10
168.824089
 20
172.255188
 30
0.0
 11
168.812031
 21
172.242694
 31
0.0
  0
LINE
  5
38C
330
2E9
100
AcDbEntity
  8
0
  6
CONTINUOUS
 62
     7
100
AcDbLine
 10
168.812031
 20
172.242694
 30
0.0
 11
168.800052
 21
172.230126
 31
0.0
  0
LINE
  5
38D
330
2E9
100
AcDbEntity
  8
0
  6
CONTINUOUS
 62
     7
100
AcDbLine
 10
168.800052
 20
172.230126
 30
0.0
 11
168.788151
 21
172.217485
 31
0.0
  0
LINE
  5
38E
330
2E9
100
AcDbEntity
  8
0
  6
CONTINUOUS
 62
     7
100
AcDbLine
 10
168.788151
 20
172.217485
 30
0.0
 11
168.776327
 21
172.204774
 31
0.0
  0
LINE
  5
38F
330
2E9
100
AcDbEntity
  8
0
  6
CONTINUOUS
 62
     7
100
AcDbLine
 10
168.776327
 20
172.204774
 30
0.0
 11
168.764577
 21
172.191993
 31
0.0
  0
LINE
  5
390
330
2E9
100
AcDbEntity
  8
0
  6
CONTINUOUS
 62
     7
100
AcDbLine
 10
168.764577
 20
172.191993
 30
0.0
 11
168.752901
 21
172.179146
 31
0.0
  0
LINE
  5
391
330
2E9
100
AcDbEntity
  8
0
  6
CONTINUOUS
 62
     7
100
AcDbLine
 10
168.752901
 20
172.179146
 30
0.0
 11
168.741296
 21
172.166234
 31
0.0
  0
LINE
  5
392
330
2E9
100
AcDbEntity
  8
0
  6
CONTINUOUS
 62
     7
100
AcDbLine
 10
168.741296
 20
172.166234
 30
0.0
 11
168.729762
 21
172.153259
 31
0.0
  0
LINE
  5
393
330
2E9
100
AcDbEntity
  8
0
  6
CONTINUOUS
 62
     7
100
AcDbLine
 10
168.729762
 20
172.153259
 30
0.0
 11
168.718296
 21
172.140223
 31
0.0
  0
LINE
  5
394
330
2E9
100
AcDbEntity
  8
0
  6
CONTINUOUS
 62
     7
100
AcDbLine
 10
168.718296
 20
172.140223
 30
0.0
 11
168.706898
 21
172.127127
 31
0.0
  0
LINE
  5
395
330
2E9
100
AcDbEntity
  8
0
  6
CONTINUOUS
 62
     7
100
AcDbLine
 10
168.706898
 20
172.127127
 30
0.0
 11
168.695566
 21
172.113975
 31
0.0
  0
LINE
  5
396
330
2E9
100
AcDbEntity
  8
0
  6
CONTINUOUS
 62
     7
100
AcDbLine
 10
168.695566
 20
172.113975
 30
0.0
 11
168.683604
 21
172.099948
 31
0.0
  0
LINE
  5
397
330
2E9
100
AcDbEntity
  8
0
  6
CONTINUOUS
 62
     7
100
AcDbLine
 10
168.683604
 20
172.099948
 30
0.0
 11
168.671713
 21
172.085861
 31
0.0
  0
LINE
  5
398
330
2E9
100
AcDbEntity
  8
0
  6
CONTINUOUS
 62
     7
100
AcDbLine
 10
168.671713
 20
172.085861
 30
0.0
 11
168.659893
 21
172.071713
 31
0.0
  0
LINE
  5
399
330
2E9
100
AcDbEntity
  8
0
  6
CONTINUOUS
 62
     7
100
AcDbLine
 10
168.659893
 20
172.071713
 30
0.0
 11
168.648144
 21
172.057507
 31
0.0
  0
LINE
  5
39A
330
2E9
100
AcDbEntity
  8
0
  6
CONTINUOUS
 62
     7
100
AcDbLine
 10
168.648144
 20
172.057507
 30
0.0
 11
168.636465
 21
172.043243
 31
0.0
  0
LINE
  5
39B
330
2E9
100
AcDbEntity
  8
0
  6
CONTINUOUS
 62
     7
100
AcDbLine
 10
168.636465
 20
172.043243
 30
0.0
 11
168.624855
 21
172.028923
 31
0.0
  0
LINE
  5
39C
330
2E9
100
AcDbEntity
  8
0
  6
CONTINUOUS
 62
     7
100
AcDbLine
 10
168.624855
 20
172.028923
 30
0.0
 11
168.613313
 21
172.014547
 31
0.0
  0
LINE
  5
39D
330
2E9
100
AcDbEntity
  8
0
  6
CONTINUOUS
 62
     7
100
AcDbLine
 10
168.613313
 20
172.014547
 30
0.0
 11
168.601839
 21
172.000118
 31
0.0
  0
LINE
  5
39E
330
2E9
100
AcDbEntity
  8
0
  6
CONTINUOUS
 62
     7
100
AcDbLine
 10
168.601839
 20
172.000118
 30
0.0
 11
168.590431
 21
171.985635
 31
0.0
  0
LINE
  5
39F
330
2E9
100
AcDbEntity
  8
0
  6
CONTINUOUS
 62
     7
100
AcDbLine
 10
168.590431
 20
171.985635
 30
0.0
 11
168.57909
 21
171.971101
 31
0.0
  0
LINE
  5
3A0
330
2E9
100
AcDbEntity
  8
0
  6
CONTINUOUS
 62
     7
100
AcDbLine
 10
168.57909
 20
171.971101
 30
0.0
 11
168.567814
 21
171.956516
 31
0.0
  0
LINE
  5
3A1
330
2E9
100
AcDbEntity
  8
0
  6
CONTINUOUS
 62
     7
100
AcDbLine
 10
168.567814
 20
171.956516
 30
0.0
 11
168.556604
 21
171.941882
 31
0.0
  0
LINE
  5
3A2
330
2E9
100
AcDbEntity
  8
0
  6
CONTINUOUS
 62
     7
100
AcDbLine
 10
168.556604
 20
171.941882
 30
0.0
 11
168.545457
 21
171.927199
 31
0.0
  0
LINE
  5
3A3
330
2E9
100
AcDbEntity
  8
0
  6
CONTINUOUS
 62
     7
100
AcDbLine
 10
168.545457
 20
171.927199
 30
0.0
 11
168.534373
 21
171.912469
 31
0.0
  0
LINE
  5
3A4
330
2E9
100
AcDbEntity
  8
0
  6
CONTINUOUS
 62
     7
100
AcDbLine
 10
168.534373
 20
171.912469
 30
0.0
 11
168.523353
 21
171.897694
 31
0.0
  0
LINE
  5
3A5
330
2E9
100
AcDbEntity
  8
0
  6
CONTINUOUS
 62
     7
100
AcDbLine
 10
168.523353
 20
171.897694
 30
0.0
 11
168.512394
 21
171.882873
 31
0.0
  0
LINE
  5
3A6
330
2E9
100
AcDbEntity
  8
0
  6
CONTINUOUS
 62
     7
100
AcDbLine
 10
168.512394
 20
171.882873
 30
0.0
 11
168.496677
 21
171.861416
 31
0.0
  0
LINE
  5
3A7
330
2E9
100
AcDbEntity
  8
0
  6
CONTINUOUS
 62
     7
100
AcDbLine
 10
168.496677
 20
171.861416
 30
0.0
 11
168.481023
 21
171.839913
 31
0.0
  0
ENDBLK
  5
2EB
330
2E9
100
AcDbEntity
  8
0
100
AcDbBlockEnd
  0
BLOCK
  5
3AB
330
3AA
100
AcDbEntity
  8
0
100
AcDbBlockBegin
  2
BLKF018
 70
     0
 71
     0
 10
0.0
 20
0.0
 30
0.0
  3
BLKF018
  1

  0
LINE
  5
3AE
330
3AA
100
AcDbEntity
  8
0
  6
CONTINUOUS
 62
     7
100
AcDbLine
 10
180.405219
 20
171.839913
 30
0.0
 11
180.328311
 21
171.940798
 31
0.0
  0
LINE
  5
3AF
330
3AA
100
AcDbEntity
  8
0
  6
CONTINUOUS
 62
     7
100
AcDbLine
 10
180.328311
 20
171.940798
 30
0.0
 11
180.289543
 21
171.990881
 31
0.0
  0
LINE
  5
3B0
330
3AA
100
AcDbEntity
  8
0
  6
CONTINUOUS
 62
     7
100
AcDbLine
 10
180.289543
 20
171.990881
 30
0.0
 11
180.250396
 21
172.040533
 31
0.0
  0
LINE
  5
3B1
330
3AA
100
AcDbEntity
  8
0
  6
CONTINUOUS
 62
     7
100
AcDbLine
 10
180.250396
 20
172.040533
 30
0.0
 11
180.210746
 21
172.089609
 31
0.0
  0
LINE
  5
3B2
330
3AA
100
AcDbEntity
  8
0
  6
CONTINUOUS
 62
     7
100
AcDbLine
 10
180.210746
 20
172.089609
 30
0.0
 11
180.170467
 21
172.137966
 31
0.0
  0
LINE
  5
3B3
330
3AA
100
AcDbEntity
  8
0
  6
CONTINUOUS
 62
     7
100
AcDbLine
 10
180.170467
 20
172.137966
 30
0.0
 11
180.129431
 21
172.18546
 31
0.0
  0
LINE
  5
3B4
330
3AA
100
AcDbEntity
  8
0
  6
CONTINUOUS
 62
     7
100
AcDbLine
 10
180.129431
 20
172.18546
 30
0.0
 11
180.087514
 21
172.231948
 31
0.0
  0
LINE
  5
3B5
330
3AA
100
AcDbEntity
  8
0
  6
CONTINUOUS
 62
     7
100
AcDbLine
 10
180.087514
 20
172.231948
 30
0.0
 11
180.04459
 21
172.277284
 31
0.0
  0
LINE
  5
3B6
330
3AA
100
AcDbEntity
  8
0
  6
CONTINUOUS
 62
     7
100
AcDbLine
 10
180.04459
 20
172.277284
 30
0.0
 11
180.000532
 21
172.321327
 31
0.0
  0
LINE
  5
3B7
330
3AA
100
AcDbEntity
  8
0
  6
CONTINUOUS
 62
     7
100
AcDbLine
 10
180.000532
 20
172.321327
 30
0.0
 11
179.955215
 21
172.36393
 31
0.0
  0
LINE
  5
3B8
330
3AA
100
AcDbEntity
  8
0
  6
CONTINUOUS
 62
     7
100
AcDbLine
 10
179.955215
 20
172.36393
 30
0.0
 11
179.908513
 21
172.404952
 31
0.0
  0
LINE
  5
3B9
330
3AA
100
AcDbEntity
  8
0
  6
CONTINUOUS
 62
     7
100
AcDbLine
 10
179.908513
 20
172.404952
 30
0.0
 11
179.884603
 21
172.424825
 31
0.0
  0
LINE
  5
3BA
330
3AA
100
AcDbEntity
  8
0
  6
CONTINUOUS
 62
     7
100
AcDbLine
 10
179.884603
 20
172.424825
 30
0.0
 11
179.8603
 21
172.444248
 31
0.0
  0
LINE
  5
3BB
330
3AA
100
AcDbEntity
  8
0
  6
CONTINUOUS
 62
     7
100
AcDbLine
 10
179.8603
 20
172.444248
 30
0.0
 11
179.835587
 21
172.463203
 31
0.0
  0
LINE
  5
3BC
330
3AA
100
AcDbEntity
  8
0
  6
CONTINUOUS
 62
     7
100
AcDbLine
 10
179.835587
 20
172.463203
 30
0.0
 11
179.81045
 21
172.481674
 31
0.0
  0
LINE
  5
3BD
330
3AA
100
AcDbEntity
  8
0
  6
CONTINUOUS
 62
     7
100
AcDbLine
 10
179.81045
 20
172.481674
 30
0.0
 11
179.784871
 21
172.49964
 31
0.0
  0
LINE
  5
3BE
330
3AA
100
AcDbEntity
  8
0
  6
CONTINUOUS
 62
     7
100
AcDbLine
 10
179.784871
 20
172.49964
 30
0.0
 11
179.758836
 21
172.517086
 31
0.0
  0
LINE
  5
3BF
330
3AA
100
AcDbEntity
  8
0
  6
CONTINUOUS
 62
     7
100
AcDbLine
 10
179.758836
 20
172.517086
 30
0.0
 11
179.732329
 21
172.533992
 31
0.0
  0
LINE
  5
3C0
330
3AA
100
AcDbEntity
  8
0
  6
CONTINUOUS
 62
     7
100
AcDbLine
 10
179.732329
 20
172.533992
 30
0.0
 11
179.705334
 21
172.550341
 31
0.0
  0
LINE
  5
3C1
330
3AA
100
AcDbEntity
  8
0
  6
CONTINUOUS
 62
     7
100
AcDbLine
 10
179.705334
 20
172.550341
 30
0.0
 11
179.673607
 21
172.568462
 31
0.0
  0
LINE
  5
3C2
330
3AA
100
AcDbEntity
  8
0
  6
CONTINUOUS
 62
     7
100
AcDbLine
 10
179.673607
 20
172.568462
 30
0.0
 11
179.641262
 21
172.585754
 31
0.0
  0
LINE
  5
3C3
330
3AA
100
AcDbEntity
  8
0
  6
CONTINUOUS
 62
     7
100
AcDbLine
 10
179.641262
 20
172.585754
 30
0.0
 11
179.608348
 21
172.60215
 31
0.0
  0
LINE
  5
3C4
330
3AA
100
AcDbEntity
  8
0
  6
CONTINUOUS
 62
     7
100
AcDbLine
 10
179.608348
 20
172.60215
 30
0.0
 11
179.574916
 21
172.617586
 31
0.0
  0
LINE
  5
3C5
330
3AA
100
AcDbEntity
  8
0
  6
CONTINUOUS
 62
     7
100
AcDbLine
 10
179.574916
 20
172.617586
 30
0.0
 11
179.541015
 21
172.631996
 31
0.0
  0
LINE
  5
3C6
330
3AA
100
AcDbEntity
  8
0
  6
CONTINUOUS
 62
     7
100
AcDbLine
 10
179.541015
 20
172.631996
 30
0.0
 11
179.506697
 21
172.645314
 31
0.0
  0
LINE
  5
3C7
330
3AA
100
AcDbEntity
  8
0
  6
CONTINUOUS
 62
     7
100
AcDbLine
 10
179.506697
 20
172.645314
 30
0.0
 11
179.472011
 21
172.657476
 31
0.0
  0
LINE
  5
3C8
330
3AA
100
AcDbEntity
  8
0
  6
CONTINUOUS
 62
     7
100
AcDbLine
 10
179.472011
 20
172.657476
 30
0.0
 11
179.437007
 21
172.668415
 31
0.0
  0
LINE
  5
3C9
330
3AA
100
AcDbEntity
  8
0
  6
CONTINUOUS
 62
     7
100
AcDbLine
 10
179.437007
 20
172.668415
 30
0.0
 11
179.401736
 21
172.678066
 31
0.0
  0
LINE
  5
3CA
330
3AA
100
AcDbEntity
  8
0
  6
CONTINUOUS
 62
     7
100
AcDbLine
 10
179.401736
 20
172.678066
 30
0.0
 11
179.366248
 21
172.686363
 31
0.0
  0
LINE
  5
3CB
330
3AA
100
AcDbEntity
  8
0
  6
CONTINUOUS
 62
     7
100
AcDbLine
 10
179.366248
 20
172.686363
 30
0.0
 11
179.330593
 21
172.693242
 31
0.0
  0
LINE
  5
3CC
330
3AA
100
AcDbEntity
  8
0
  6
CONTINUOUS
 62
     7
100
AcDbLine
 10
179.330593
 20
172.693242
 30
0.0
 11
179.294822
 21
172.698636
 31
0.0
  0
LINE
  5
3CD
330
3AA
100
AcDbEntity
  8
0
  6
CONTINUOUS
 62
     7
100
AcDbLine
 10
179.294822
 20
172.698636
 30
0.0
 11
179.258985
 21
172.702481
 31
0.0
  0
LINE
  5
3CE
330
3AA
100
AcDbEntity
  8
0
  6
CONTINUOUS
 62
     7
100
AcDbLine
 10
179.258985
 20
172.702481
 30
0.0
 11
179.223131
 21
172.70471
 31
0.0
  0
LINE
  5
3CF
330
3AA
100
AcDbEntity
  8
0
  6
CONTINUOUS
 62
     7
100
AcDbLine
 10
179.223131
 20
172.70471
 30
0.0
 11
179.187312
 21
172.705259
 31
0.0
  0
LINE
  5
3D0
330
3AA
100
AcDbEntity
  8
0
  6
CONTINUOUS
 62
     7
100
AcDbLine
 10
179.187312
 20
172.705259
 30
0.0
 11
179.151577
 21
172.704061
 31
0.0
  0
LINE
  5
3D1
330
3AA
100
AcDbEntity
  8
0
  6
CONTINUOUS
 62
     7
100
AcDbLine
 10
179.151577
 20
172.704061
 30
0.0
 11
179.114882
 21
172.700956
 31
0.0
  0
LINE
  5
3D2
330
3AA
100
AcDbEntity
  8
0
  6
CONTINUOUS
 62
     7
100
AcDbLine
 10
179.114882
 20
172.700956
 30
0.0
 11
179.078362
 21
172.696009
 31
0.0
  0
LINE
  5
3D3
330
3AA
100
AcDbEntity
  8
0
  6
CONTINUOUS
 62
     7
100
AcDbLine
 10
179.078362
 20
172.696009
 30
0.0
 11
179.04205
 21
172.689303
 31
0.0
  0
LINE
  5
3D4
330
3AA
100
AcDbEntity
  8
0
  6
CONTINUOUS
 62
     7
100
AcDbLine
 10
179.04205
 20
172.689303
 30
0.0
 11
179.005976
 21
172.68092
 31
0.0
  0
LINE
  5
3D5
330
3AA
100
AcDbEntity
  8
0
  6
CONTINUOUS
 62
     7
100
AcDbLine
 10
179.005976
 20
172.68092
 30
0.0
 11
178.970173
 21
172.670944
 31
0.0
  0
LINE
  5
3D6
330
3AA
100
AcDbEntity
  8
0
  6
CONTINUOUS
 62
     7
100
AcDbLine
 10
178.970173
 20
172.670944
 30
0.0
 11
178.934673
 21
172.659457
 31
0.0
  0
LINE
  5
3D7
330
3AA
100
AcDbEntity
  8
0
  6
CONTINUOUS
 62
     7
100
AcDbLine
 10
178.934673
 20
172.659457
 30
0.0
 11
178.899508
 21
172.646542
 31
0.0
  0
LINE
  5
3D8
330
3AA
100
AcDbEntity
  8
0
  6
CONTINUOUS
 62
     7
100
AcDbLine
 10
178.899508
 20
172.646542
 30
0.0
 11
178.864709
 21
172.632281
 31
0.0
  0
LINE
  5
3D9
330
3AA
100
AcDbEntity
  8
0
  6
CONTINUOUS
 62
     7
100
AcDbLine
 10
178.864709
 20
172.632281
 30
0.0
 11
178.83031
 21
172.616758
 31
0.0
  0
LINE
  5
3DA
330
3AA
100
AcDbEntity
  8
0
  6
CONTINUOUS
 62
     7
100
AcDbLine
 10
178.83031
 20
172.616758
 30
0.0
 11
178.796341
 21
172.600055
 31
0.0
  0
LINE
  5
3DB
330
3AA
100
AcDbEntity
  8
0
  6
CONTINUOUS
 62
     7
100
AcDbLine
 10
178.796341
 20
172.600055
 30
0.0
 11
178.762835
 21
172.582255
 31
0.0
  0
LINE
  5
3DC
330
3AA
100
AcDbEntity
  8
0
  6
CONTINUOUS
 62
     7
100
AcDbLine
 10
178.762835
 20
172.582255
 30
0.0
 11
178.729824
 21
172.563441
 31
0.0
  0
LINE
  5
3DD
330
3AA
100
AcDbEntity
  8
0
  6
CONTINUOUS
 62
     7
100
AcDbLine
 10
178.729824
 20
172.563441
 30
0.0
 11
178.69734
 21
172.543695
 31
0.0
  0
LINE
  5
3DE
330
3AA
100
AcDbEntity
  8
0
  6
CONTINUOUS
 62
     7
100
AcDbLine
 10
178.69734
 20
172.543695
 30
0.0
 11
178.665414
 21
172.5231
 31
0.0
  0
LINE
  5
3DF
330
3AA
100
AcDbEntity
  8
0
  6
CONTINUOUS
 62
     7
100
AcDbLine
 10
178.665414
 20
172.5231
 30
0.0
 11
178.634079
 21
172.501739
 31
0.0
  0
LINE
  5
3E0
330
3AA
100
AcDbEntity
  8
0
  6
CONTINUOUS
 62
     7
100
AcDbLine
 10
178.634079
 20
172.501739
 30
0.0
 11
178.603367
 21
172.479694
 31
0.0
  0
LINE
  5
3E1
330
3AA
100
AcDbEntity
  8
0
  6
CONTINUOUS
 62
     7
100
AcDbLine
 10
178.603367
 20
172.479694
 30
0.0
 11
178.559203
 21
172.446048
 31
0.0
  0
LINE
  5
3E2
330
3AA
100
AcDbEntity
  8
0
  6
CONTINUOUS
 62
     7
100
AcDbLine
 10
178.559203
 20
172.446048
 30
0.0
 11
178.516377
 21
172.411174
 31
0.0
  0
LINE
  5
3E3
330
3AA
100
AcDbEntity
  8
0
  6
CONTINUOUS
 62
     7
100
AcDbLine
 10
178.516377
 20
172.411174
 30
0.0
 11
178.474798
 21
172.375155
 31
0.0
  0
LINE
  5
3E4
330
3AA
100
AcDbEntity
  8
0
  6
CONTINUOUS
 62
     7
100
AcDbLine
 10
178.474798
 20
172.375155
 30
0.0
 11
178.434379
 21
172.338073
 31
0.0
  0
LINE
  5
3E5
330
3AA
100
AcDbEntity
  8
0
  6
CONTINUOUS
 62
     7
100
AcDbLine
 10
178.434379
 20
172.338073
 30
0.0
 11
178.39503
 21
172.300009
 31
0.0
  0
LINE
  5
3E6
330
3AA
100
AcDbEntity
  8
0
  6
CONTINUOUS
 62
     7
100
AcDbLine
 10
178.39503
 20
172.300009
 30
0.0
 11
178.356661
 21
172.261045
 31
0.0
  0
LINE
  5
3E7
330
3AA
100
AcDbEntity
  8
0
  6
CONTINUOUS
 62
     7
100
AcDbLine
 10
178.356661
 20
172.261045
 30
0.0
 11
178.319184
 21
172.221264
 31
0.0
  0
LINE
  5
3E8
330
3AA
100
AcDbEntity
  8
0
  6
CONTINUOUS
 62
     7
100
AcDbLine
 10
178.319184
 20
172.221264
 30
0.0
 11
178.28251
 21
172.180746
 31
0.0
  0
LINE
  5
3E9
330
3AA
100
AcDbEntity
  8
0
  6
CONTINUOUS
 62
     7
100
AcDbLine
 10
178.28251
 20
172.180746
 30
0.0
 11
178.246549
 21
172.139573
 31
0.0
  0
LINE
  5
3EA
330
3AA
100
AcDbEntity
  8
0
  6
CONTINUOUS
 62
     7
100
AcDbLine
 10
178.246549
 20
172.139573
 30
0.0
 11
178.211211
 21
172.097828
 31
0.0
  0
LINE
  5
3EB
330
3AA
100
AcDbEntity
  8
0
  6
CONTINUOUS
 62
     7
100
AcDbLine
 10
178.211211
 20
172.097828
 30
0.0
 11
178.176409
 21
172.055592
 31
0.0
  0
LINE
  5
3EC
330
3AA
100
AcDbEntity
  8
0
  6
CONTINUOUS
 62
     7
100
AcDbLine
 10
178.176409
 20
172.055592
 30
0.0
 11
178.142053
 21
172.012947
 31
0.0
  0
LINE
  5
3ED
330
3AA
100
AcDbEntity
  8
0
  6
CONTINUOUS
 62
     7
100
AcDbLine
 10
178.142053
 20
172.012947
 30
0.0
 11
178.108053
 21
171.969975
 31
0.0
  0
LINE
  5
3EE
330
3AA
100
AcDbEntity
  8
0
  6
CONTINUOUS
 62
     7
100
AcDbLine
 10
178.108053
 20
171.969975
 30
0.0
 11
178.074321
 21
171.926757
 31
0.0
  0
LINE
  5
3EF
330
3AA
100
AcDbEntity
  8
0
  6
CONTINUOUS
 62
     7
100
AcDbLine
 10
178.074321
 20
171.926757
 30
0.0
 11
178.007302
 21
171.839913
 31
0.0
  0
ENDBLK
  5
3AC
330
3AA
100
AcDbEntity
  8
0
100
AcDbBlockEnd
  0
BLOCK
  5
40B
330
40A
100
AcDbEntity
  8
0
100
AcDbBlockBegin
  2
BLKF019
 70
     0
 71
     0
 10
0.0
 20
0.0
 30
0.0
  3
BLKF019
  1

  0
LINE
  5
40E
330
40A
100
AcDbEntity
  8
0
  6
CONTINUOUS
 62
     7
100
AcDbLine
 10
172.045206
 20
158.871969
 30
0.0
 11
172.145316
 21
158.834733
 31
0.0
  0
LINE
  5
40F
330
40A
100
AcDbEntity
  8
0
  6
CONTINUOUS
 62
     7
100
AcDbLine
 10
172.145316
 20
158.834733
 30
0.0
 11
172.195397
 21
158.816201
 31
0.0
  0
LINE
  5
410
330
40A
100
AcDbEntity
  8
0
  6
CONTINUOUS
 62
     7
100
AcDbLine
 10
172.195397
 20
158.816201
 30
0.0
 11
172.245509
 21
158.797771
 31
0.0
  0
LINE
  5
411
330
40A
100
AcDbEntity
  8
0
  6
CONTINUOUS
 62
     7
100
AcDbLine
 10
172.245509
 20
158.797771
 30
0.0
 11
172.295664
 21
158.77948
 31
0.0
  0
LINE
  5
412
330
40A
100
AcDbEntity
  8
0
  6
CONTINUOUS
 62
     7
100
AcDbLine
 10
172.295664
 20
158.77948
 30
0.0
 11
172.345871
 21
158.76136
 31
0.0
  0
LINE
  5
413
330
40A
100
AcDbEntity
  8
0
  6
CONTINUOUS
 62
     7
100
AcDbLine
 10
172.345871
 20
158.76136
 30
0.0
 11
172.39614
 21
158.743447
 31
0.0
  0
LINE
  5
414
330
40A
100
AcDbEntity
  8
0
  6
CONTINUOUS
 62
     7
100
AcDbLine
 10
172.39614
 20
158.743447
 30
0.0
 11
172.446483
 21
158.725774
 31
0.0
  0
LINE
  5
415
330
40A
100
AcDbEntity
  8
0
  6
CONTINUOUS
 62
     7
100
AcDbLine
 10
172.446483
 20
158.725774
 30
0.0
 11
172.471686
 21
158.717038
 31
0.0
  0
LINE
  5
416
330
40A
100
AcDbEntity
  8
0
  6
CONTINUOUS
 62
     7
100
AcDbLine
 10
172.471686
 20
158.717038
 30
0.0
 11
172.49691
 21
158.708376
 31
0.0
  0
LINE
  5
417
330
40A
100
AcDbEntity
  8
0
  6
CONTINUOUS
 62
     7
100
AcDbLine
 10
172.49691
 20
158.708376
 30
0.0
 11
172.522158
 21
158.699791
 31
0.0
  0
LINE
  5
418
330
40A
100
AcDbEntity
  8
0
  6
CONTINUOUS
 62
     7
100
AcDbLine
 10
172.522158
 20
158.699791
 30
0.0
 11
172.547431
 21
158.691287
 31
0.0
  0
LINE
  5
419
330
40A
100
AcDbEntity
  8
0
  6
CONTINUOUS
 62
     7
100
AcDbLine
 10
172.547431
 20
158.691287
 30
0.0
 11
172.57273
 21
158.68287
 31
0.0
  0
LINE
  5
41A
330
40A
100
AcDbEntity
  8
0
  6
CONTINUOUS
 62
     7
100
AcDbLine
 10
172.57273
 20
158.68287
 30
0.0
 11
172.598057
 21
158.674542
 31
0.0
  0
LINE
  5
41B
330
40A
100
AcDbEntity
  8
0
  6
CONTINUOUS
 62
     7
100
AcDbLine
 10
172.598057
 20
158.674542
 30
0.0
 11
172.623413
 21
158.66631
 31
0.0
  0
LINE
  5
41C
330
40A
100
AcDbEntity
  8
0
  6
CONTINUOUS
 62
     7
100
AcDbLine
 10
172.623413
 20
158.66631
 30
0.0
 11
172.648798
 21
158.658176
 31
0.0
  0
LINE
  5
41D
330
40A
100
AcDbEntity
  8
0
  6
CONTINUOUS
 62
     7
100
AcDbLine
 10
172.648798
 20
158.658176
 30
0.0
 11
172.674215
 21
158.650145
 31
0.0
  0
LINE
  5
41E
330
40A
100
AcDbEntity
  8
0
  6
CONTINUOUS
 62
     7
100
AcDbLine
 10
172.674215
 20
158.650145
 30
0.0
 11
172.699665
 21
158.642221
 31
0.0
  0
LINE
  5
41F
330
40A
100
AcDbEntity
  8
0
  6
CONTINUOUS
 62
     7
100
AcDbLine
 10
172.699665
 20
158.642221
 30
0.0
 11
172.725149
 21
158.634409
 31
0.0
  0
LINE
  5
420
330
40A
100
AcDbEntity
  8
0
  6
CONTINUOUS
 62
     7
100
AcDbLine
 10
172.725149
 20
158.634409
 30
0.0
 11
172.750668
 21
158.626714
 31
0.0
  0
LINE
  5
421
330
40A
100
AcDbEntity
  8
0
  6
CONTINUOUS
 62
     7
100
AcDbLine
 10
172.750668
 20
158.626714
 30
0.0
 11
172.776224
 21
158.619138
 31
0.0
  0
LINE
  5
422
330
40A
100
AcDbEntity
  8
0
  6
CONTINUOUS
 62
     7
100
AcDbLine
 10
172.776224
 20
158.619138
 30
0.0
 11
172.801818
 21
158.611687
 31
0.0
  0
LINE
  5
423
330
40A
100
AcDbEntity
  8
0
  6
CONTINUOUS
 62
     7
100
AcDbLine
 10
172.801818
 20
158.611687
 30
0.0
 11
172.827451
 21
158.604365
 31
0.0
  0
LINE
  5
424
330
40A
100
AcDbEntity
  8
0
  6
CONTINUOUS
 62
     7
100
AcDbLine
 10
172.827451
 20
158.604365
 30
0.0
 11
172.853124
 21
158.597176
 31
0.0
  0
LINE
  5
425
330
40A
100
AcDbEntity
  8
0
  6
CONTINUOUS
 62
     7
100
AcDbLine
 10
172.853124
 20
158.597176
 30
0.0
 11
172.876428
 21
158.590774
 31
0.0
  0
LINE
  5
426
330
40A
100
AcDbEntity
  8
0
  6
CONTINUOUS
 62
     7
100
AcDbLine
 10
172.876428
 20
158.590774
 30
0.0
 11
172.899757
 21
158.584457
 31
0.0
  0
LINE
  5
427
330
40A
100
AcDbEntity
  8
0
  6
CONTINUOUS
 62
     7
100
AcDbLine
 10
172.899757
 20
158.584457
 30
0.0
 11
172.946458
 21
158.571964
 31
0.0
  0
ENDBLK
  5
40C
330
40A
100
AcDbEntity
  8
0
100
AcDbBlockEnd
  0
BLOCK
  5
42A
330
429
100
AcDbEntity
  8
0
100
AcDbBlockBegin
  2
BLKF020
 70
     0
 71
     0
 10
0.0
 20
0.0
 30
0.0
  3
BLKF020
  1

  0
LINE
  5
42D
330
429
100
AcDbEntity
  8
0
  6
CONTINUOUS
 62
     7
100
AcDbLine
 10
174.443119
 20
169.071963
 30
0.0
 11
174.319384
 21
169.065254
 31
0.0
  0
LINE
  5
42E
330
429
100
AcDbEntity
  8
0
  6
CONTINUOUS
 62
     7
100
AcDbLine
 10
174.319384
 20
169.065254
 30
0.0
 11
174.257533
 21
169.061774
 31
0.0
  0
LINE
  5
42F
330
429
100
AcDbEntity
  8
0
  6
CONTINUOUS
 62
     7
100
AcDbLine
 10
174.257533
 20
169.061774
 30
0.0
 11
174.195703
 21
169.058142
 31
0.0
  0
LINE
  5
430
330
429
100
AcDbEntity
  8
0
  6
CONTINUOUS
 62
     7
100
AcDbLine
 10
174.195703
 20
169.058142
 30
0.0
 11
174.133901
 21
169.054309
 31
0.0
  0
LINE
  5
431
330
429
100
AcDbEntity
  8
0
  6
CONTINUOUS
 62
     7
100
AcDbLine
 10
174.133901
 20
169.054309
 30
0.0
 11
174.072133
 21
169.050223
 31
0.0
  0
LINE
  5
432
330
429
100
AcDbEntity
  8
0
  6
CONTINUOUS
 62
     7
100
AcDbLine
 10
174.072133
 20
169.050223
 30
0.0
 11
174.010406
 21
169.045836
 31
0.0
  0
LINE
  5
433
330
429
100
AcDbEntity
  8
0
  6
CONTINUOUS
 62
     7
100
AcDbLine
 10
174.010406
 20
169.045836
 30
0.0
 11
173.948727
 21
169.041095
 31
0.0
  0
LINE
  5
434
330
429
100
AcDbEntity
  8
0
  6
CONTINUOUS
 62
     7
100
AcDbLine
 10
173.948727
 20
169.041095
 30
0.0
 11
173.887104
 21
169.035951
 31
0.0
  0
LINE
  5
435
330
429
100
AcDbEntity
  8
0
  6
CONTINUOUS
 62
     7
100
AcDbLine
 10
173.887104
 20
169.035951
 30
0.0
 11
173.825542
 21
169.030354
 31
0.0
  0
LINE
  5
436
330
429
100
AcDbEntity
  8
0
  6
CONTINUOUS
 62
     7
100
AcDbLine
 10
173.825542
 20
169.030354
 30
0.0
 11
173.764049
 21
169.024252
 31
0.0
  0
LINE
  5
437
330
429
100
AcDbEntity
  8
0
  6
CONTINUOUS
 62
     7
100
AcDbLine
 10
173.764049
 20
169.024252
 30
0.0
 11
173.702632
 21
169.017596
 31
0.0
  0
LINE
  5
438
330
429
100
AcDbEntity
  8
0
  6
CONTINUOUS
 62
     7
100
AcDbLine
 10
173.702632
 20
169.017596
 30
0.0
 11
173.641298
 21
169.010335
 31
0.0
  0
LINE
  5
439
330
429
100
AcDbEntity
  8
0
  6
CONTINUOUS
 62
     7
100
AcDbLine
 10
173.641298
 20
169.010335
 30
0.0
 11
173.580052
 21
169.002419
 31
0.0
  0
LINE
  5
43A
330
429
100
AcDbEntity
  8
0
  6
CONTINUOUS
 62
     7
100
AcDbLine
 10
173.580052
 20
169.002419
 30
0.0
 11
173.518904
 21
168.993796
 31
0.0
  0
LINE
  5
43B
330
429
100
AcDbEntity
  8
0
  6
CONTINUOUS
 62
     7
100
AcDbLine
 10
173.518904
 20
168.993796
 30
0.0
 11
173.457858
 21
168.984418
 31
0.0
  0
LINE
  5
43C
330
429
100
AcDbEntity
  8
0
  6
CONTINUOUS
 62
     7
100
AcDbLine
 10
173.457858
 20
168.984418
 30
0.0
 11
173.395166
 21
168.97394
 31
0.0
  0
LINE
  5
43D
330
429
100
AcDbEntity
  8
0
  6
CONTINUOUS
 62
     7
100
AcDbLine
 10
173.395166
 20
168.97394
 30
0.0
 11
173.332596
 21
168.962631
 31
0.0
  0
LINE
  5
43E
330
429
100
AcDbEntity
  8
0
  6
CONTINUOUS
 62
     7
100
AcDbLine
 10
173.332596
 20
168.962631
 30
0.0
 11
173.270154
 21
168.950513
 31
0.0
  0
LINE
  5
43F
330
429
100
AcDbEntity
  8
0
  6
CONTINUOUS
 62
     7
100
AcDbLine
 10
173.270154
 20
168.950513
 30
0.0
 11
173.207846
 21
168.937608
 31
0.0
  0
LINE
  5
440
330
429
100
AcDbEntity
  8
0
  6
CONTINUOUS
 62
     7
100
AcDbLine
 10
173.207846
 20
168.937608
 30
0.0
 11
173.145676
 21
168.92394
 31
0.0
  0
LINE
  5
441
330
429
100
AcDbEntity
  8
0
  6
CONTINUOUS
 62
     7
100
AcDbLine
 10
173.145676
 20
168.92394
 30
0.0
 11
173.083651
 21
168.909531
 31
0.0
  0
LINE
  5
442
330
429
100
AcDbEntity
  8
0
  6
CONTINUOUS
 62
     7
100
AcDbLine
 10
173.083651
 20
168.909531
 30
0.0
 11
173.021777
 21
168.894403
 31
0.0
  0
LINE
  5
443
330
429
100
AcDbEntity
  8
0
  6
CONTINUOUS
 62
     7
100
AcDbLine
 10
173.021777
 20
168.894403
 30
0.0
 11
172.960058
 21
168.878579
 31
0.0
  0
LINE
  5
444
330
429
100
AcDbEntity
  8
0
  6
CONTINUOUS
 62
     7
100
AcDbLine
 10
172.960058
 20
168.878579
 30
0.0
 11
172.898501
 21
168.862081
 31
0.0
  0
LINE
  5
445
330
429
100
AcDbEntity
  8
0
  6
CONTINUOUS
 62
     7
100
AcDbLine
 10
172.898501
 20
168.862081
 30
0.0
 11
172.83711
 21
168.844932
 31
0.0
  0
LINE
  5
446
330
429
100
AcDbEntity
  8
0
  6
CONTINUOUS
 62
     7
100
AcDbLine
 10
172.83711
 20
168.844932
 30
0.0
 11
172.775893
 21
168.827154
 31
0.0
  0
LINE
  5
447
330
429
100
AcDbEntity
  8
0
  6
CONTINUOUS
 62
     7
100
AcDbLine
 10
172.775893
 20
168.827154
 30
0.0
 11
172.714854
 21
168.80877
 31
0.0
  0
LINE
  5
448
330
429
100
AcDbEntity
  8
0
  6
CONTINUOUS
 62
     7
100
AcDbLine
 10
172.714854
 20
168.80877
 30
0.0
 11
172.653999
 21
168.789803
 31
0.0
  0
LINE
  5
449
330
429
100
AcDbEntity
  8
0
  6
CONTINUOUS
 62
     7
100
AcDbLine
 10
172.653999
 20
168.789803
 30
0.0
 11
172.593333
 21
168.770274
 31
0.0
  0
LINE
  5
44A
330
429
100
AcDbEntity
  8
0
  6
CONTINUOUS
 62
     7
100
AcDbLine
 10
172.593333
 20
168.770274
 30
0.0
 11
172.532863
 21
168.750207
 31
0.0
  0
LINE
  5
44B
330
429
100
AcDbEntity
  8
0
  6
CONTINUOUS
 62
     7
100
AcDbLine
 10
172.532863
 20
168.750207
 30
0.0
 11
172.472593
 21
168.729623
 31
0.0
  0
LINE
  5
44C
330
429
100
AcDbEntity
  8
0
  6
CONTINUOUS
 62
     7
100
AcDbLine
 10
172.472593
 20
168.729623
 30
0.0
 11
172.418808
 21
168.710782
 31
0.0
  0
LINE
  5
44D
330
429
100
AcDbEntity
  8
0
  6
CONTINUOUS
 62
     7
100
AcDbLine
 10
172.418808
 20
168.710782
 30
0.0
 11
172.365167
 21
168.691594
 31
0.0
  0
LINE
  5
44E
330
429
100
AcDbEntity
  8
0
  6
CONTINUOUS
 62
     7
100
AcDbLine
 10
172.365167
 20
168.691594
 30
0.0
 11
172.311651
 21
168.67211
 31
0.0
  0
LINE
  5
44F
330
429
100
AcDbEntity
  8
0
  6
CONTINUOUS
 62
     7
100
AcDbLine
 10
172.311651
 20
168.67211
 30
0.0
 11
172.258238
 21
168.652379
 31
0.0
  0
LINE
  5
450
330
429
100
AcDbEntity
  8
0
  6
CONTINUOUS
 62
     7
100
AcDbLine
 10
172.258238
 20
168.652379
 30
0.0
 11
172.204907
 21
168.632449
 31
0.0
  0
LINE
  5
451
330
429
100
AcDbEntity
  8
0
  6
CONTINUOUS
 62
     7
100
AcDbLine
 10
172.204907
 20
168.632449
 30
0.0
 11
172.151639
 21
168.612372
 31
0.0
  0
LINE
  5
452
330
429
100
AcDbEntity
  8
0
  6
CONTINUOUS
 62
     7
100
AcDbLine
 10
172.151639
 20
168.612372
 30
0.0
 11
172.045206
 21
168.571969
 31
0.0
  0
ENDBLK
  5
42B
330
429
100
AcDbEntity
  8
0
100
AcDbBlockEnd
  0
BLOCK
  5
454
330
453
100
AcDbEntity
  8
0
100
AcDbBlockBegin
  2
BLKF021
 70
     0
 71
     0
 10
0.0
 20
0.0
 30
0.0
  3
BLKF021
  1

  0
LINE
  5
457
330
453
100
AcDbEntity
  8
0
  6
CONTINUOUS
 62
     7
100
AcDbLine
 10
176.841036
 20
168.571969
 30
0.0
 11
176.698165
 21
168.623985
 31
0.0
  0
LINE
  5
458
330
453
100
AcDbEntity
  8
0
  6
CONTINUOUS
 62
     7
100
AcDbLine
 10
176.698165
 20
168.623985
 30
0.0
 11
176.555156
 21
168.675348
 31
0.0
  0
LINE
  5
459
330
453
100
AcDbEntity
  8
0
  6
CONTINUOUS
 62
     7
100
AcDbLine
 10
176.555156
 20
168.675348
 30
0.0
 11
176.483558
 21
168.700579
 31
0.0
  0
LINE
  5
45A
330
453
100
AcDbEntity
  8
0
  6
CONTINUOUS
 62
     7
100
AcDbLine
 10
176.483558
 20
168.700579
 30
0.0
 11
176.411873
 21
168.725402
 31
0.0
  0
LINE
  5
45B
330
453
100
AcDbEntity
  8
0
  6
CONTINUOUS
 62
     7
100
AcDbLine
 10
176.411873
 20
168.725402
 30
0.0
 11
176.340085
 21
168.749735
 31
0.0
  0
LINE
  5
45C
330
453
100
AcDbEntity
  8
0
  6
CONTINUOUS
 62
     7
100
AcDbLine
 10
176.340085
 20
168.749735
 30
0.0
 11
176.268177
 21
168.773495
 31
0.0
  0
LINE
  5
45D
330
453
100
AcDbEntity
  8
0
  6
CONTINUOUS
 62
     7
100
AcDbLine
 10
176.268177
 20
168.773495
 30
0.0
 11
176.196131
 21
168.796602
 31
0.0
  0
LINE
  5
45E
330
453
100
AcDbEntity
  8
0
  6
CONTINUOUS
 62
     7
100
AcDbLine
 10
176.196131
 20
168.796602
 30
0.0
 11
176.123931
 21
168.818972
 31
0.0
  0
LINE
  5
45F
330
453
100
AcDbEntity
  8
0
  6
CONTINUOUS
 62
     7
100
AcDbLine
 10
176.123931
 20
168.818972
 30
0.0
 11
176.051559
 21
168.840526
 31
0.0
  0
LINE
  5
460
330
453
100
AcDbEntity
  8
0
  6
CONTINUOUS
 62
     7
100
AcDbLine
 10
176.051559
 20
168.840526
 30
0.0
 11
175.978998
 21
168.861181
 31
0.0
  0
LINE
  5
461
330
453
100
AcDbEntity
  8
0
  6
CONTINUOUS
 62
     7
100
AcDbLine
 10
175.978998
 20
168.861181
 30
0.0
 11
175.906231
 21
168.880854
 31
0.0
  0
LINE
  5
462
330
453
100
AcDbEntity
  8
0
  6
CONTINUOUS
 62
     7
100
AcDbLine
 10
175.906231
 20
168.880854
 30
0.0
 11
175.83324
 21
168.899465
 31
0.0
  0
LINE
  5
463
330
453
100
AcDbEntity
  8
0
  6
CONTINUOUS
 62
     7
100
AcDbLine
 10
175.83324
 20
168.899465
 30
0.0
 11
175.760009
 21
168.916932
 31
0.0
  0
LINE
  5
464
330
453
100
AcDbEntity
  8
0
  6
CONTINUOUS
 62
     7
100
AcDbLine
 10
175.760009
 20
168.916932
 30
0.0
 11
175.686521
 21
168.933173
 31
0.0
  0
LINE
  5
465
330
453
100
AcDbEntity
  8
0
  6
CONTINUOUS
 62
     7
100
AcDbLine
 10
175.686521
 20
168.933173
 30
0.0
 11
175.610232
 21
168.948623
 31
0.0
  0
LINE
  5
466
330
453
100
AcDbEntity
  8
0
  6
CONTINUOUS
 62
     7
100
AcDbLine
 10
175.610232
 20
168.948623
 30
0.0
 11
175.533668
 21
168.962762
 31
0.0
  0
LINE
  5
467
330
453
100
AcDbEntity
  8
0
  6
CONTINUOUS
 62
     7
100
AcDbLine
 10
175.533668
 20
168.962762
 30
0.0
 11
175.456847
 21
168.975676
 31
0.0
  0
LINE
  5
468
330
453
100
AcDbEntity
  8
0
  6
CONTINUOUS
 62
     7
100
AcDbLine
 10
175.456847
 20
168.975676
 30
0.0
 11
175.379787
 21
168.987454
 31
0.0
  0
LINE
  5
469
330
453
100
AcDbEntity
  8
0
  6
CONTINUOUS
 62
     7
100
AcDbLine
 10
175.379787
 20
168.987454
 30
0.0
 11
175.302506
 21
168.998183
 31
0.0
  0
LINE
  5
46A
330
453
100
AcDbEntity
  8
0
  6
CONTINUOUS
 62
     7
100
AcDbLine
 10
175.302506
 20
168.998183
 30
0.0
 11
175.225023
 21
169.00795
 31
0.0
  0
LINE
  5
46B
330
453
100
AcDbEntity
  8
0
  6
CONTINUOUS
 62
     7
100
AcDbLine
 10
175.225023
 20
169.00795
 30
0.0
 11
175.147357
 21
169.016843
 31
0.0
  0
LINE
  5
46C
330
453
100
AcDbEntity
  8
0
  6
CONTINUOUS
 62
     7
100
AcDbLine
 10
175.147357
 20
169.016843
 30
0.0
 11
175.069525
 21
169.024949
 31
0.0
  0
LINE
  5
46D
330
453
100
AcDbEntity
  8
0
  6
CONTINUOUS
 62
     7
100
AcDbLine
 10
175.069525
 20
169.024949
 30
0.0
 11
174.991545
 21
169.032356
 31
0.0
  0
LINE
  5
46E
330
453
100
AcDbEntity
  8
0
  6
CONTINUOUS
 62
     7
100
AcDbLine
 10
174.991545
 20
169.032356
 30
0.0
 11
174.913438
 21
169.039151
 31
0.0
  0
LINE
  5
46F
330
453
100
AcDbEntity
  8
0
  6
CONTINUOUS
 62
     7
100
AcDbLine
 10
174.913438
 20
169.039151
 30
0.0
 11
174.83522
 21
169.045421
 31
0.0
  0
LINE
  5
470
330
453
100
AcDbEntity
  8
0
  6
CONTINUOUS
 62
     7
100
AcDbLine
 10
174.83522
 20
169.045421
 30
0.0
 11
174.75691
 21
169.051254
 31
0.0
  0
LINE
  5
471
330
453
100
AcDbEntity
  8
0
  6
CONTINUOUS
 62
     7
100
AcDbLine
 10
174.75691
 20
169.051254
 30
0.0
 11
174.600088
 21
169.061958
 31
0.0
  0
LINE
  5
472
330
453
100
AcDbEntity
  8
0
  6
CONTINUOUS
 62
     7
100
AcDbLine
 10
174.600088
 20
169.061958
 30
0.0
 11
174.443119
 21
169.071963
 31
0.0
  0
ENDBLK
  5
455
330
453
100
AcDbEntity
  8
0
100
AcDbBlockEnd
  0
BLOCK
  5
476
330
475
100
AcDbEntity
  8
0
100
AcDbBlockBegin
  2
BLKF022
 70
     0
 71
     0
 10
0.0
 20
0.0
 30
0.0
  3
BLKF022
  1

  0
LINE
  5
479
330
475
100
AcDbEntity
  8
0
  6
CONTINUOUS
 62
     7
100
AcDbLine
 10
170.87894
 20
168.571969
 30
0.0
 11
170.809559
 21
168.623885
 31
0.0
  0
LINE
  5
47A
330
475
100
AcDbEntity
  8
0
  6
CONTINUOUS
 62
     7
100
AcDbLine
 10
170.809559
 20
168.623885
 30
0.0
 11
170.739913
 21
168.675157
 31
0.0
  0
LINE
  5
47B
330
475
100
AcDbEntity
  8
0
  6
CONTINUOUS
 62
     7
100
AcDbLine
 10
170.739913
 20
168.675157
 30
0.0
 11
170.704909
 21
168.70035
 31
0.0
  0
LINE
  5
47C
330
475
100
AcDbEntity
  8
0
  6
CONTINUOUS
 62
     7
100
AcDbLine
 10
170.704909
 20
168.70035
 30
0.0
 11
170.669739
 21
168.72514
 31
0.0
  0
LINE
  5
47D
330
475
100
AcDbEntity
  8
0
  6
CONTINUOUS
 62
     7
100
AcDbLine
 10
170.669739
 20
168.72514
 30
0.0
 11
170.63437
 21
168.749447
 31
0.0
  0
LINE
  5
47E
330
475
100
AcDbEntity
  8
0
  6
CONTINUOUS
 62
     7
100
AcDbLine
 10
170.63437
 20
168.749447
 30
0.0
 11
170.598771
 21
168.77319
 31
0.0
  0
LINE
  5
47F
330
475
100
AcDbEntity
  8
0
  6
CONTINUOUS
 62
     7
100
AcDbLine
 10
170.598771
 20
168.77319
 30
0.0
 11
170.562907
 21
168.796289
 31
0.0
  0
LINE
  5
480
330
475
100
AcDbEntity
  8
0
  6
CONTINUOUS
 62
     7
100
AcDbLine
 10
170.562907
 20
168.796289
 30
0.0
 11
170.526746
 21
168.818663
 31
0.0
  0
LINE
  5
481
330
475
100
AcDbEntity
  8
0
  6
CONTINUOUS
 62
     7
100
AcDbLine
 10
170.526746
 20
168.818663
 30
0.0
 11
170.490254
 21
168.840231
 31
0.0
  0
LINE
  5
482
330
475
100
AcDbEntity
  8
0
  6
CONTINUOUS
 62
     7
100
AcDbLine
 10
170.490254
 20
168.840231
 30
0.0
 11
170.453398
 21
168.860914
 31
0.0
  0
LINE
  5
483
330
475
100
AcDbEntity
  8
0
  6
CONTINUOUS
 62
     7
100
AcDbLine
 10
170.453398
 20
168.860914
 30
0.0
 11
170.416146
 21
168.88063
 31
0.0
  0
LINE
  5
484
330
475
100
AcDbEntity
  8
0
  6
CONTINUOUS
 62
     7
100
AcDbLine
 10
170.416146
 20
168.88063
 30
0.0
 11
170.378465
 21
168.899299
 31
0.0
  0
LINE
  5
485
330
475
100
AcDbEntity
  8
0
  6
CONTINUOUS
 62
     7
100
AcDbLine
 10
170.378465
 20
168.899299
 30
0.0
 11
170.340321
 21
168.91684
 31
0.0
  0
LINE
  5
486
330
475
100
AcDbEntity
  8
0
  6
CONTINUOUS
 62
     7
100
AcDbLine
 10
170.340321
 20
168.91684
 30
0.0
 11
170.30168
 21
168.933173
 31
0.0
  0
LINE
  5
487
330
475
100
AcDbEntity
  8
0
  6
CONTINUOUS
 62
     7
100
AcDbLine
 10
170.30168
 20
168.933173
 30
0.0
 11
170.265066
 21
168.94731
 31
0.0
  0
LINE
  5
488
330
475
100
AcDbEntity
  8
0
  6
CONTINUOUS
 62
     7
100
AcDbLine
 10
170.265066
 20
168.94731
 30
0.0
 11
170.228017
 21
168.960389
 31
0.0
  0
LINE
  5
489
330
475
100
AcDbEntity
  8
0
  6
CONTINUOUS
 62
     7
100
AcDbLine
 10
170.228017
 20
168.960389
 30
0.0
 11
170.190563
 21
168.972482
 31
0.0
  0
LINE
  5
48A
330
475
100
AcDbEntity
  8
0
  6
CONTINUOUS
 62
     7
100
AcDbLine
 10
170.190563
 20
168.972482
 30
0.0
 11
170.152734
 21
168.983658
 31
0.0
  0
LINE
  5
48B
330
475
100
AcDbEntity
  8
0
  6
CONTINUOUS
 62
     7
100
AcDbLine
 10
170.152734
 20
168.983658
 30
0.0
 11
170.114557
 21
168.993989
 31
0.0
  0
LINE
  5
48C
330
475
100
AcDbEntity
  8
0
  6
CONTINUOUS
 62
     7
100
AcDbLine
 10
170.114557
 20
168.993989
 30
0.0
 11
170.076063
 21
169.003544
 31
0.0
  0
LINE
  5
48D
330
475
100
AcDbEntity
  8
0
  6
CONTINUOUS
 62
     7
100
AcDbLine
 10
170.076063
 20
169.003544
 30
0.0
 11
170.037279
 21
169.012395
 31
0.0
  0
LINE
  5
48E
330
475
100
AcDbEntity
  8
0
  6
CONTINUOUS
 62
     7
100
AcDbLine
 10
170.037279
 20
169.012395
 30
0.0
 11
169.998235
 21
169.020611
 31
0.0
  0
LINE
  5
48F
330
475
100
AcDbEntity
  8
0
  6
CONTINUOUS
 62
     7
100
AcDbLine
 10
169.998235
 20
169.020611
 30
0.0
 11
169.958959
 21
169.028264
 31
0.0
  0
LINE
  5
490
330
475
100
AcDbEntity
  8
0
  6
CONTINUOUS
 62
     7
100
AcDbLine
 10
169.958959
 20
169.028264
 30
0.0
 11
169.919481
 21
169.035423
 31
0.0
  0
LINE
  5
491
330
475
100
AcDbEntity
  8
0
  6
CONTINUOUS
 62
     7
100
AcDbLine
 10
169.919481
 20
169.035423
 30
0.0
 11
169.87983
 21
169.042159
 31
0.0
  0
LINE
  5
492
330
475
100
AcDbEntity
  8
0
  6
CONTINUOUS
 62
     7
100
AcDbLine
 10
169.87983
 20
169.042159
 30
0.0
 11
169.840034
 21
169.048542
 31
0.0
  0
LINE
  5
493
330
475
100
AcDbEntity
  8
0
  6
CONTINUOUS
 62
     7
100
AcDbLine
 10
169.840034
 20
169.048542
 30
0.0
 11
169.760123
 21
169.060534
 31
0.0
  0
LINE
  5
494
330
475
100
AcDbEntity
  8
0
  6
CONTINUOUS
 62
     7
100
AcDbLine
 10
169.760123
 20
169.060534
 30
0.0
 11
169.679982
 21
169.071963
 31
0.0
  0
ENDBLK
  5
477
330
475
100
AcDbEntity
  8
0
100
AcDbBlockEnd
  0
BLOCK
  5
497
330
496
100
AcDbEntity
  8
0
100
AcDbBlockBegin
  2
BLKF023
 70
     0
 71
     0
 10
0.0
 20
0.0
 30
0.0
  3
BLKF023
  1

  0
LINE
  5
49A
330
496
100
AcDbEntity
  8
0
  6
CONTINUOUS
 62
     7
100
AcDbLine
 10
179.20626
 20
169.071963
 30
0.0
 11
179.14359
 21
169.06485
 31
0.0
  0
LINE
  5
49B
330
496
100
AcDbEntity
  8
0
  6
CONTINUOUS
 62
     7
100
AcDbLine
 10
179.14359
 20
169.06485
 30
0.0
 11
179.081024
 21
169.057372
 31
0.0
  0
LINE
  5
49C
330
496
100
AcDbEntity
  8
0
  6
CONTINUOUS
 62
     7
100
AcDbLine
 10
179.081024
 20
169.057372
 30
0.0
 11
179.049812
 21
169.053383
 31
0.0
  0
LINE
  5
49D
330
496
100
AcDbEntity
  8
0
  6
CONTINUOUS
 62
     7
100
AcDbLine
 10
179.049812
 20
169.053383
 30
0.0
 11
179.018665
 21
169.049165
 31
0.0
  0
LINE
  5
49E
330
496
100
AcDbEntity
  8
0
  6
CONTINUOUS
 62
     7
100
AcDbLine
 10
179.018665
 20
169.049165
 30
0.0
 11
178.987596
 21
169.044674
 31
0.0
  0
LINE
  5
49F
330
496
100
AcDbEntity
  8
0
  6
CONTINUOUS
 62
     7
100
AcDbLine
 10
178.987596
 20
169.044674
 30
0.0
 11
178.956618
 21
169.039864
 31
0.0
  0
LINE
  5
4A0
330
496
100
AcDbEntity
  8
0
  6
CONTINUOUS
 62
     7
100
AcDbLine
 10
178.956618
 20
169.039864
 30
0.0
 11
178.925744
 21
169.034689
 31
0.0
  0
LINE
  5
4A1
330
496
100
AcDbEntity
  8
0
  6
CONTINUOUS
 62
     7
100
AcDbLine
 10
178.925744
 20
169.034689
 30
0.0
 11
178.894987
 21
169.029103
 31
0.0
  0
LINE
  5
4A2
330
496
100
AcDbEntity
  8
0
  6
CONTINUOUS
 62
     7
100
AcDbLine
 10
178.894987
 20
169.029103
 30
0.0
 11
178.86436
 21
169.023062
 31
0.0
  0
LINE
  5
4A3
330
496
100
AcDbEntity
  8
0
  6
CONTINUOUS
 62
     7
100
AcDbLine
 10
178.86436
 20
169.023062
 30
0.0
 11
178.833876
 21
169.016519
 31
0.0
  0
LINE
  5
4A4
330
496
100
AcDbEntity
  8
0
  6
CONTINUOUS
 62
     7
100
AcDbLine
 10
178.833876
 20
169.016519
 30
0.0
 11
178.803548
 21
169.009428
 31
0.0
  0
LINE
  5
4A5
330
496
100
AcDbEntity
  8
0
  6
CONTINUOUS
 62
     7
100
AcDbLine
 10
178.803548
 20
169.009428
 30
0.0
 11
178.773388
 21
169.001745
 31
0.0
  0
LINE
  5
4A6
330
496
100
AcDbEntity
  8
0
  6
CONTINUOUS
 62
     7
100
AcDbLine
 10
178.773388
 20
169.001745
 30
0.0
 11
178.743411
 21
168.993424
 31
0.0
  0
LINE
  5
4A7
330
496
100
AcDbEntity
  8
0
  6
CONTINUOUS
 62
     7
100
AcDbLine
 10
178.743411
 20
168.993424
 30
0.0
 11
178.713628
 21
168.984418
 31
0.0
  0
LINE
  5
4A8
330
496
100
AcDbEntity
  8
0
  6
CONTINUOUS
 62
     7
100
AcDbLine
 10
178.713628
 20
168.984418
 30
0.0
 11
178.680856
 21
168.973598
 31
0.0
  0
LINE
  5
4A9
330
496
100
AcDbEntity
  8
0
  6
CONTINUOUS
 62
     7
100
AcDbLine
 10
178.680856
 20
168.973598
 30
0.0
 11
178.64834
 21
168.96192
 31
0.0
  0
LINE
  5
4AA
330
496
100
AcDbEntity
  8
0
  6
CONTINUOUS
 62
     7
100
AcDbLine
 10
178.64834
 20
168.96192
 30
0.0
 11
178.616083
 21
168.949421
 31
0.0
  0
LINE
  5
4AB
330
496
100
AcDbEntity
  8
0
  6
CONTINUOUS
 62
     7
100
AcDbLine
 10
178.616083
 20
168.949421
 30
0.0
 11
178.584087
 21
168.93614
 31
0.0
  0
LINE
  5
4AC
330
496
100
AcDbEntity
  8
0
  6
CONTINUOUS
 62
     7
100
AcDbLine
 10
178.584087
 20
168.93614
 30
0.0
 11
178.552352
 21
168.922115
 31
0.0
  0
LINE
  5
4AD
330
496
100
AcDbEntity
  8
0
  6
CONTINUOUS
 62
     7
100
AcDbLine
 10
178.552352
 20
168.922115
 30
0.0
 11
178.52088
 21
168.907384
 31
0.0
  0
LINE
  5
4AE
330
496
100
AcDbEntity
  8
0
  6
CONTINUOUS
 62
     7
100
AcDbLine
 10
178.52088
 20
168.907384
 30
0.0
 11
178.489674
 21
168.891985
 31
0.0
  0
LINE
  5
4AF
330
496
100
AcDbEntity
  8
0
  6
CONTINUOUS
 62
     7
100
AcDbLine
 10
178.489674
 20
168.891985
 30
0.0
 11
178.458733
 21
168.875957
 31
0.0
  0
LINE
  5
4B0
330
496
100
AcDbEntity
  8
0
  6
CONTINUOUS
 62
     7
100
AcDbLine
 10
178.458733
 20
168.875957
 30
0.0
 11
178.428061
 21
168.859336
 31
0.0
  0
LINE
  5
4B1
330
496
100
AcDbEntity
  8
0
  6
CONTINUOUS
 62
     7
100
AcDbLine
 10
178.428061
 20
168.859336
 30
0.0
 11
178.397659
 21
168.842162
 31
0.0
  0
LINE
  5
4B2
330
496
100
AcDbEntity
  8
0
  6
CONTINUOUS
 62
     7
100
AcDbLine
 10
178.397659
 20
168.842162
 30
0.0
 11
178.367528
 21
168.824472
 31
0.0
  0
LINE
  5
4B3
330
496
100
AcDbEntity
  8
0
  6
CONTINUOUS
 62
     7
100
AcDbLine
 10
178.367528
 20
168.824472
 30
0.0
 11
178.337669
 21
168.806305
 31
0.0
  0
LINE
  5
4B4
330
496
100
AcDbEntity
  8
0
  6
CONTINUOUS
 62
     7
100
AcDbLine
 10
178.337669
 20
168.806305
 30
0.0
 11
178.308085
 21
168.787699
 31
0.0
  0
LINE
  5
4B5
330
496
100
AcDbEntity
  8
0
  6
CONTINUOUS
 62
     7
100
AcDbLine
 10
178.308085
 20
168.787699
 30
0.0
 11
178.278777
 21
168.768691
 31
0.0
  0
LINE
  5
4B6
330
496
100
AcDbEntity
  8
0
  6
CONTINUOUS
 62
     7
100
AcDbLine
 10
178.278777
 20
168.768691
 30
0.0
 11
178.249747
 21
168.74932
 31
0.0
  0
LINE
  5
4B7
330
496
100
AcDbEntity
  8
0
  6
CONTINUOUS
 62
     7
100
AcDbLine
 10
178.249747
 20
168.74932
 30
0.0
 11
178.220996
 21
168.729623
 31
0.0
  0
LINE
  5
4B8
330
496
100
AcDbEntity
  8
0
  6
CONTINUOUS
 62
     7
100
AcDbLine
 10
178.220996
 20
168.729623
 30
0.0
 11
178.193721
 21
168.710492
 31
0.0
  0
LINE
  5
4B9
330
496
100
AcDbEntity
  8
0
  6
CONTINUOUS
 62
     7
100
AcDbLine
 10
178.193721
 20
168.710492
 30
0.0
 11
178.166671
 21
168.691131
 31
0.0
  0
LINE
  5
4BA
330
496
100
AcDbEntity
  8
0
  6
CONTINUOUS
 62
     7
100
AcDbLine
 10
178.166671
 20
168.691131
 30
0.0
 11
178.139815
 21
168.671572
 31
0.0
  0
LINE
  5
4BB
330
496
100
AcDbEntity
  8
0
  6
CONTINUOUS
 62
     7
100
AcDbLine
 10
178.139815
 20
168.671572
 30
0.0
 11
178.113119
 21
168.651849
 31
0.0
  0
LINE
  5
4BC
330
496
100
AcDbEntity
  8
0
  6
CONTINUOUS
 62
     7
100
AcDbLine
 10
178.113119
 20
168.651849
 30
0.0
 11
178.060082
 21
168.612041
 31
0.0
  0
LINE
  5
4BD
330
496
100
AcDbEntity
  8
0
  6
CONTINUOUS
 62
     7
100
AcDbLine
 10
178.060082
 20
168.612041
 30
0.0
 11
178.007302
 21
168.571969
 31
0.0
  0
ENDBLK
  5
498
330
496
100
AcDbEntity
  8
0
100
AcDbBlockEnd
  0
BLOCK
  5
4C3
330
4C2
100
AcDbEntity
  8
0
100
AcDbBlockBegin
  2
BLKF024
 70
     0
 71
     0
 10
0.0
 20
0.0
 30
0.0
  3
BLKF024
  1

  0
LINE
  5
4C6
330
4C2
100
AcDbEntity
  8
0
  6
CONTINUOUS
 62
     7
100
AcDbLine
 10
178.007302
 20
158.871969
 30
0.0
 11
178.05636
 21
158.835258
 31
0.0
  0
LINE
  5
4C7
330
4C2
100
AcDbEntity
  8
0
  6
CONTINUOUS
 62
     7
100
AcDbLine
 10
178.05636
 20
158.835258
 30
0.0
 11
178.080932
 21
158.816972
 31
0.0
  0
LINE
  5
4C8
330
4C2
100
AcDbEntity
  8
0
  6
CONTINUOUS
 62
     7
100
AcDbLine
 10
178.080932
 20
158.816972
 30
0.0
 11
178.105556
 21
158.798771
 31
0.0
  0
LINE
  5
4C9
330
4C2
100
AcDbEntity
  8
0
  6
CONTINUOUS
 62
     7
100
AcDbLine
 10
178.105556
 20
158.798771
 30
0.0
 11
178.130248
 21
158.780683
 31
0.0
  0
LINE
  5
4CA
330
4C2
100
AcDbEntity
  8
0
  6
CONTINUOUS
 62
     7
100
AcDbLine
 10
178.130248
 20
158.780683
 30
0.0
 11
178.155025
 21
158.762735
 31
0.0
  0
LINE
  5
4CB
330
4C2
100
AcDbEntity
  8
0
  6
CONTINUOUS
 62
     7
100
AcDbLine
 10
178.155025
 20
158.762735
 30
0.0
 11
178.179905
 21
158.744956
 31
0.0
  0
LINE
  5
4CC
330
4C2
100
AcDbEntity
  8
0
  6
CONTINUOUS
 62
     7
100
AcDbLine
 10
178.179905
 20
158.744956
 30
0.0
 11
178.204904
 21
158.727374
 31
0.0
  0
LINE
  5
4CD
330
4C2
100
AcDbEntity
  8
0
  6
CONTINUOUS
 62
     7
100
AcDbLine
 10
178.204904
 20
158.727374
 30
0.0
 11
178.217454
 21
158.718665
 31
0.0
  0
LINE
  5
4CE
330
4C2
100
AcDbEntity
  8
0
  6
CONTINUOUS
 62
     7
100
AcDbLine
 10
178.217454
 20
158.718665
 30
0.0
 11
178.23004
 21
158.710017
 31
0.0
  0
LINE
  5
4CF
330
4C2
100
AcDbEntity
  8
0
  6
CONTINUOUS
 62
     7
100
AcDbLine
 10
178.23004
 20
158.710017
 30
0.0
 11
178.242665
 21
158.701431
 31
0.0
  0
LINE
  5
4D0
330
4C2
100
AcDbEntity
  8
0
  6
CONTINUOUS
 62
     7
100
AcDbLine
 10
178.242665
 20
158.701431
 30
0.0
 11
178.255331
 21
158.692912
 31
0.0
  0
LINE
  5
4D1
330
4C2
100
AcDbEntity
  8
0
  6
CONTINUOUS
 62
     7
100
AcDbLine
 10
178.255331
 20
158.692912
 30
0.0
 11
178.268039
 21
158.684464
 31
0.0
  0
LINE
  5
4D2
330
4C2
100
AcDbEntity
  8
0
  6
CONTINUOUS
 62
     7
100
AcDbLine
 10
178.268039
 20
158.684464
 30
0.0
 11
178.280792
 21
158.676089
 31
0.0
  0
LINE
  5
4D3
330
4C2
100
AcDbEntity
  8
0
  6
CONTINUOUS
 62
     7
100
AcDbLine
 10
178.280792
 20
158.676089
 30
0.0
 11
178.293592
 21
158.667792
 31
0.0
  0
LINE
  5
4D4
330
4C2
100
AcDbEntity
  8
0
  6
CONTINUOUS
 62
     7
100
AcDbLine
 10
178.293592
 20
158.667792
 30
0.0
 11
178.306441
 21
158.659576
 31
0.0
  0
LINE
  5
4D5
330
4C2
100
AcDbEntity
  8
0
  6
CONTINUOUS
 62
     7
100
AcDbLine
 10
178.306441
 20
158.659576
 30
0.0
 11
178.319342
 21
158.651444
 31
0.0
  0
LINE
  5
4D6
330
4C2
100
AcDbEntity
  8
0
  6
CONTINUOUS
 62
     7
100
AcDbLine
 10
178.319342
 20
158.651444
 30
0.0
 11
178.332296
 21
158.643399
 31
0.0
  0
LINE
  5
4D7
330
4C2
100
AcDbEntity
  8
0
  6
CONTINUOUS
 62
     7
100
AcDbLine
 10
178.332296
 20
158.643399
 30
0.0
 11
178.345305
 21
158.635447
 31
0.0
  0
LINE
  5
4D8
330
4C2
100
AcDbEntity
  8
0
  6
CONTINUOUS
 62
     7
100
AcDbLine
 10
178.345305
 20
158.635447
 30
0.0
 11
178.358372
 21
158.627589
 31
0.0
  0
LINE
  5
4D9
330
4C2
100
AcDbEntity
  8
0
  6
CONTINUOUS
 62
     7
100
AcDbLine
 10
178.358372
 20
158.627589
 30
0.0
 11
178.371499
 21
158.619829
 31
0.0
  0
LINE
  5
4DA
330
4C2
100
AcDbEntity
  8
0
  6
CONTINUOUS
 62
     7
100
AcDbLine
 10
178.371499
 20
158.619829
 30
0.0
 11
178.384689
 21
158.612172
 31
0.0
  0
LINE
  5
4DB
330
4C2
100
AcDbEntity
  8
0
  6
CONTINUOUS
 62
     7
100
AcDbLine
 10
178.384689
 20
158.612172
 30
0.0
 11
178.397942
 21
158.60462
 31
0.0
  0
LINE
  5
4DC
330
4C2
100
AcDbEntity
  8
0
  6
CONTINUOUS
 62
     7
100
AcDbLine
 10
178.397942
 20
158.60462
 30
0.0
 11
178.411261
 21
158.597176
 31
0.0
  0
LINE
  5
4DD
330
4C2
100
AcDbEntity
  8
0
  6
CONTINUOUS
 62
     7
100
AcDbLine
 10
178.411261
 20
158.597176
 30
0.0
 11
178.434543
 21
158.584485
 31
0.0
  0
LINE
  5
4DE
330
4C2
100
AcDbEntity
  8
0
  6
CONTINUOUS
 62
     7
100
AcDbLine
 10
178.434543
 20
158.584485
 30
0.0
 11
178.457928
 21
158.571964
 31
0.0
  0
ENDBLK
  5
4C4
330
4C2
100
AcDbEntity
  8
0
100
AcDbBlockEnd
  0
BLOCK
  5
4E5
330
4E4
100
AcDbEntity
  8
0
100
AcDbBlockBegin
  2
BLKF025
 70
     0
 71
     0
 10
0.0
 20
0.0
 30
0.0
  3
BLKF025
  1

  0
LINE
  5
4E8
330
4E4
100
AcDbEntity
  8
0
  6
CONTINUOUS
 62
     7
100
AcDbLine
 10
169.679982
 20
169.071963
 30
0.0
 11
169.617311
 21
169.06485
 31
0.0
  0
LINE
  5
4E9
330
4E4
100
AcDbEntity
  8
0
  6
CONTINUOUS
 62
     7
100
AcDbLine
 10
169.617311
 20
169.06485
 30
0.0
 11
169.554745
 21
169.057372
 31
0.0
  0
LINE
  5
4EA
330
4E4
100
AcDbEntity
  8
0
  6
CONTINUOUS
 62
     7
100
AcDbLine
 10
169.554745
 20
169.057372
 30
0.0
 11
169.523533
 21
169.053383
 31
0.0
  0
LINE
  5
4EB
330
4E4
100
AcDbEntity
  8
0
  6
CONTINUOUS
 62
     7
100
AcDbLine
 10
169.523533
 20
169.053383
 30
0.0
 11
169.492386
 21
169.049165
 31
0.0
  0
LINE
  5
4EC
330
4E4
100
AcDbEntity
  8
0
  6
CONTINUOUS
 62
     7
100
AcDbLine
 10
169.492386
 20
169.049165
 30
0.0
 11
169.461317
 21
169.044674
 31
0.0
  0
LINE
  5
4ED
330
4E4
100
AcDbEntity
  8
0
  6
CONTINUOUS
 62
     7
100
AcDbLine
 10
169.461317
 20
169.044674
 30
0.0
 11
169.43034
 21
169.039864
 31
0.0
  0
LINE
  5
4EE
330
4E4
100
AcDbEntity
  8
0
  6
CONTINUOUS
 62
     7
100
AcDbLine
 10
169.43034
 20
169.039864
 30
0.0
 11
169.399466
 21
169.034689
 31
0.0
  0
LINE
  5
4EF
330
4E4
100
AcDbEntity
  8
0
  6
CONTINUOUS
 62
     7
100
AcDbLine
 10
169.399466
 20
169.034689
 30
0.0
 11
169.368709
 21
169.029103
 31
0.0
  0
LINE
  5
4F0
330
4E4
100
AcDbEntity
  8
0
  6
CONTINUOUS
 62
     7
100
AcDbLine
 10
169.368709
 20
169.029103
 30
0.0
 11
169.338081
 21
169.023062
 31
0.0
  0
LINE
  5
4F1
330
4E4
100
AcDbEntity
  8
0
  6
CONTINUOUS
 62
     7
100
AcDbLine
 10
169.338081
 20
169.023062
 30
0.0
 11
169.307597
 21
169.016519
 31
0.0
  0
LINE
  5
4F2
330
4E4
100
AcDbEntity
  8
0
  6
CONTINUOUS
 62
     7
100
AcDbLine
 10
169.307597
 20
169.016519
 30
0.0
 11
169.277269
 21
169.009428
 31
0.0
  0
LINE
  5
4F3
330
4E4
100
AcDbEntity
  8
0
  6
CONTINUOUS
 62
     7
100
AcDbLine
 10
169.277269
 20
169.009428
 30
0.0
 11
169.247109
 21
169.001745
 31
0.0
  0
LINE
  5
4F4
330
4E4
100
AcDbEntity
  8
0
  6
CONTINUOUS
 62
     7
100
AcDbLine
 10
169.247109
 20
169.001745
 30
0.0
 11
169.217132
 21
168.993424
 31
0.0
  0
LINE
  5
4F5
330
4E4
100
AcDbEntity
  8
0
  6
CONTINUOUS
 62
     7
100
AcDbLine
 10
169.217132
 20
168.993424
 30
0.0
 11
169.187349
 21
168.984418
 31
0.0
  0
LINE
  5
4F6
330
4E4
100
AcDbEntity
  8
0
  6
CONTINUOUS
 62
     7
100
AcDbLine
 10
169.187349
 20
168.984418
 30
0.0
 11
169.154577
 21
168.973598
 31
0.0
  0
LINE
  5
4F7
330
4E4
100
AcDbEntity
  8
0
  6
CONTINUOUS
 62
     7
100
AcDbLine
 10
169.154577
 20
168.973598
 30
0.0
 11
169.122061
 21
168.96192
 31
0.0
  0
LINE
  5
4F8
330
4E4
100
AcDbEntity
  8
0
  6
CONTINUOUS
 62
     7
100
AcDbLine
 10
169.122061
 20
168.96192
 30
0.0
 11
169.089805
 21
168.949421
 31
0.0
  0
LINE
  5
4F9
330
4E4
100
AcDbEntity
  8
0
  6
CONTINUOUS
 62
     7
100
AcDbLine
 10
169.089805
 20
168.949421
 30
0.0
 11
169.057808
 21
168.93614
 31
0.0
  0
LINE
  5
4FA
330
4E4
100
AcDbEntity
  8
0
  6
CONTINUOUS
 62
     7
100
AcDbLine
 10
169.057808
 20
168.93614
 30
0.0
 11
169.026073
 21
168.922115
 31
0.0
  0
LINE
  5
4FB
330
4E4
100
AcDbEntity
  8
0
  6
CONTINUOUS
 62
     7
100
AcDbLine
 10
169.026073
 20
168.922115
 30
0.0
 11
168.994601
 21
168.907384
 31
0.0
  0
LINE
  5
4FC
330
4E4
100
AcDbEntity
  8
0
  6
CONTINUOUS
 62
     7
100
AcDbLine
 10
168.994601
 20
168.907384
 30
0.0
 11
168.963395
 21
168.891985
 31
0.0
  0
LINE
  5
4FD
330
4E4
100
AcDbEntity
  8
0
  6
CONTINUOUS
 62
     7
100
AcDbLine
 10
168.963395
 20
168.891985
 30
0.0
 11
168.932455
 21
168.875957
 31
0.0
  0
LINE
  5
4FE
330
4E4
100
AcDbEntity
  8
0
  6
CONTINUOUS
 62
     7
100
AcDbLine
 10
168.932455
 20
168.875957
 30
0.0
 11
168.901783
 21
168.859336
 31
0.0
  0
LINE
  5
4FF
330
4E4
100
AcDbEntity
  8
0
  6
CONTINUOUS
 62
     7
100
AcDbLine
 10
168.901783
 20
168.859336
 30
0.0
 11
168.87138
 21
168.842162
 31
0.0
  0
LINE
  5
500
330
4E4
100
AcDbEntity
  8
0
  6
CONTINUOUS
 62
     7
100
AcDbLine
 10
168.87138
 20
168.842162
 30
0.0
 11
168.841249
 21
168.824472
 31
0.0
  0
LINE
  5
501
330
4E4
100
AcDbEntity
  8
0
  6
CONTINUOUS
 62
     7
100
AcDbLine
 10
168.841249
 20
168.824472
 30
0.0
 11
168.81139
 21
168.806305
 31
0.0
  0
LINE
  5
502
330
4E4
100
AcDbEntity
  8
0
  6
CONTINUOUS
 62
     7
100
AcDbLine
 10
168.81139
 20
168.806305
 30
0.0
 11
168.781806
 21
168.787699
 31
0.0
  0
LINE
  5
503
330
4E4
100
AcDbEntity
  8
0
  6
CONTINUOUS
 62
     7
100
AcDbLine
 10
168.781806
 20
168.787699
 30
0.0
 11
168.752499
 21
168.768691
 31
0.0
  0
LINE
  5
504
330
4E4
100
AcDbEntity
  8
0
  6
CONTINUOUS
 62
     7
100
AcDbLine
 10
168.752499
 20
168.768691
 30
0.0
 11
168.723468
 21
168.74932
 31
0.0
  0
LINE
  5
505
330
4E4
100
AcDbEntity
  8
0
  6
CONTINUOUS
 62
     7
100
AcDbLine
 10
168.723468
 20
168.74932
 30
0.0
 11
168.694717
 21
168.729623
 31
0.0
  0
LINE
  5
506
330
4E4
100
AcDbEntity
  8
0
  6
CONTINUOUS
 62
     7
100
AcDbLine
 10
168.694717
 20
168.729623
 30
0.0
 11
168.667442
 21
168.710492
 31
0.0
  0
LINE
  5
507
330
4E4
100
AcDbEntity
  8
0
  6
CONTINUOUS
 62
     7
100
AcDbLine
 10
168.667442
 20
168.710492
 30
0.0
 11
168.640392
 21
168.691131
 31
0.0
  0
LINE
  5
508
330
4E4
100
AcDbEntity
  8
0
  6
CONTINUOUS
 62
     7
100
AcDbLine
 10
168.640392
 20
168.691131
 30
0.0
 11
168.613536
 21
168.671572
 31
0.0
  0
LINE
  5
509
330
4E4
100
AcDbEntity
  8
0
  6
CONTINUOUS
 62
     7
100
AcDbLine
 10
168.613536
 20
168.671572
 30
0.0
 11
168.58684
 21
168.651849
 31
0.0
  0
LINE
  5
50A
330
4E4
100
AcDbEntity
  8
0
  6
CONTINUOUS
 62
     7
100
AcDbLine
 10
168.58684
 20
168.651849
 30
0.0
 11
168.533803
 21
168.612041
 31
0.0
  0
LINE
  5
50B
330
4E4
100
AcDbEntity
  8
0
  6
CONTINUOUS
 62
     7
100
AcDbLine
 10
168.533803
 20
168.612041
 30
0.0
 11
168.481023
 21
168.571969
 31
0.0
  0
ENDBLK
  5
4E6
330
4E4
100
AcDbEntity
  8
0
100
AcDbBlockEnd
  0
BLOCK
  5
50E
330
50D
100
AcDbEntity
  8
0
100
AcDbBlockBegin
  2
BLKF026
 70
     0
 71
     0
 10
0.0
 20
0.0
 30
0.0
  3
BLKF026
  1

  0
LINE
  5
511
330
50D
100
AcDbEntity
  8
0
  6
CONTINUOUS
 62
     7
100
AcDbLine
 10
180.405219
 20
168.571969
 30
0.0
 11
180.335838
 21
168.623885
 31
0.0
  0
LINE
  5
512
330
50D
100
AcDbEntity
  8
0
  6
CONTINUOUS
 62
     7
100
AcDbLine
 10
180.335838
 20
168.623885
 30
0.0
 11
180.266192
 21
168.675157
 31
0.0
  0
LINE
  5
513
330
50D
100
AcDbEntity
  8
0
  6
CONTINUOUS
 62
     7
100
AcDbLine
 10
180.266192
 20
168.675157
 30
0.0
 11
180.231187
 21
168.70035
 31
0.0
  0
LINE
  5
514
330
50D
100
AcDbEntity
  8
0
  6
CONTINUOUS
 62
     7
100
AcDbLine
 10
180.231187
 20
168.70035
 30
0.0
 11
180.196017
 21
168.72514
 31
0.0
  0
LINE
  5
515
330
50D
100
AcDbEntity
  8
0
  6
CONTINUOUS
 62
     7
100
AcDbLine
 10
180.196017
 20
168.72514
 30
0.0
 11
180.160649
 21
168.749447
 31
0.0
  0
LINE
  5
516
330
50D
100
AcDbEntity
  8
0
  6
CONTINUOUS
 62
     7
100
AcDbLine
 10
180.160649
 20
168.749447
 30
0.0
 11
180.12505
 21
168.77319
 31
0.0
  0
LINE
  5
517
330
50D
100
AcDbEntity
  8
0
  6
CONTINUOUS
 62
     7
100
AcDbLine
 10
180.12505
 20
168.77319
 30
0.0
 11
180.089186
 21
168.796289
 31
0.0
  0
LINE
  5
518
330
50D
100
AcDbEntity
  8
0
  6
CONTINUOUS
 62
     7
100
AcDbLine
 10
180.089186
 20
168.796289
 30
0.0
 11
180.053025
 21
168.818663
 31
0.0
  0
LINE
  5
519
330
50D
100
AcDbEntity
  8
0
  6
CONTINUOUS
 62
     7
100
AcDbLine
 10
180.053025
 20
168.818663
 30
0.0
 11
180.016533
 21
168.840231
 31
0.0
  0
LINE
  5
51A
330
50D
100
AcDbEntity
  8
0
  6
CONTINUOUS
 62
     7
100
AcDbLine
 10
180.016533
 20
168.840231
 30
0.0
 11
179.979677
 21
168.860914
 31
0.0
  0
LINE
  5
51B
330
50D
100
AcDbEntity
  8
0
  6
CONTINUOUS
 62
     7
100
AcDbLine
 10
179.979677
 20
168.860914
 30
0.0
 11
179.942425
 21
168.88063
 31
0.0
  0
LINE
  5
51C
330
50D
100
AcDbEntity
  8
0
  6
CONTINUOUS
 62
     7
100
AcDbLine
 10
179.942425
 20
168.88063
 30
0.0
 11
179.904744
 21
168.899299
 31
0.0
  0
LINE
  5
51D
330
50D
100
AcDbEntity
  8
0
  6
CONTINUOUS
 62
     7
100
AcDbLine
 10
179.904744
 20
168.899299
 30
0.0
 11
179.866599
 21
168.91684
 31
0.0
  0
LINE
  5
51E
330
50D
100
AcDbEntity
  8
0
  6
CONTINUOUS
 62
     7
100
AcDbLine
 10
179.866599
 20
168.91684
 30
0.0
 11
179.827959
 21
168.933173
 31
0.0
  0
LINE
  5
51F
330
50D
100
AcDbEntity
  8
0
  6
CONTINUOUS
 62
     7
100
AcDbLine
 10
179.827959
 20
168.933173
 30
0.0
 11
179.791344
 21
168.94731
 31
0.0
  0
LINE
  5
520
330
50D
100
AcDbEntity
  8
0
  6
CONTINUOUS
 62
     7
100
AcDbLine
 10
179.791344
 20
168.94731
 30
0.0
 11
179.754296
 21
168.960389
 31
0.0
  0
LINE
  5
521
330
50D
100
AcDbEntity
  8
0
  6
CONTINUOUS
 62
     7
100
AcDbLine
 10
179.754296
 20
168.960389
 30
0.0
 11
179.716842
 21
168.972482
 31
0.0
  0
LINE
  5
522
330
50D
100
AcDbEntity
  8
0
  6
CONTINUOUS
 62
     7
100
AcDbLine
 10
179.716842
 20
168.972482
 30
0.0
 11
179.679013
 21
168.983658
 31
0.0
  0
LINE
  5
523
330
50D
100
AcDbEntity
  8
0
  6
CONTINUOUS
 62
     7
100
AcDbLine
 10
179.679013
 20
168.983658
 30
0.0
 11
179.640836
 21
168.993989
 31
0.0
  0
LINE
  5
524
330
50D
100
AcDbEntity
  8
0
  6
CONTINUOUS
 62
     7
100
AcDbLine
 10
179.640836
 20
168.993989
 30
0.0
 11
179.602342
 21
169.003544
 31
0.0
  0
LINE
  5
525
330
50D
100
AcDbEntity
  8
0
  6
CONTINUOUS
 62
     7
100
AcDbLine
 10
179.602342
 20
169.003544
 30
0.0
 11
179.563558
 21
169.012395
 31
0.0
  0
LINE
  5
526
330
50D
100
AcDbEntity
  8
0
  6
CONTINUOUS
 62
     7
100
AcDbLine
 10
179.563558
 20
169.012395
 30
0.0
 11
179.524514
 21
169.020611
 31
0.0
  0
LINE
  5
527
330
50D
100
AcDbEntity
  8
0
  6
CONTINUOUS
 62
     7
100
AcDbLine
 10
179.524514
 20
169.020611
 30
0.0
 11
179.485238
 21
169.028264
 31
0.0
  0
LINE
  5
528
330
50D
100
AcDbEntity
  8
0
  6
CONTINUOUS
 62
     7
100
AcDbLine
 10
179.485238
 20
169.028264
 30
0.0
 11
179.44576
 21
169.035423
 31
0.0
  0
LINE
  5
529
330
50D
100
AcDbEntity
  8
0
  6
CONTINUOUS
 62
     7
100
AcDbLine
 10
179.44576
 20
169.035423
 30
0.0
 11
179.406109
 21
169.042159
 31
0.0
  0
LINE
  5
52A
330
50D
100
AcDbEntity
  8
0
  6
CONTINUOUS
 62
     7
100
AcDbLine
 10
179.406109
 20
169.042159
 30
0.0
 11
179.366312
 21
169.048542
 31
0.0
  0
LINE
  5
52B
330
50D
100
AcDbEntity
  8
0
  6
CONTINUOUS
 62
     7
100
AcDbLine
 10
179.366312
 20
169.048542
 30
0.0
 11
179.286402
 21
169.060534
 31
0.0
  0
LINE
  5
52C
330
50D
100
AcDbEntity
  8
0
  6
CONTINUOUS
 62
     7
100
AcDbLine
 10
179.286402
 20
169.060534
 30
0.0
 11
179.20626
 21
169.071963
 31
0.0
  0
ENDBLK
  5
50F
330
50D
100
AcDbEntity
  8
0
100
AcDbBlockEnd
  0
BLOCK
  5
539
330
538
100
AcDbEntity
  8
0
100
AcDbBlockBegin
  2
BLKF027
 70
     0
 71
     0
 10
0.0
 20
0.0
 30
0.0
  3
BLKF027
  1

  0
LINE
  5
53C
330
538
100
AcDbEntity
  8
CSLAYER3
  6
CONTINUOUS
 62
     3
100
AcDbLine
 10
115.043121
 20
131.725935
 30
0.0
 11
117.043121
 21
131.190037
 31
0.0
  0
LINE
  5
53D
330
538
100
AcDbEntity
  8
CSLAYER3
  6
CONTINUOUS
 62
     3
100
AcDbLine
 10
117.043121
 20
131.190037
 30
0.0
 11
115.043121
 21
130.654139
 31
0.0
  0
LINE
  5
53E
330
538
100
AcDbEntity
  8
CSLAYER3
  6
CONTINUOUS
 62
     3
100
AcDbLine
 10
117.043121
 20
131.190037
 30
0.0
 11
115.043121
 21
131.190037
 31
0.0
  0
LINE
  5
53F
330
538
100
AcDbEntity
  8
CSLAYER3
  6
CONTINUOUS
 62
     3
100
AcDbLine
 10
94.043121
 20
130.654139
 30
0.0
 11
92.043121
 21
131.190037
 31
0.0
  0
LINE
  5
540
330
538
100
AcDbEntity
  8
CSLAYER3
  6
CONTINUOUS
 62
     3
100
AcDbLine
 10
92.043121
 20
131.190037
 30
0.0
 11
94.043121
 21
131.725935
 31
0.0
  0
LINE
  5
541
330
538
100
AcDbEntity
  8
CSLAYER3
  6
CONTINUOUS
 62
     3
100
AcDbLine
 10
92.043121
 20
131.190037
 30
0.0
 11
94.043121
 21
131.190037
 31
0.0
  0
LINE
  5
542
330
538
100
AcDbEntity
  8
CSLAYER3
  6
CONTINUOUS
 62
     3
100
AcDbLine
 10
117.043121
 20
139.561967
 30
0.0
 11
117.043121
 21
130.390037
 31
0.0
  0
LINE
  5
543
330
538
100
AcDbEntity
  8
CSLAYER3
  6
CONTINUOUS
 62
     3
100
AcDbLine
 10
92.043121
 20
139.861967
 30
0.0
 11
92.043121
 21
130.390037
 31
0.0
  0
LINE
  5
544
330
538
100
AcDbEntity
  8
CSLAYER3
  6
CONTINUOUS
 62
     3
100
AcDbLine
 10
117.043121
 20
131.190037
 30
0.0
 11
92.043121
 21
131.190037
 31
0.0
  0
TEXT
  5
545
330
538
100
AcDbEntity
  8
CSLAYER3
 62
     3
100
AcDbText
 10
102.798569
 20
131.680939
 30
0.0
 40
3.0
  1
25
 41
0.794595
  7
ED_VECTOR
 72
     5
 11
106.998569
 21
131.680939
 31
0.0
100
AcDbText
  0
ENDBLK
  5
53A
330
538
100
AcDbEntity
  8
0
100
AcDbBlockEnd
  0
BLOCK
  5
547
330
546
100
AcDbEntity
  8
0
100
AcDbBlockBegin
  2
BLKF028
 70
     0
 71
     0
 10
0.0
 20
0.0
 30
0.0
  3
BLKF028
  1

  0
LINE
  5
54A
330
546
100
AcDbEntity
  8
CSLAYER3
  6
CONTINUOUS
 62
     3
100
AcDbLine
 10
119.043121
 20
130.654139
 30
0.0
 11
117.043121
 21
131.190037
 31
0.0
  0
LINE
  5
54B
330
546
100
AcDbEntity
  8
CSLAYER3
  6
CONTINUOUS
 62
     3
100
AcDbLine
 10
117.043121
 20
131.190037
 30
0.0
 11
119.043121
 21
131.725935
 31
0.0
  0
LINE
  5
54C
330
546
100
AcDbEntity
  8
CSLAYER3
  6
CONTINUOUS
 62
     3
100
AcDbLine
 10
117.043121
 20
131.190037
 30
0.0
 11
119.043121
 21
131.190037
 31
0.0
  0
LINE
  5
54D
330
546
100
AcDbEntity
  8
CSLAYER3
  6
CONTINUOUS
 62
     3
100
AcDbLine
 10
154.143121
 20
131.725935
 30
0.0
 11
156.143121
 21
131.190037
 31
0.0
  0
LINE
  5
54E
330
546
100
AcDbEntity
  8
CSLAYER3
  6
CONTINUOUS
 62
     3
100
AcDbLine
 10
156.143121
 20
131.190037
 30
0.0
 11
154.143121
 21
130.654139
 31
0.0
  0
LINE
  5
54F
330
546
100
AcDbEntity
  8
CSLAYER3
  6
CONTINUOUS
 62
     3
100
AcDbLine
 10
156.143121
 20
131.190037
 30
0.0
 11
154.143121
 21
131.190037
 31
0.0
  0
LINE
  5
550
330
546
100
AcDbEntity
  8
CSLAYER3
  6
CONTINUOUS
 62
     3
100
AcDbLine
 10
117.043121
 20
139.561967
 30
0.0
 11
117.043121
 21
130.390037
 31
0.0
  0
LINE
  5
551
330
546
100
AcDbEntity
  8
CSLAYER3
  6
CONTINUOUS
 62
     3
100
AcDbLine
 10
156.143121
 20
139.561967
 30
0.0
 11
156.143121
 21
130.390037
 31
0.0
  0
LINE
  5
552
330
546
100
AcDbEntity
  8
CSLAYER3
  6
CONTINUOUS
 62
     3
100
AcDbLine
 10
117.043121
 20
131.190037
 30
0.0
 11
156.143121
 21
131.190037
 31
0.0
  0
TEXT
  5
553
330
546
100
AcDbEntity
  8
CSLAYER3
 62
     3
100
AcDbText
 10
120.338341
 20
131.680939
 30
0.0
 40
3.0
  1
39.1
 41
0.963934
  7
ED_VECTOR
 72
     5
 11
128.73834
 21
131.680939
 31
0.0
100
AcDbText
  0
TEXT
  5
554
330
546
100
AcDbEntity
  8
CSLAYER3
 62
     3
100
AcDbText
 10
126.283211
 20
131.680939
 30
0.0
 40
3.0
  1
（クランフﾟ推奨範囲）
 41
0.829231
  7
ED_VECTOR
 72
     5
 11
149.38321
 21
131.680939
 31
0.0
100
AcDbText
  0
ENDBLK
  5
548
330
546
100
AcDbEntity
  8
0
100
AcDbBlockEnd
  0
BLOCK
  5
556
330
555
100
AcDbEntity
  8
0
100
AcDbBlockBegin
  2
BLKF029
 70
     0
 71
     0
 10
0.0
 20
0.0
 30
0.0
  3
BLKF029
  1

  0
LINE
  5
559
330
555
100
AcDbEntity
  8
CSLAYER3
  6
CONTINUOUS
 62
     3
100
AcDbLine
 10
116.121618
 20
170.922822
 30
0.0
 11
118.121618
 21
170.386924
 31
0.0
  0
LINE
  5
55A
330
555
100
AcDbEntity
  8
CSLAYER3
  6
CONTINUOUS
 62
     3
100
AcDbLine
 10
118.121618
 20
170.386924
 30
0.0
 11
116.121618
 21
169.851026
 31
0.0
  0
LINE
  5
55B
330
555
100
AcDbEntity
  8
CSLAYER3
  6
CONTINUOUS
 62
     3
100
AcDbLine
 10
118.121618
 20
170.386924
 30
0.0
 11
116.121618
 21
170.386924
 31
0.0
  0
LINE
  5
55C
330
555
100
AcDbEntity
  8
CSLAYER3
  6
CONTINUOUS
 62
     3
100
AcDbLine
 10
79.521618
 20
169.851026
 30
0.0
 11
77.521618
 21
170.386924
 31
0.0
  0
LINE
  5
55D
330
555
100
AcDbEntity
  8
CSLAYER3
  6
CONTINUOUS
 62
     3
100
AcDbLine
 10
77.521618
 20
170.386924
 30
0.0
 11
79.521618
 21
170.922822
 31
0.0
  0
LINE
  5
55E
330
555
100
AcDbEntity
  8
CSLAYER3
  6
CONTINUOUS
 62
     3
100
AcDbLine
 10
77.521618
 20
170.386924
 30
0.0
 11
79.521618
 21
170.386924
 31
0.0
  0
LINE
  5
55F
330
555
100
AcDbEntity
  8
CSLAYER3
  6
CONTINUOUS
 62
     3
100
AcDbLine
 10
118.121618
 20
161.581967
 30
0.0
 11
118.121618
 21
171.186924
 31
0.0
  0
LINE
  5
560
330
555
100
AcDbEntity
  8
CSLAYER3
  6
CONTINUOUS
 62
     3
100
AcDbLine
 10
77.521618
 20
154.004617
 30
0.0
 11
77.521618
 21
171.186924
 31
0.0
  0
LINE
  5
561
330
555
100
AcDbEntity
  8
CSLAYER3
  6
CONTINUOUS
 62
     3
100
AcDbLine
 10
118.121618
 20
170.386924
 30
0.0
 11
77.521618
 21
170.386924
 31
0.0
  0
TEXT
  5
562
330
555
100
AcDbEntity
  8
CSLAYER3
 62
     3
100
AcDbText
 10
80.229225
 20
170.877838
 30
0.0
 40
3.0
  1
(
 41
1.336364
  7
ED_VECTOR
 72
     5
 11
82.329225
 21
170.877838
 31
0.0
100
AcDbText
  0
TEXT
  5
563
330
555
100
AcDbEntity
  8
CSLAYER3
 62
     3
100
AcDbText
 10
81.290901
 20
170.877838
 30
0.0
 40
3.0
  1
40.6
 41
0.877612
  7
ED_VECTOR
 72
     5
 11
89.690901
 21
170.877838
 31
0.0
100
AcDbText
  0
TEXT
  5
564
330
555
100
AcDbEntity
  8
CSLAYER3
 62
     3
100
AcDbText
 10
87.235771
 20
170.877838
 30
0.0
 40
3.0
  1
)工具入れ込み長さ
 41
0.853548
  7
ED_VECTOR
 72
     5
 11
106.13577
 21
170.877838
 31
0.0
100
AcDbText
  0
ENDBLK
  5
557
330
555
100
AcDbEntity
  8
0
100
AcDbBlockEnd
  0
BLOCK
  5
566
330
565
100
AcDbEntity
  8
0
100
AcDbBlockBegin
  2
BLKF030
 70
     0
 71
     0
 10
0.0
 20
0.0
 30
0.0
  3
BLKF030
  1

  0
ARC
  5
569
330
565
100
AcDbEntity
  8
CSLAYER3
  6
CONTINUOUS
 62
     3
100
AcDbCircle
 10
128.315857
 20
116.316518
 30
0.0
 40
3.900934836934501
100
AcDbArc
 50
153.434949
 51
206.565051
  0
ARC
  5
56A
330
565
100
AcDbEntity
  8
CSLAYER3
  6
CONTINUOUS
 62
     3
100
AcDbCircle
 10
129.748882
 20
116.316518
 30
0.0
 40
3.900934836934501
100
AcDbArc
 50
-26.565051
 51
26.565051
  0
LINE
  5
56B
330
565
100
AcDbEntity
  8
CSLAYER3
  6
CONTINUOUS
 62
     3
100
AcDbLine
 10
79.521618
 20
114.036069
 30
0.0
 11
77.521618
 21
114.571967
 31
0.0
  0
LINE
  5
56C
330
565
100
AcDbEntity
  8
CSLAYER3
  6
CONTINUOUS
 62
     3
100
AcDbLine
 10
77.521618
 20
114.571967
 30
0.0
 11
79.521618
 21
115.107865
 31
0.0
  0
LINE
  5
56D
330
565
100
AcDbEntity
  8
CSLAYER3
  6
CONTINUOUS
 62
     3
100
AcDbLine
 10
77.521618
 20
114.571967
 30
0.0
 11
79.521618
 21
114.571967
 31
0.0
  0
LINE
  5
56E
330
565
100
AcDbEntity
  8
CSLAYER3
  6
CONTINUOUS
 62
     3
100
AcDbLine
 10
178.543121
 20
115.107865
 30
0.0
 11
180.543121
 21
114.571967
 31
0.0
  0
LINE
  5
56F
330
565
100
AcDbEntity
  8
CSLAYER3
  6
CONTINUOUS
 62
     3
100
AcDbLine
 10
180.543121
 20
114.571967
 30
0.0
 11
178.543121
 21
114.036069
 31
0.0
  0
LINE
  5
570
330
565
100
AcDbEntity
  8
CSLAYER3
  6
CONTINUOUS
 62
     3
100
AcDbLine
 10
180.543121
 20
114.571967
 30
0.0
 11
178.543121
 21
114.571967
 31
0.0
  0
LINE
  5
571
330
565
100
AcDbEntity
  8
CSLAYER3
  6
CONTINUOUS
 62
     3
100
AcDbLine
 10
77.521618
 20
147.139317
 30
0.0
 11
77.521618
 21
113.771967
 31
0.0
  0
LINE
  5
572
330
565
100
AcDbEntity
  8
CSLAYER3
  6
CONTINUOUS
 62
     3
100
AcDbLine
 10
180.543121
 20
139.911967
 30
0.0
 11
180.543121
 21
113.771967
 31
0.0
  0
LINE
  5
573
330
565
100
AcDbEntity
  8
CSLAYER3
  6
CONTINUOUS
 62
     3
100
AcDbLine
 10
77.521618
 20
114.571967
 30
0.0
 11
180.543121
 21
114.571967
 31
0.0
  0
TEXT
  5
574
330
565
100
AcDbEntity
  8
CSLAYER3
 62
     3
100
AcDbText
 10
126.414253
 20
115.062874
 30
0.0
 40
3.0
  1
103
 41
0.773684
  7
ED_VECTOR
 72
     5
 11
132.714253
 21
115.062874
 31
0.0
100
AcDbText
  0
ENDBLK
  5
567
330
565
100
AcDbEntity
  8
0
100
AcDbBlockEnd
  0
BLOCK
  5
576
330
575
100
AcDbEntity
  8
0
100
AcDbBlockBegin
  2
BLKF031
 70
     0
 71
     0
 10
0.0
 20
0.0
 30
0.0
  3
BLKF031
  1

  0
LINE
  5
579
330
575
100
AcDbEntity
  8
CSLAYER3
  6
CONTINUOUS
 62
     3
100
AcDbLine
 10
87.021618
 20
131.725935
 30
0.0
 11
89.021618
 21
131.190037
 31
0.0
  0
LINE
  5
57A
330
575
100
AcDbEntity
  8
CSLAYER3
  6
CONTINUOUS
 62
     3
100
AcDbLine
 10
89.021618
 20
131.190037
 30
0.0
 11
87.021618
 21
130.654139
 31
0.0
  0
LINE
  5
57B
330
575
100
AcDbEntity
  8
CSLAYER3
  6
CONTINUOUS
 62
     3
100
AcDbLine
 10
89.021618
 20
131.190037
 30
0.0
 11
87.021618
 21
131.190037
 31
0.0
  0
LINE
  5
57C
330
575
100
AcDbEntity
  8
CSLAYER3
  6
CONTINUOUS
 62
     3
100
AcDbLine
 10
79.521618
 20
130.654139
 30
0.0
 11
77.521618
 21
131.190037
 31
0.0
  0
LINE
  5
57D
330
575
100
AcDbEntity
  8
CSLAYER3
  6
CONTINUOUS
 62
     3
100
AcDbLine
 10
77.521618
 20
131.190037
 30
0.0
 11
79.521618
 21
131.725935
 31
0.0
  0
LINE
  5
57E
330
575
100
AcDbEntity
  8
CSLAYER3
  6
CONTINUOUS
 62
     3
100
AcDbLine
 10
77.521618
 20
131.190037
 30
0.0
 11
79.521618
 21
131.190037
 31
0.0
  0
LINE
  5
57F
330
575
100
AcDbEntity
  8
CSLAYER3
  6
CONTINUOUS
 62
     3
100
AcDbLine
 10
89.021618
 20
145.461967
 30
0.0
 11
89.021618
 21
130.390037
 31
0.0
  0
LINE
  5
580
330
575
100
AcDbEntity
  8
CSLAYER3
  6
CONTINUOUS
 62
     3
100
AcDbLine
 10
77.521618
 20
147.139317
 30
0.0
 11
77.521618
 21
130.390037
 31
0.0
  0
LINE
  5
581
330
575
100
AcDbEntity
  8
CSLAYER3
  6
CONTINUOUS
 62
     3
100
AcDbLine
 10
89.021618
 20
131.190037
 30
0.0
 11
77.521618
 21
131.190037
 31
0.0
  0
TEXT
  5
582
330
575
100
AcDbEntity
  8
CSLAYER3
 62
     3
100
AcDbText
 10
80.299179
 20
131.680939
 30
0.0
 40
3.0
  1
11.5
 41
0.877612
  7
ED_VECTOR
 72
     5
 11
88.699179
 21
131.680939
 31
0.0
100
AcDbText
  0
ENDBLK
  5
577
330
575
100
AcDbEntity
  8
0
100
AcDbBlockEnd
  0
BLOCK
  5
584
330
583
100
AcDbEntity
  8
0
100
AcDbBlockBegin
  2
BLKF032
 70
     0
 71
     0
 10
0.0
 20
0.0
 30
0.0
  3
BLKF032
  1

  0
ARC
  5
587
330
583
100
AcDbEntity
  8
CSLAYER3
  6
CONTINUOUS
 62
     3
100
AcDbCircle
 10
83.711535
 20
124.505412
 30
0.0
 40
3.900934836934502
100
AcDbArc
 50
153.434949
 51
206.565051
  0
ARC
  5
588
330
583
100
AcDbEntity
  8
CSLAYER3
  6
CONTINUOUS
 62
     3
100
AcDbCircle
 10
85.853204
 20
124.505412
 30
0.0
 40
3.90093483693449
100
AcDbArc
 50
-26.565051
 51
26.565051
  0
LINE
  5
589
330
583
100
AcDbEntity
  8
CSLAYER3
  6
CONTINUOUS
 62
     3
100
AcDbLine
 10
79.521618
 20
122.224963
 30
0.0
 11
77.521618
 21
122.760861
 31
0.0
  0
LINE
  5
58A
330
583
100
AcDbEntity
  8
CSLAYER3
  6
CONTINUOUS
 62
     3
100
AcDbLine
 10
77.521618
 20
122.760861
 30
0.0
 11
79.521618
 21
123.296759
 31
0.0
  0
LINE
  5
58B
330
583
100
AcDbEntity
  8
CSLAYER3
  6
CONTINUOUS
 62
     3
100
AcDbLine
 10
77.521618
 20
122.760861
 30
0.0
 11
79.521618
 21
122.760861
 31
0.0
  0
LINE
  5
58C
330
583
100
AcDbEntity
  8
CSLAYER3
  6
CONTINUOUS
 62
     3
100
AcDbLine
 10
90.043121
 20
123.296759
 30
0.0
 11
92.043121
 21
122.760861
 31
0.0
  0
LINE
  5
58D
330
583
100
AcDbEntity
  8
CSLAYER3
  6
CONTINUOUS
 62
     3
100
AcDbLine
 10
92.043121
 20
122.760861
 30
0.0
 11
90.043121
 21
122.224963
 31
0.0
  0
LINE
  5
58E
330
583
100
AcDbEntity
  8
CSLAYER3
  6
CONTINUOUS
 62
     3
100
AcDbLine
 10
92.043121
 20
122.760861
 30
0.0
 11
90.043121
 21
122.760861
 31
0.0
  0
LINE
  5
58F
330
583
100
AcDbEntity
  8
CSLAYER3
  6
CONTINUOUS
 62
     3
100
AcDbLine
 10
77.521618
 20
148.011967
 30
0.0
 11
77.521618
 21
121.960861
 31
0.0
  0
LINE
  5
590
330
583
100
AcDbEntity
  8
CSLAYER3
  6
CONTINUOUS
 62
     3
100
AcDbLine
 10
92.043121
 20
139.861967
 30
0.0
 11
92.043121
 21
121.960861
 31
0.0
  0
LINE
  5
591
330
583
100
AcDbEntity
  8
CSLAYER3
  6
CONTINUOUS
 62
     3
100
AcDbLine
 10
77.521618
 20
122.760861
 30
0.0
 11
92.043121
 21
122.760861
 31
0.0
  0
TEXT
  5
592
330
583
100
AcDbEntity
  8
CSLAYER3
 62
     3
100
AcDbText
 10
81.809929
 20
123.25177
 30
0.0
 40
3.0
  1
14.5
 41
0.877612
  7
ED_VECTOR
 72
     5
 11
90.209929
 21
123.25177
 31
0.0
100
AcDbText
  0
ENDBLK
  5
585
330
583
100
AcDbEntity
  8
0
100
AcDbBlockEnd
  0
BLOCK
  5
594
330
593
100
AcDbEntity
  8
0
100
AcDbBlockBegin
  2
BLKF033
 70
     0
 71
     0
 10
0.0
 20
0.0
 30
0.0
  3
BLKF033
  1

  0
LINE
  5
597
330
593
100
AcDbEntity
  8
CSLAYER3
  6
CONTINUOUS
 62
     3
100
AcDbLine
 10
94.043121
 20
122.224963
 30
0.0
 11
92.043121
 21
122.760861
 31
0.0
  0
LINE
  5
598
330
593
100
AcDbEntity
  8
CSLAYER3
  6
CONTINUOUS
 62
     3
100
AcDbLine
 10
92.043121
 20
122.760861
 30
0.0
 11
94.043121
 21
123.296759
 31
0.0
  0
LINE
  5
599
330
593
100
AcDbEntity
  8
CSLAYER3
  6
CONTINUOUS
 62
     3
100
AcDbLine
 10
92.043121
 20
122.760861
 30
0.0
 11
94.043121
 21
122.760861
 31
0.0
  0
LINE
  5
59A
330
593
100
AcDbEntity
  8
CSLAYER3
  6
CONTINUOUS
 62
     3
100
AcDbLine
 10
178.543121
 20
123.296759
 30
0.0
 11
180.543121
 21
122.760861
 31
0.0
  0
LINE
  5
59B
330
593
100
AcDbEntity
  8
CSLAYER3
  6
CONTINUOUS
 62
     3
100
AcDbLine
 10
180.543121
 20
122.760861
 30
0.0
 11
178.543121
 21
122.224963
 31
0.0
  0
LINE
  5
59C
330
593
100
AcDbEntity
  8
CSLAYER3
  6
CONTINUOUS
 62
     3
100
AcDbLine
 10
180.543121
 20
122.760861
 30
0.0
 11
178.543121
 21
122.760861
 31
0.0
  0
LINE
  5
59D
330
593
100
AcDbEntity
  8
CSLAYER3
  6
CONTINUOUS
 62
     3
100
AcDbLine
 10
92.043121
 20
139.861967
 30
0.0
 11
92.043121
 21
121.960861
 31
0.0
  0
LINE
  5
59E
330
593
100
AcDbEntity
  8
CSLAYER3
  6
CONTINUOUS
 62
     3
100
AcDbLine
 10
180.543121
 20
139.911967
 30
0.0
 11
180.543121
 21
121.960861
 31
0.0
  0
LINE
  5
59F
330
593
100
AcDbEntity
  8
CSLAYER3
  6
CONTINUOUS
 62
     3
100
AcDbLine
 10
92.043121
 20
122.760861
 30
0.0
 11
180.543121
 21
122.760861
 31
0.0
  0
TEXT
  5
5A0
330
593
100
AcDbEntity
  8
CSLAYER3
 62
     3
100
AcDbText
 10
133.320679
 20
123.25177
 30
0.0
 40
3.0
  1
88.5
 41
0.877612
  7
ED_VECTOR
 72
     5
 11
141.720678
 21
123.25177
 31
0.0
100
AcDbText
  0
ENDBLK
  5
595
330
593
100
AcDbEntity
  8
0
100
AcDbBlockEnd
  0
BLOCK
  5
5A2
330
5A1
100
AcDbEntity
  8
0
100
AcDbBlockBegin
  2
BLKF034
 70
     0
 71
     0
 10
0.0
 20
0.0
 30
0.0
  3
BLKF034
  1

  0
LINE
  5
5A5
330
5A1
100
AcDbEntity
  8
CSLAYER3
  6
CONTINUOUS
 62
     3
100
AcDbLine
 10
61.433966
 20
159.571967
 30
0.0
 11
61.969864
 21
161.571967
 31
0.0
  0
LINE
  5
5A6
330
5A1
100
AcDbEntity
  8
CSLAYER3
  6
CONTINUOUS
 62
     3
100
AcDbLine
 10
61.969864
 20
161.571967
 30
0.0
 11
62.505762
 21
159.571967
 31
0.0
  0
LINE
  5
5A7
330
5A1
100
AcDbEntity
  8
CSLAYER3
  6
CONTINUOUS
 62
     3
100
AcDbLine
 10
61.969864
 20
161.571967
 30
0.0
 11
61.969864
 21
159.571967
 31
0.0
  0
LINE
  5
5A8
330
5A1
100
AcDbEntity
  8
CSLAYER3
  6
CONTINUOUS
 62
     3
100
AcDbLine
 10
62.505762
 20
141.571967
 30
0.0
 11
61.969864
 21
139.571967
 31
0.0
  0
LINE
  5
5A9
330
5A1
100
AcDbEntity
  8
CSLAYER3
  6
CONTINUOUS
 62
     3
100
AcDbLine
 10
61.969864
 20
139.571967
 30
0.0
 11
61.433966
 21
141.571967
 31
0.0
  0
LINE
  5
5AA
330
5A1
100
AcDbEntity
  8
CSLAYER3
  6
CONTINUOUS
 62
     3
100
AcDbLine
 10
61.969864
 20
139.571967
 30
0.0
 11
61.969864
 21
141.571967
 31
0.0
  0
LINE
  5
5AB
330
5A1
100
AcDbEntity
  8
CSLAYER3
  6
CONTINUOUS
 62
     3
100
AcDbLine
 10
99.133121
 20
161.571967
 30
0.0
 11
61.169864
 21
161.571967
 31
0.0
  0
LINE
  5
5AC
330
5A1
100
AcDbEntity
  8
CSLAYER3
  6
CONTINUOUS
 62
     3
100
AcDbLine
 10
99.133121
 20
139.571967
 30
0.0
 11
61.169864
 21
139.571967
 31
0.0
  0
LINE
  5
5AD
330
5A1
100
AcDbEntity
  8
CSLAYER3
  6
CONTINUOUS
 62
     3
100
AcDbLine
 10
61.969864
 20
161.571967
 30
0.0
 11
61.969864
 21
139.571967
 31
0.0
  0
TEXT
  5
5AE
330
5A1
100
AcDbEntity
  8
CSLAYER3
 62
     3
100
AcDbText
 10
61.478954
 20
143.671066
 30
0.0
 40
3.0
  1
%%c
 50
90.0
 41
0.864706
  7
ED_VECTOR
 72
     5
 11
61.478954
 21
145.771066
 31
0.0
100
AcDbText
  0
TEXT
  5
5AF
330
5A1
100
AcDbEntity
  8
CSLAYER3
 62
     3
100
AcDbText
 10
61.478954
 20
146.987518
 30
0.0
 40
3.0
  1
22
 50
90.0
 41
0.794595
  7
ED_VECTOR
 72
     5
 11
61.478954
 21
151.187518
 31
0.0
100
AcDbText
  0
TEXT
  5
5B0
330
5A1
100
AcDbEntity
  8
CSLAYER3
 62
     3
100
AcDbText
 10
61.479214
 20
151.324417
 30
0.0
 40
2.4
  1
-
 50
90.0
 41
0.668182
  7
ED_VECTOR
 72
     5
 11
61.479214
 21
153.004417
 31
0.0
100
AcDbText
  0
TEXT
  5
5B1
330
5A1
100
AcDbEntity
  8
CSLAYER3
 62
     3
100
AcDbText
 10
61.479214
 20
152.718506
 30
0.0
 40
2.4
  1
0.01
 50
90.0
 41
0.963934
  7
ED_VECTOR
 72
     5
 11
61.479214
 21
159.438506
 31
0.0
100
AcDbText
  0
TEXT
  5
5B2
330
5A1
100
AcDbEntity
  8
CSLAYER3
 62
     3
100
AcDbText
 10
58.68845
 20
152.718506
 30
0.0
 40
2.4
  1
0
 50
90.0
 41
0.864706
  7
ED_VECTOR
 72
     5
 11
58.68845
 21
154.398506
 31
0.0
100
AcDbText
  0
ENDBLK
  5
5A3
330
5A1
100
AcDbEntity
  8
0
100
AcDbBlockEnd
  0
BLOCK
  5
5B4
330
5B3
100
AcDbEntity
  8
0
100
AcDbBlockBegin
  2
BLKF035
 70
     0
 71
     0
 10
0.0
 20
0.0
 30
0.0
  3
BLKF035
  1

  0
LINE
  5
5B7
330
5B3
100
AcDbEntity
  8
CSLAYER3
  6
CONTINUOUS
 62
     3
100
AcDbLine
 10
69.98572
 20
154.471967
 30
0.0
 11
70.521618
 21
156.471967
 31
0.0
  0
LINE
  5
5B8
330
5B3
100
AcDbEntity
  8
CSLAYER3
  6
CONTINUOUS
 62
     3
100
AcDbLine
 10
70.521618
 20
156.471967
 30
0.0
 11
71.057516
 21
154.471967
 31
0.0
  0
LINE
  5
5B9
330
5B3
100
AcDbEntity
  8
CSLAYER3
  6
CONTINUOUS
 62
     3
100
AcDbLine
 10
70.521618
 20
156.471967
 30
0.0
 11
70.521618
 21
154.471967
 31
0.0
  0
LINE
  5
5BA
330
5B3
100
AcDbEntity
  8
CSLAYER3
  6
CONTINUOUS
 62
     3
100
AcDbLine
 10
71.057516
 20
146.671967
 30
0.0
 11
70.521618
 21
144.671967
 31
0.0
  0
LINE
  5
5BB
330
5B3
100
AcDbEntity
  8
CSLAYER3
  6
CONTINUOUS
 62
     3
100
AcDbLine
 10
70.521618
 20
144.671967
 30
0.0
 11
69.98572
 21
146.671967
 31
0.0
  0
LINE
  5
5BC
330
5B3
100
AcDbEntity
  8
CSLAYER3
  6
CONTINUOUS
 62
     3
100
AcDbLine
 10
70.521618
 20
144.671967
 30
0.0
 11
70.521618
 21
146.671967
 31
0.0
  0
LINE
  5
5BD
330
5B3
100
AcDbEntity
  8
CSLAYER3
  6
CONTINUOUS
 62
     3
100
AcDbLine
 10
84.662021
 20
156.471967
 30
0.0
 11
69.721618
 21
156.471967
 31
0.0
  0
LINE
  5
5BE
330
5B3
100
AcDbEntity
  8
CSLAYER3
  6
CONTINUOUS
 62
     3
100
AcDbLine
 10
84.662021
 20
144.671967
 30
0.0
 11
69.721618
 21
144.671967
 31
0.0
  0
LINE
  5
5BF
330
5B3
100
AcDbEntity
  8
CSLAYER3
  6
CONTINUOUS
 62
     3
100
AcDbLine
 10
70.521618
 20
156.471967
 30
0.0
 11
70.521618
 21
144.671967
 31
0.0
  0
TEXT
  5
5C0
330
5B3
100
AcDbEntity
  8
CSLAYER3
 62
     3
100
AcDbText
 10
70.030708
 20
145.941299
 30
0.0
 40
3.0
  1
%%c
 50
90.0
 41
0.864706
  7
ED_VECTOR
 72
     5
 11
70.030708
 21
148.041299
 31
0.0
100
AcDbText
  0
TEXT
  5
5C1
330
5B3
100
AcDbEntity
  8
CSLAYER3
 62
     3
100
AcDbText
 10
70.030708
 20
149.257751
 30
0.0
 40
3.0
  1
11.8
 50
90.0
 41
0.877612
  7
ED_VECTOR
 72
     5
 11
70.030708
 21
157.657751
 31
0.0
100
AcDbText
  0
ENDBLK
  5
5B5
330
5B3
100
AcDbEntity
  8
0
100
AcDbBlockEnd
  0
BLOCK
  5
5C3
330
5C2
100
AcDbEntity
  8
0
100
AcDbBlockBegin
  2
BLKF036
 70
     0
 71
     0
 10
0.0
 20
0.0
 30
0.0
  3
BLKF036
  1

  0
ARC
  5
5C6
330
5C2
100
AcDbEntity
  8
CSLAYER3
  6
CONTINUOUS
 62
     3
100
AcDbCircle
 10
199.396863
 20
216.079372
 30
0.0
 40
3.900934836934517
100
AcDbArc
 50
243.434949
 51
296.565051
  0
ARC
  5
5C7
330
5C2
100
AcDbEntity
  8
CSLAYER3
  6
CONTINUOUS
 62
     3
100
AcDbCircle
 10
199.396863
 20
217.512398
 30
0.0
 40
3.900934836934492
100
AcDbArc
 50
63.434949
 51
116.565051
  0
LINE
  5
5C8
330
5C2
100
AcDbEntity
  8
CSLAYER3
  6
CONTINUOUS
 62
     3
100
AcDbLine
 10
200.605516
 20
273.019803
 30
0.0
 11
201.141414
 21
275.019803
 31
0.0
  0
LINE
  5
5C9
330
5C2
100
AcDbEntity
  8
CSLAYER3
  6
CONTINUOUS
 62
     3
100
AcDbLine
 10
201.141414
 20
275.019803
 30
0.0
 11
201.677312
 21
273.019803
 31
0.0
  0
LINE
  5
5CA
330
5C2
100
AcDbEntity
  8
CSLAYER3
  6
CONTINUOUS
 62
     3
100
AcDbLine
 10
201.141414
 20
275.019803
 30
0.0
 11
201.141414
 21
273.019803
 31
0.0
  0
LINE
  5
5CB
330
5C2
100
AcDbEntity
  8
CSLAYER3
  6
CONTINUOUS
 62
     3
100
AcDbLine
 10
201.677312
 20
160.571967
 30
0.0
 11
201.141414
 21
158.571967
 31
0.0
  0
LINE
  5
5CC
330
5C2
100
AcDbEntity
  8
CSLAYER3
  6
CONTINUOUS
 62
     3
100
AcDbLine
 10
201.141414
 20
158.571967
 30
0.0
 11
200.605516
 21
160.571967
 31
0.0
  0
LINE
  5
5CD
330
5C2
100
AcDbEntity
  8
CSLAYER3
  6
CONTINUOUS
 62
     3
100
AcDbLine
 10
201.141414
 20
158.571967
 30
0.0
 11
201.141414
 21
160.571967
 31
0.0
  0
LINE
  5
5CE
330
5C2
100
AcDbEntity
  8
CSLAYER3
  6
CONTINUOUS
 62
     3
100
AcDbLine
 10
180.453121
 20
275.019803
 30
0.0
 11
201.941414
 21
275.019803
 31
0.0
  0
LINE
  5
5CF
330
5C2
100
AcDbEntity
  8
CSLAYER3
  6
CONTINUOUS
 62
     3
100
AcDbLine
 10
178.467929
 20
158.571967
 30
0.0
 11
201.941414
 21
158.571967
 31
0.0
  0
LINE
  5
5D0
330
5C2
100
AcDbEntity
  8
CSLAYER3
  6
CONTINUOUS
 62
     3
100
AcDbLine
 10
201.141414
 20
275.019803
 30
0.0
 11
201.141414
 21
158.571967
 31
0.0
  0
TEXT
  5
5D1
330
5C2
100
AcDbEntity
  8
CSLAYER3
 62
     3
100
AcDbText
 10
200.650497
 20
214.177765
 30
0.0
 40
3.0
  1
500
 50
90.0
 41
0.773684
  7
ED_VECTOR
 72
     5
 11
200.650497
 21
220.477765
 31
0.0
100
AcDbText
  0
ENDBLK
  5
5C4
330
5C2
100
AcDbEntity
  8
0
100
AcDbBlockEnd
  0
BLOCK
  5
61D
330
61C
100
AcDbEntity
  8
0
100
AcDbBlockBegin
  2
BLKF037
 70
     0
 71
     0
 10
0.0
 20
0.0
 30
0.0
  3
BLKF037
  1

  0
LINE
  5
620
330
61C
100
AcDbEntity
  8
0
  6
CONTINUOUS
 62
     7
100
AcDbLine
 10
248.336014
 20
166.100563
 30
0.0
 11
248.481585
 21
165.998625
 31
0.0
  0
LINE
  5
621
330
61C
100
AcDbEntity
  8
0
  6
CONTINUOUS
 62
     7
100
AcDbLine
 10
248.481585
 20
165.998625
 30
0.0
 11
248.905362
 21
165.701898
 31
0.0
  0
LINE
  5
622
330
61C
100
AcDbEntity
  8
0
  6
CONTINUOUS
 62
     7
100
AcDbLine
 10
248.905362
 20
165.701898
 30
0.0
 11
249.569691
 21
165.236728
 31
0.0
  0
LINE
  5
623
330
61C
100
AcDbEntity
  8
0
  6
CONTINUOUS
 62
     7
100
AcDbLine
 10
249.569691
 20
165.236728
 30
0.0
 11
250.415544
 21
164.644452
 31
0.0
  0
LINE
  5
624
330
61C
100
AcDbEntity
  8
0
  6
CONTINUOUS
 62
     7
100
AcDbLine
 10
250.415544
 20
164.644452
 30
0.0
 11
251.367761
 21
163.977699
 31
0.0
  0
LINE
  5
625
330
61C
100
AcDbEntity
  8
0
  6
CONTINUOUS
 62
     7
100
AcDbLine
 10
251.367761
 20
163.977699
 30
0.0
 11
252.341737
 21
163.295718
 31
0.0
  0
LINE
  5
626
330
61C
100
AcDbEntity
  8
0
  6
CONTINUOUS
 62
     7
100
AcDbLine
 10
252.341737
 20
163.295718
 30
0.0
 11
253.250927
 21
162.659096
 31
0.0
  0
LINE
  5
627
330
61C
100
AcDbEntity
  8
0
  6
CONTINUOUS
 62
     7
100
AcDbLine
 10
253.250927
 20
162.659096
 30
0.0
 11
254.014546
 21
162.124412
 31
0.0
  0
LINE
  5
628
330
61C
100
AcDbEntity
  8
0
  6
CONTINUOUS
 62
     7
100
AcDbLine
 10
254.014546
 20
162.124412
 30
0.0
 11
254.564745
 21
161.739157
 31
0.0
  0
LINE
  5
629
330
61C
100
AcDbEntity
  8
0
  6
CONTINUOUS
 62
     7
100
AcDbLine
 10
254.564745
 20
161.739157
 30
0.0
 11
254.852634
 21
161.537575
 31
0.0
  0
LINE
  5
62A
330
61C
100
AcDbEntity
  8
0
  6
CONTINUOUS
 62
     7
100
AcDbLine
 10
254.852634
 20
161.537575
 30
0.0
 11
254.889231
 21
161.511945
 31
0.0
  0
ENDBLK
  5
61E
330
61C
100
AcDbEntity
  8
0
100
AcDbBlockEnd
  0
BLOCK
  5
62C
330
62B
100
AcDbEntity
  8
0
100
AcDbBlockBegin
  2
BLKF038
 70
     0
 71
     0
 10
0.0
 20
0.0
 30
0.0
  3
BLKF038
  1

  0
LINE
  5
62F
330
62B
100
AcDbEntity
  8
0
  6
CONTINUOUS
 62
     7
100
AcDbLine
 10
249.727043
 20
154.13958
 30
0.0
 11
249.690446
 21
154.165195
 31
0.0
  0
LINE
  5
630
330
62B
100
AcDbEntity
  8
0
  6
CONTINUOUS
 62
     7
100
AcDbLine
 10
249.690446
 20
154.165195
 30
0.0
 11
249.402557
 21
154.366778
 31
0.0
  0
LINE
  5
631
330
62B
100
AcDbEntity
  8
0
  6
CONTINUOUS
 62
     7
100
AcDbLine
 10
249.402557
 20
154.366778
 30
0.0
 11
248.852358
 21
154.752033
 31
0.0
  0
LINE
  5
632
330
62B
100
AcDbEntity
  8
0
  6
CONTINUOUS
 62
     7
100
AcDbLine
 10
248.852358
 20
154.752033
 30
0.0
 11
248.088739
 21
155.286731
 31
0.0
  0
LINE
  5
633
330
62B
100
AcDbEntity
  8
0
  6
CONTINUOUS
 62
     7
100
AcDbLine
 10
248.088739
 20
155.286731
 30
0.0
 11
247.179548
 21
155.923353
 31
0.0
  0
LINE
  5
634
330
62B
100
AcDbEntity
  8
0
  6
CONTINUOUS
 62
     7
100
AcDbLine
 10
247.179548
 20
155.923353
 30
0.0
 11
246.205573
 21
156.605335
 31
0.0
  0
LINE
  5
635
330
62B
100
AcDbEntity
  8
0
  6
CONTINUOUS
 62
     7
100
AcDbLine
 10
246.205573
 20
156.605335
 30
0.0
 11
245.253355
 21
157.272087
 31
0.0
  0
LINE
  5
636
330
62B
100
AcDbEntity
  8
0
  6
CONTINUOUS
 62
     7
100
AcDbLine
 10
245.253355
 20
157.272087
 30
0.0
 11
244.407503
 21
157.864364
 31
0.0
  0
LINE
  5
637
330
62B
100
AcDbEntity
  8
0
  6
CONTINUOUS
 62
     7
100
AcDbLine
 10
244.407503
 20
157.864364
 30
0.0
 11
243.743174
 21
158.329533
 31
0.0
  0
LINE
  5
638
330
62B
100
AcDbEntity
  8
0
  6
CONTINUOUS
 62
     7
100
AcDbLine
 10
243.743174
 20
158.329533
 30
0.0
 11
243.319397
 21
158.62626
 31
0.0
  0
LINE
  5
639
330
62B
100
AcDbEntity
  8
0
  6
CONTINUOUS
 62
     7
100
AcDbLine
 10
243.319397
 20
158.62626
 30
0.0
 11
243.173826
 21
158.728184
 31
0.0
  0
ENDBLK
  5
62D
330
62B
100
AcDbEntity
  8
0
100
AcDbBlockEnd
  0
BLOCK
  5
63B
330
63A
100
AcDbEntity
  8
0
100
AcDbBlockBegin
  2
BLKF039
 70
     0
 71
     0
 10
0.0
 20
0.0
 30
0.0
  3
BLKF039
  1

  0
LINE
  5
63E
330
63A
100
AcDbEntity
  8
0
  6
CONTINUOUS
 62
     7
100
AcDbLine
 10
249.991059
 20
167.505311
 30
0.0
 11
250.144183
 21
167.398097
 31
0.0
  0
LINE
  5
63F
330
63A
100
AcDbEntity
  8
0
  6
CONTINUOUS
 62
     7
100
AcDbLine
 10
250.144183
 20
167.398097
 30
0.0
 11
250.586964
 21
167.088048
 31
0.0
  0
LINE
  5
640
330
63A
100
AcDbEntity
  8
0
  6
CONTINUOUS
 62
     7
100
AcDbLine
 10
250.586964
 20
167.088048
 30
0.0
 11
251.271417
 21
166.608797
 31
0.0
  0
LINE
  5
641
330
63A
100
AcDbEntity
  8
0
  6
CONTINUOUS
 62
     7
100
AcDbLine
 10
251.271417
 20
166.608797
 30
0.0
 11
252.123373
 21
166.012244
 31
0.0
  0
LINE
  5
642
330
63A
100
AcDbEntity
  8
0
  6
CONTINUOUS
 62
     7
100
AcDbLine
 10
252.123373
 20
166.012244
 30
0.0
 11
253.050508
 21
165.36306
 31
0.0
  0
LINE
  5
643
330
63A
100
AcDbEntity
  8
0
  6
CONTINUOUS
 62
     7
100
AcDbLine
 10
253.050508
 20
165.36306
 30
0.0
 11
253.952355
 21
164.731579
 31
0.0
  0
LINE
  5
644
330
63A
100
AcDbEntity
  8
0
  6
CONTINUOUS
 62
     7
100
AcDbLine
 10
253.952355
 20
164.731579
 30
0.0
 11
254.731181
 21
164.186241
 31
0.0
  0
LINE
  5
645
330
63A
100
AcDbEntity
  8
0
  6
CONTINUOUS
 62
     7
100
AcDbLine
 10
254.731181
 20
164.186241
 30
0.0
 11
255.302593
 21
163.78613
 31
0.0
  0
LINE
  5
646
330
63A
100
AcDbEntity
  8
0
  6
CONTINUOUS
 62
     7
100
AcDbLine
 10
255.302593
 20
163.78613
 30
0.0
 11
255.604663
 21
163.574623
 31
0.0
  0
LINE
  5
647
330
63A
100
AcDbEntity
  8
0
  6
CONTINUOUS
 62
     7
100
AcDbLine
 10
255.604663
 20
163.574623
 30
0.0
 11
255.643207
 21
163.547637
 31
0.0
  0
ENDBLK
  5
63C
330
63A
100
AcDbEntity
  8
0
100
AcDbBlockEnd
  0
BLOCK
  5
649
330
648
100
AcDbEntity
  8
0
100
AcDbBlockBegin
  2
BLKF040
 70
     0
 71
     0
 10
0.0
 20
0.0
 30
0.0
  3
BLKF040
  1

  0
LINE
  5
64C
330
648
100
AcDbEntity
  8
0
  6
CONTINUOUS
 62
     7
100
AcDbLine
 10
248.721118
 20
166.563364
 30
0.0
 11
248.864869
 21
166.462721
 31
0.0
  0
LINE
  5
64D
330
648
100
AcDbEntity
  8
0
  6
CONTINUOUS
 62
     7
100
AcDbLine
 10
248.864869
 20
166.462721
 30
0.0
 11
249.283348
 21
166.16969
 31
0.0
  0
LINE
  5
64E
330
648
100
AcDbEntity
  8
0
  6
CONTINUOUS
 62
     7
100
AcDbLine
 10
249.283348
 20
166.16969
 30
0.0
 11
249.939373
 21
165.710332
 31
0.0
  0
LINE
  5
64F
330
648
100
AcDbEntity
  8
0
  6
CONTINUOUS
 62
     7
100
AcDbLine
 10
249.939373
 20
165.710332
 30
0.0
 11
250.774653
 21
165.125461
 31
0.0
  0
LINE
  5
650
330
648
100
AcDbEntity
  8
0
  6
CONTINUOUS
 62
     7
100
AcDbLine
 10
250.774653
 20
165.125461
 30
0.0
 11
251.714969
 21
164.467053
 31
0.0
  0
LINE
  5
651
330
648
100
AcDbEntity
  8
0
  6
CONTINUOUS
 62
     7
100
AcDbLine
 10
251.714969
 20
164.467053
 30
0.0
 11
252.676769
 21
163.793595
 31
0.0
  0
LINE
  5
652
330
648
100
AcDbEntity
  8
0
  6
CONTINUOUS
 62
     7
100
AcDbLine
 10
252.676769
 20
163.793595
 30
0.0
 11
253.574594
 21
163.16493
 31
0.0
  0
LINE
  5
653
330
648
100
AcDbEntity
  8
0
  6
CONTINUOUS
 62
     7
100
AcDbLine
 10
253.574594
 20
163.16493
 30
0.0
 11
254.328669
 21
162.636923
 31
0.0
  0
LINE
  5
654
330
648
100
AcDbEntity
  8
0
  6
CONTINUOUS
 62
     7
100
AcDbLine
 10
254.328669
 20
162.636923
 30
0.0
 11
254.871989
 21
162.256481
 31
0.0
  0
LINE
  5
655
330
648
100
AcDbEntity
  8
0
  6
CONTINUOUS
 62
     7
100
AcDbLine
 10
254.871989
 20
162.256481
 30
0.0
 11
255.15628
 21
162.057416
 31
0.0
  0
LINE
  5
656
330
648
100
AcDbEntity
  8
0
  6
CONTINUOUS
 62
     7
100
AcDbLine
 10
255.15628
 20
162.057416
 30
0.0
 11
255.192419
 21
162.032114
 31
0.0
  0
ENDBLK
  5
64A
330
648
100
AcDbEntity
  8
0
100
AcDbBlockEnd
  0
BLOCK
  5
65B
330
65A
100
AcDbEntity
  8
0
100
AcDbBlockBegin
  2
BLKF041
 70
     0
 71
     0
 10
0.0
 20
0.0
 30
0.0
  3
BLKF041
  1

  0
LINE
  5
65E
330
65A
100
AcDbEntity
  8
0
  6
CONTINUOUS
 62
     7
100
AcDbLine
 10
242.612668
 20
172.71571
 30
0.0
 11
242.612668
 21
172.730805
 31
0.0
  0
LINE
  5
65F
330
65A
100
AcDbEntity
  8
0
  6
CONTINUOUS
 62
     7
100
AcDbLine
 10
242.612668
 20
172.730805
 30
0.0
 11
242.612668
 21
172.506439
 31
0.0
  0
LINE
  5
660
330
65A
100
AcDbEntity
  8
0
  6
CONTINUOUS
 62
     7
100
AcDbLine
 10
242.612668
 20
172.506439
 30
0.0
 11
242.612668
 21
171.866657
 31
0.0
  0
ENDBLK
  5
65C
330
65A
100
AcDbEntity
  8
0
100
AcDbBlockEnd
  0
BLOCK
  5
663
330
662
100
AcDbEntity
  8
0
100
AcDbBlockBegin
  2
BLKF042
 70
     0
 71
     0
 10
0.0
 20
0.0
 30
0.0
  3
BLKF042
  1

  0
LINE
  5
666
330
662
100
AcDbEntity
  8
0
  6
CONTINUOUS
 62
     7
100
AcDbLine
 10
241.939324
 20
171.866657
 30
0.0
 11
241.912187
 21
171.888176
 31
0.0
  0
LINE
  5
667
330
662
100
AcDbEntity
  8
0
  6
CONTINUOUS
 62
     7
100
AcDbLine
 10
241.912187
 20
171.888176
 30
0.0
 11
241.88499
 21
171.909617
 31
0.0
  0
LINE
  5
668
330
662
100
AcDbEntity
  8
0
  6
CONTINUOUS
 62
     7
100
AcDbLine
 10
241.88499
 20
171.909617
 30
0.0
 11
241.865823
 21
171.924593
 31
0.0
  0
LINE
  5
669
330
662
100
AcDbEntity
  8
0
  6
CONTINUOUS
 62
     7
100
AcDbLine
 10
241.865823
 20
171.924593
 30
0.0
 11
241.846596
 21
171.939491
 31
0.0
  0
LINE
  5
66A
330
662
100
AcDbEntity
  8
0
  6
CONTINUOUS
 62
     7
100
AcDbLine
 10
241.846596
 20
171.939491
 30
0.0
 11
241.827308
 21
171.954309
 31
0.0
  0
LINE
  5
66B
330
662
100
AcDbEntity
  8
0
  6
CONTINUOUS
 62
     7
100
AcDbLine
 10
241.827308
 20
171.954309
 30
0.0
 11
241.807959
 21
171.969047
 31
0.0
  0
LINE
  5
66C
330
662
100
AcDbEntity
  8
0
  6
CONTINUOUS
 62
     7
100
AcDbLine
 10
241.807959
 20
171.969047
 30
0.0
 11
241.788548
 21
171.983702
 31
0.0
  0
LINE
  5
66D
330
662
100
AcDbEntity
  8
0
  6
CONTINUOUS
 62
     7
100
AcDbLine
 10
241.788548
 20
171.983702
 30
0.0
 11
241.769075
 21
171.998275
 31
0.0
  0
LINE
  5
66E
330
662
100
AcDbEntity
  8
0
  6
CONTINUOUS
 62
     7
100
AcDbLine
 10
241.769075
 20
171.998275
 30
0.0
 11
241.749538
 21
172.012762
 31
0.0
  0
LINE
  5
66F
330
662
100
AcDbEntity
  8
0
  6
CONTINUOUS
 62
     7
100
AcDbLine
 10
241.749538
 20
172.012762
 30
0.0
 11
241.729937
 21
172.027162
 31
0.0
  0
LINE
  5
670
330
662
100
AcDbEntity
  8
0
  6
CONTINUOUS
 62
     7
100
AcDbLine
 10
241.729937
 20
172.027162
 30
0.0
 11
241.710271
 21
172.041475
 31
0.0
  0
LINE
  5
671
330
662
100
AcDbEntity
  8
0
  6
CONTINUOUS
 62
     7
100
AcDbLine
 10
241.710271
 20
172.041475
 30
0.0
 11
241.69054
 21
172.055699
 31
0.0
  0
LINE
  5
672
330
662
100
AcDbEntity
  8
0
  6
CONTINUOUS
 62
     7
100
AcDbLine
 10
241.69054
 20
172.055699
 30
0.0
 11
241.670743
 21
172.069832
 31
0.0
  0
LINE
  5
673
330
662
100
AcDbEntity
  8
0
  6
CONTINUOUS
 62
     7
100
AcDbLine
 10
241.670743
 20
172.069832
 30
0.0
 11
241.650879
 21
172.083873
 31
0.0
  0
LINE
  5
674
330
662
100
AcDbEntity
  8
0
  6
CONTINUOUS
 62
     7
100
AcDbLine
 10
241.650879
 20
172.083873
 30
0.0
 11
241.630948
 21
172.097821
 31
0.0
  0
LINE
  5
675
330
662
100
AcDbEntity
  8
0
  6
CONTINUOUS
 62
     7
100
AcDbLine
 10
241.630948
 20
172.097821
 30
0.0
 11
241.610948
 21
172.111674
 31
0.0
  0
LINE
  5
676
330
662
100
AcDbEntity
  8
0
  6
CONTINUOUS
 62
     7
100
AcDbLine
 10
241.610948
 20
172.111674
 30
0.0
 11
241.59088
 21
172.125431
 31
0.0
  0
LINE
  5
677
330
662
100
AcDbEntity
  8
0
  6
CONTINUOUS
 62
     7
100
AcDbLine
 10
241.59088
 20
172.125431
 30
0.0
 11
241.570742
 21
172.13909
 31
0.0
  0
LINE
  5
678
330
662
100
AcDbEntity
  8
0
  6
CONTINUOUS
 62
     7
100
AcDbLine
 10
241.570742
 20
172.13909
 30
0.0
 11
241.550535
 21
172.15265
 31
0.0
  0
LINE
  5
679
330
662
100
AcDbEntity
  8
0
  6
CONTINUOUS
 62
     7
100
AcDbLine
 10
241.550535
 20
172.15265
 30
0.0
 11
241.530256
 21
172.16611
 31
0.0
  0
LINE
  5
67A
330
662
100
AcDbEntity
  8
0
  6
CONTINUOUS
 62
     7
100
AcDbLine
 10
241.530256
 20
172.16611
 30
0.0
 11
241.509906
 21
172.179468
 31
0.0
  0
LINE
  5
67B
330
662
100
AcDbEntity
  8
0
  6
CONTINUOUS
 62
     7
100
AcDbLine
 10
241.509906
 20
172.179468
 30
0.0
 11
241.489484
 21
172.192722
 31
0.0
  0
LINE
  5
67C
330
662
100
AcDbEntity
  8
0
  6
CONTINUOUS
 62
     7
100
AcDbLine
 10
241.489484
 20
172.192722
 30
0.0
 11
241.468989
 21
172.205872
 31
0.0
  0
LINE
  5
67D
330
662
100
AcDbEntity
  8
0
  6
CONTINUOUS
 62
     7
100
AcDbLine
 10
241.468989
 20
172.205872
 30
0.0
 11
241.44842
 21
172.218916
 31
0.0
  0
LINE
  5
67E
330
662
100
AcDbEntity
  8
0
  6
CONTINUOUS
 62
     7
100
AcDbLine
 10
241.44842
 20
172.218916
 30
0.0
 11
241.427777
 21
172.231852
 31
0.0
  0
LINE
  5
67F
330
662
100
AcDbEntity
  8
0
  6
CONTINUOUS
 62
     7
100
AcDbLine
 10
241.427777
 20
172.231852
 30
0.0
 11
241.407059
 21
172.24468
 31
0.0
  0
LINE
  5
680
330
662
100
AcDbEntity
  8
0
  6
CONTINUOUS
 62
     7
100
AcDbLine
 10
241.407059
 20
172.24468
 30
0.0
 11
241.386266
 21
172.257397
 31
0.0
  0
LINE
  5
681
330
662
100
AcDbEntity
  8
0
  6
CONTINUOUS
 62
     7
100
AcDbLine
 10
241.386266
 20
172.257397
 30
0.0
 11
241.365396
 21
172.270002
 31
0.0
  0
LINE
  5
682
330
662
100
AcDbEntity
  8
0
  6
CONTINUOUS
 62
     7
100
AcDbLine
 10
241.365396
 20
172.270002
 30
0.0
 11
241.34445
 21
172.282495
 31
0.0
  0
LINE
  5
683
330
662
100
AcDbEntity
  8
0
  6
CONTINUOUS
 62
     7
100
AcDbLine
 10
241.34445
 20
172.282495
 30
0.0
 11
241.323426
 21
172.294873
 31
0.0
  0
LINE
  5
684
330
662
100
AcDbEntity
  8
0
  6
CONTINUOUS
 62
     7
100
AcDbLine
 10
241.323426
 20
172.294873
 30
0.0
 11
241.302323
 21
172.307135
 31
0.0
  0
LINE
  5
685
330
662
100
AcDbEntity
  8
0
  6
CONTINUOUS
 62
     7
100
AcDbLine
 10
241.302323
 20
172.307135
 30
0.0
 11
241.281142
 21
172.319279
 31
0.0
  0
LINE
  5
686
330
662
100
AcDbEntity
  8
0
  6
CONTINUOUS
 62
     7
100
AcDbLine
 10
241.281142
 20
172.319279
 30
0.0
 11
241.259881
 21
172.331305
 31
0.0
  0
LINE
  5
687
330
662
100
AcDbEntity
  8
0
  6
CONTINUOUS
 62
     7
100
AcDbLine
 10
241.259881
 20
172.331305
 30
0.0
 11
241.23854
 21
172.343211
 31
0.0
  0
LINE
  5
688
330
662
100
AcDbEntity
  8
0
  6
CONTINUOUS
 62
     7
100
AcDbLine
 10
241.23854
 20
172.343211
 30
0.0
 11
241.209354
 21
172.359225
 31
0.0
  0
LINE
  5
689
330
662
100
AcDbEntity
  8
0
  6
CONTINUOUS
 62
     7
100
AcDbLine
 10
241.209354
 20
172.359225
 30
0.0
 11
241.18002
 21
172.375005
 31
0.0
  0
LINE
  5
68A
330
662
100
AcDbEntity
  8
0
  6
CONTINUOUS
 62
     7
100
AcDbLine
 10
241.18002
 20
172.375005
 30
0.0
 11
241.15054
 21
172.390546
 31
0.0
  0
LINE
  5
68B
330
662
100
AcDbEntity
  8
0
  6
CONTINUOUS
 62
     7
100
AcDbLine
 10
241.15054
 20
172.390546
 30
0.0
 11
241.120916
 21
172.405838
 31
0.0
  0
LINE
  5
68C
330
662
100
AcDbEntity
  8
0
  6
CONTINUOUS
 62
     7
100
AcDbLine
 10
241.120916
 20
172.405838
 30
0.0
 11
241.09115
 21
172.420874
 31
0.0
  0
LINE
  5
68D
330
662
100
AcDbEntity
  8
0
  6
CONTINUOUS
 62
     7
100
AcDbLine
 10
241.09115
 20
172.420874
 30
0.0
 11
241.061245
 21
172.435648
 31
0.0
  0
LINE
  5
68E
330
662
100
AcDbEntity
  8
0
  6
CONTINUOUS
 62
     7
100
AcDbLine
 10
241.061245
 20
172.435648
 30
0.0
 11
241.031202
 21
172.450151
 31
0.0
  0
LINE
  5
68F
330
662
100
AcDbEntity
  8
0
  6
CONTINUOUS
 62
     7
100
AcDbLine
 10
241.031202
 20
172.450151
 30
0.0
 11
241.001023
 21
172.464375
 31
0.0
  0
LINE
  5
690
330
662
100
AcDbEntity
  8
0
  6
CONTINUOUS
 62
     7
100
AcDbLine
 10
241.001023
 20
172.464375
 30
0.0
 11
240.970711
 21
172.478314
 31
0.0
  0
LINE
  5
691
330
662
100
AcDbEntity
  8
0
  6
CONTINUOUS
 62
     7
100
AcDbLine
 10
240.970711
 20
172.478314
 30
0.0
 11
240.940268
 21
172.491959
 31
0.0
  0
LINE
  5
692
330
662
100
AcDbEntity
  8
0
  6
CONTINUOUS
 62
     7
100
AcDbLine
 10
240.940268
 20
172.491959
 30
0.0
 11
240.924998
 21
172.498669
 31
0.0
  0
LINE
  5
693
330
662
100
AcDbEntity
  8
0
  6
CONTINUOUS
 62
     7
100
AcDbLine
 10
240.924998
 20
172.498669
 30
0.0
 11
240.909696
 21
172.505303
 31
0.0
  0
LINE
  5
694
330
662
100
AcDbEntity
  8
0
  6
CONTINUOUS
 62
     7
100
AcDbLine
 10
240.909696
 20
172.505303
 30
0.0
 11
240.894362
 21
172.51186
 31
0.0
  0
LINE
  5
695
330
662
100
AcDbEntity
  8
0
  6
CONTINUOUS
 62
     7
100
AcDbLine
 10
240.894362
 20
172.51186
 30
0.0
 11
240.878997
 21
172.518339
 31
0.0
  0
LINE
  5
696
330
662
100
AcDbEntity
  8
0
  6
CONTINUOUS
 62
     7
100
AcDbLine
 10
240.878997
 20
172.518339
 30
0.0
 11
240.8636
 21
172.524738
 31
0.0
  0
LINE
  5
697
330
662
100
AcDbEntity
  8
0
  6
CONTINUOUS
 62
     7
100
AcDbLine
 10
240.8636
 20
172.524738
 30
0.0
 11
240.848172
 21
172.531058
 31
0.0
  0
LINE
  5
698
330
662
100
AcDbEntity
  8
0
  6
CONTINUOUS
 62
     7
100
AcDbLine
 10
240.848172
 20
172.531058
 30
0.0
 11
240.832714
 21
172.537297
 31
0.0
  0
LINE
  5
699
330
662
100
AcDbEntity
  8
0
  6
CONTINUOUS
 62
     7
100
AcDbLine
 10
240.832714
 20
172.537297
 30
0.0
 11
240.817225
 21
172.543454
 31
0.0
  0
LINE
  5
69A
330
662
100
AcDbEntity
  8
0
  6
CONTINUOUS
 62
     7
100
AcDbLine
 10
240.817225
 20
172.543454
 30
0.0
 11
240.801706
 21
172.549528
 31
0.0
  0
LINE
  5
69B
330
662
100
AcDbEntity
  8
0
  6
CONTINUOUS
 62
     7
100
AcDbLine
 10
240.801706
 20
172.549528
 30
0.0
 11
240.786157
 21
172.555518
 31
0.0
  0
LINE
  5
69C
330
662
100
AcDbEntity
  8
0
  6
CONTINUOUS
 62
     7
100
AcDbLine
 10
240.786157
 20
172.555518
 30
0.0
 11
240.770578
 21
172.561424
 31
0.0
  0
LINE
  5
69D
330
662
100
AcDbEntity
  8
0
  6
CONTINUOUS
 62
     7
100
AcDbLine
 10
240.770578
 20
172.561424
 30
0.0
 11
240.75497
 21
172.567244
 31
0.0
  0
LINE
  5
69E
330
662
100
AcDbEntity
  8
0
  6
CONTINUOUS
 62
     7
100
AcDbLine
 10
240.75497
 20
172.567244
 30
0.0
 11
240.739332
 21
172.572977
 31
0.0
  0
LINE
  5
69F
330
662
100
AcDbEntity
  8
0
  6
CONTINUOUS
 62
     7
100
AcDbLine
 10
240.739332
 20
172.572977
 30
0.0
 11
240.723666
 21
172.578623
 31
0.0
  0
LINE
  5
6A0
330
662
100
AcDbEntity
  8
0
  6
CONTINUOUS
 62
     7
100
AcDbLine
 10
240.723666
 20
172.578623
 30
0.0
 11
240.707971
 21
172.584181
 31
0.0
  0
LINE
  5
6A1
330
662
100
AcDbEntity
  8
0
  6
CONTINUOUS
 62
     7
100
AcDbLine
 10
240.707971
 20
172.584181
 30
0.0
 11
240.692248
 21
172.589649
 31
0.0
  0
LINE
  5
6A2
330
662
100
AcDbEntity
  8
0
  6
CONTINUOUS
 62
     7
100
AcDbLine
 10
240.692248
 20
172.589649
 30
0.0
 11
240.676497
 21
172.595026
 31
0.0
  0
LINE
  5
6A3
330
662
100
AcDbEntity
  8
0
  6
CONTINUOUS
 62
     7
100
AcDbLine
 10
240.676497
 20
172.595026
 30
0.0
 11
240.660718
 21
172.600312
 31
0.0
  0
LINE
  5
6A4
330
662
100
AcDbEntity
  8
0
  6
CONTINUOUS
 62
     7
100
AcDbLine
 10
240.660718
 20
172.600312
 30
0.0
 11
240.644911
 21
172.605506
 31
0.0
  0
LINE
  5
6A5
330
662
100
AcDbEntity
  8
0
  6
CONTINUOUS
 62
     7
100
AcDbLine
 10
240.644911
 20
172.605506
 30
0.0
 11
240.629077
 21
172.610607
 31
0.0
  0
LINE
  5
6A6
330
662
100
AcDbEntity
  8
0
  6
CONTINUOUS
 62
     7
100
AcDbLine
 10
240.629077
 20
172.610607
 30
0.0
 11
240.613216
 21
172.615614
 31
0.0
  0
LINE
  5
6A7
330
662
100
AcDbEntity
  8
0
  6
CONTINUOUS
 62
     7
100
AcDbLine
 10
240.613216
 20
172.615614
 30
0.0
 11
240.597328
 21
172.620525
 31
0.0
  0
LINE
  5
6A8
330
662
100
AcDbEntity
  8
0
  6
CONTINUOUS
 62
     7
100
AcDbLine
 10
240.597328
 20
172.620525
 30
0.0
 11
240.581413
 21
172.62534
 31
0.0
  0
LINE
  5
6A9
330
662
100
AcDbEntity
  8
0
  6
CONTINUOUS
 62
     7
100
AcDbLine
 10
240.581413
 20
172.62534
 30
0.0
 11
240.565472
 21
172.630059
 31
0.0
  0
LINE
  5
6AA
330
662
100
AcDbEntity
  8
0
  6
CONTINUOUS
 62
     7
100
AcDbLine
 10
240.565472
 20
172.630059
 30
0.0
 11
240.549506
 21
172.634679
 31
0.0
  0
LINE
  5
6AB
330
662
100
AcDbEntity
  8
0
  6
CONTINUOUS
 62
     7
100
AcDbLine
 10
240.549506
 20
172.634679
 30
0.0
 11
240.533513
 21
172.639201
 31
0.0
  0
LINE
  5
6AC
330
662
100
AcDbEntity
  8
0
  6
CONTINUOUS
 62
     7
100
AcDbLine
 10
240.533513
 20
172.639201
 30
0.0
 11
240.517495
 21
172.643622
 31
0.0
  0
LINE
  5
6AD
330
662
100
AcDbEntity
  8
0
  6
CONTINUOUS
 62
     7
100
AcDbLine
 10
240.517495
 20
172.643622
 30
0.0
 11
240.501452
 21
172.647943
 31
0.0
  0
LINE
  5
6AE
330
662
100
AcDbEntity
  8
0
  6
CONTINUOUS
 62
     7
100
AcDbLine
 10
240.501452
 20
172.647943
 30
0.0
 11
240.485384
 21
172.652162
 31
0.0
  0
LINE
  5
6AF
330
662
100
AcDbEntity
  8
0
  6
CONTINUOUS
 62
     7
100
AcDbLine
 10
240.485384
 20
172.652162
 30
0.0
 11
240.469291
 21
172.656279
 31
0.0
  0
LINE
  5
6B0
330
662
100
AcDbEntity
  8
0
  6
CONTINUOUS
 62
     7
100
AcDbLine
 10
240.469291
 20
172.656279
 30
0.0
 11
240.453173
 21
172.660292
 31
0.0
  0
LINE
  5
6B1
330
662
100
AcDbEntity
  8
0
  6
CONTINUOUS
 62
     7
100
AcDbLine
 10
240.453173
 20
172.660292
 30
0.0
 11
240.437032
 21
172.6642
 31
0.0
  0
LINE
  5
6B2
330
662
100
AcDbEntity
  8
0
  6
CONTINUOUS
 62
     7
100
AcDbLine
 10
240.437032
 20
172.6642
 30
0.0
 11
240.420866
 21
172.668003
 31
0.0
  0
LINE
  5
6B3
330
662
100
AcDbEntity
  8
0
  6
CONTINUOUS
 62
     7
100
AcDbLine
 10
240.420866
 20
172.668003
 30
0.0
 11
240.404677
 21
172.671699
 31
0.0
  0
LINE
  5
6B4
330
662
100
AcDbEntity
  8
0
  6
CONTINUOUS
 62
     7
100
AcDbLine
 10
240.404677
 20
172.671699
 30
0.0
 11
240.388465
 21
172.675288
 31
0.0
  0
LINE
  5
6B5
330
662
100
AcDbEntity
  8
0
  6
CONTINUOUS
 62
     7
100
AcDbLine
 10
240.388465
 20
172.675288
 30
0.0
 11
240.372229
 21
172.678768
 31
0.0
  0
LINE
  5
6B6
330
662
100
AcDbEntity
  8
0
  6
CONTINUOUS
 62
     7
100
AcDbLine
 10
240.372229
 20
172.678768
 30
0.0
 11
240.355971
 21
172.682139
 31
0.0
  0
LINE
  5
6B7
330
662
100
AcDbEntity
  8
0
  6
CONTINUOUS
 62
     7
100
AcDbLine
 10
240.355971
 20
172.682139
 30
0.0
 11
240.33969
 21
172.6854
 31
0.0
  0
LINE
  5
6B8
330
662
100
AcDbEntity
  8
0
  6
CONTINUOUS
 62
     7
100
AcDbLine
 10
240.33969
 20
172.6854
 30
0.0
 11
240.323386
 21
172.68855
 31
0.0
  0
LINE
  5
6B9
330
662
100
AcDbEntity
  8
0
  6
CONTINUOUS
 62
     7
100
AcDbLine
 10
240.323386
 20
172.68855
 30
0.0
 11
240.307061
 21
172.691588
 31
0.0
  0
LINE
  5
6BA
330
662
100
AcDbEntity
  8
0
  6
CONTINUOUS
 62
     7
100
AcDbLine
 10
240.307061
 20
172.691588
 30
0.0
 11
240.290713
 21
172.694512
 31
0.0
  0
LINE
  5
6BB
330
662
100
AcDbEntity
  8
0
  6
CONTINUOUS
 62
     7
100
AcDbLine
 10
240.290713
 20
172.694512
 30
0.0
 11
240.274344
 21
172.697322
 31
0.0
  0
LINE
  5
6BC
330
662
100
AcDbEntity
  8
0
  6
CONTINUOUS
 62
     7
100
AcDbLine
 10
240.274344
 20
172.697322
 30
0.0
 11
240.257954
 21
172.700018
 31
0.0
  0
LINE
  5
6BD
330
662
100
AcDbEntity
  8
0
  6
CONTINUOUS
 62
     7
100
AcDbLine
 10
240.257954
 20
172.700018
 30
0.0
 11
240.241543
 21
172.702597
 31
0.0
  0
LINE
  5
6BE
330
662
100
AcDbEntity
  8
0
  6
CONTINUOUS
 62
     7
100
AcDbLine
 10
240.241543
 20
172.702597
 30
0.0
 11
240.225221
 21
172.705044
 31
0.0
  0
LINE
  5
6BF
330
662
100
AcDbEntity
  8
0
  6
CONTINUOUS
 62
     7
100
AcDbLine
 10
240.225221
 20
172.705044
 30
0.0
 11
240.208879
 21
172.707376
 31
0.0
  0
LINE
  5
6C0
330
662
100
AcDbEntity
  8
0
  6
CONTINUOUS
 62
     7
100
AcDbLine
 10
240.208879
 20
172.707376
 30
0.0
 11
240.192518
 21
172.709593
 31
0.0
  0
LINE
  5
6C1
330
662
100
AcDbEntity
  8
0
  6
CONTINUOUS
 62
     7
100
AcDbLine
 10
240.192518
 20
172.709593
 30
0.0
 11
240.176139
 21
172.711695
 31
0.0
  0
LINE
  5
6C2
330
662
100
AcDbEntity
  8
0
  6
CONTINUOUS
 62
     7
100
AcDbLine
 10
240.176139
 20
172.711695
 30
0.0
 11
240.159743
 21
172.713684
 31
0.0
  0
LINE
  5
6C3
330
662
100
AcDbEntity
  8
0
  6
CONTINUOUS
 62
     7
100
AcDbLine
 10
240.159743
 20
172.713684
 30
0.0
 11
240.143331
 21
172.715558
 31
0.0
  0
LINE
  5
6C4
330
662
100
AcDbEntity
  8
0
  6
CONTINUOUS
 62
     7
100
AcDbLine
 10
240.143331
 20
172.715558
 30
0.0
 11
240.126902
 21
172.717318
 31
0.0
  0
LINE
  5
6C5
330
662
100
AcDbEntity
  8
0
  6
CONTINUOUS
 62
     7
100
AcDbLine
 10
240.126902
 20
172.717318
 30
0.0
 11
240.110459
 21
172.718965
 31
0.0
  0
LINE
  5
6C6
330
662
100
AcDbEntity
  8
0
  6
CONTINUOUS
 62
     7
100
AcDbLine
 10
240.110459
 20
172.718965
 30
0.0
 11
240.094002
 21
172.720499
 31
0.0
  0
LINE
  5
6C7
330
662
100
AcDbEntity
  8
0
  6
CONTINUOUS
 62
     7
100
AcDbLine
 10
240.094002
 20
172.720499
 30
0.0
 11
240.077532
 21
172.72192
 31
0.0
  0
LINE
  5
6C8
330
662
100
AcDbEntity
  8
0
  6
CONTINUOUS
 62
     7
100
AcDbLine
 10
240.077532
 20
172.72192
 30
0.0
 11
240.061049
 21
172.723228
 31
0.0
  0
LINE
  5
6C9
330
662
100
AcDbEntity
  8
0
  6
CONTINUOUS
 62
     7
100
AcDbLine
 10
240.061049
 20
172.723228
 30
0.0
 11
240.044554
 21
172.724424
 31
0.0
  0
LINE
  5
6CA
330
662
100
AcDbEntity
  8
0
  6
CONTINUOUS
 62
     7
100
AcDbLine
 10
240.044554
 20
172.724424
 30
0.0
 11
240.028049
 21
172.725508
 31
0.0
  0
LINE
  5
6CB
330
662
100
AcDbEntity
  8
0
  6
CONTINUOUS
 62
     7
100
AcDbLine
 10
240.028049
 20
172.725508
 30
0.0
 11
240.011534
 21
172.72648
 31
0.0
  0
LINE
  5
6CC
330
662
100
AcDbEntity
  8
0
  6
CONTINUOUS
 62
     7
100
AcDbLine
 10
240.011534
 20
172.72648
 30
0.0
 11
239.995009
 21
172.72734
 31
0.0
  0
LINE
  5
6CD
330
662
100
AcDbEntity
  8
0
  6
CONTINUOUS
 62
     7
100
AcDbLine
 10
239.995009
 20
172.72734
 30
0.0
 11
239.978476
 21
172.728089
 31
0.0
  0
LINE
  5
6CE
330
662
100
AcDbEntity
  8
0
  6
CONTINUOUS
 62
     7
100
AcDbLine
 10
239.978476
 20
172.728089
 30
0.0
 11
239.961936
 21
172.728727
 31
0.0
  0
LINE
  5
6CF
330
662
100
AcDbEntity
  8
0
  6
CONTINUOUS
 62
     7
100
AcDbLine
 10
239.961936
 20
172.728727
 30
0.0
 11
239.945388
 21
172.729255
 31
0.0
  0
LINE
  5
6D0
330
662
100
AcDbEntity
  8
0
  6
CONTINUOUS
 62
     7
100
AcDbLine
 10
239.945388
 20
172.729255
 30
0.0
 11
239.928835
 21
172.729671
 31
0.0
  0
LINE
  5
6D1
330
662
100
AcDbEntity
  8
0
  6
CONTINUOUS
 62
     7
100
AcDbLine
 10
239.928835
 20
172.729671
 30
0.0
 11
239.912277
 21
172.729978
 31
0.0
  0
LINE
  5
6D2
330
662
100
AcDbEntity
  8
0
  6
CONTINUOUS
 62
     7
100
AcDbLine
 10
239.912277
 20
172.729978
 30
0.0
 11
239.895714
 21
172.730174
 31
0.0
  0
LINE
  5
6D3
330
662
100
AcDbEntity
  8
0
  6
CONTINUOUS
 62
     7
100
AcDbLine
 10
239.895714
 20
172.730174
 30
0.0
 11
239.879147
 21
172.730261
 31
0.0
  0
LINE
  5
6D4
330
662
100
AcDbEntity
  8
0
  6
CONTINUOUS
 62
     7
100
AcDbLine
 10
239.879147
 20
172.730261
 30
0.0
 11
239.862578
 21
172.730238
 31
0.0
  0
LINE
  5
6D5
330
662
100
AcDbEntity
  8
0
  6
CONTINUOUS
 62
     7
100
AcDbLine
 10
239.862578
 20
172.730238
 30
0.0
 11
239.846006
 21
172.730106
 31
0.0
  0
LINE
  5
6D6
330
662
100
AcDbEntity
  8
0
  6
CONTINUOUS
 62
     7
100
AcDbLine
 10
239.846006
 20
172.730106
 30
0.0
 11
239.829434
 21
172.729866
 31
0.0
  0
LINE
  5
6D7
330
662
100
AcDbEntity
  8
0
  6
CONTINUOUS
 62
     7
100
AcDbLine
 10
239.829434
 20
172.729866
 30
0.0
 11
239.812861
 21
172.729516
 31
0.0
  0
LINE
  5
6D8
330
662
100
AcDbEntity
  8
0
  6
CONTINUOUS
 62
     7
100
AcDbLine
 10
239.812861
 20
172.729516
 30
0.0
 11
239.796289
 21
172.729059
 31
0.0
  0
LINE
  5
6D9
330
662
100
AcDbEntity
  8
0
  6
CONTINUOUS
 62
     7
100
AcDbLine
 10
239.796289
 20
172.729059
 30
0.0
 11
239.779718
 21
172.728493
 31
0.0
  0
LINE
  5
6DA
330
662
100
AcDbEntity
  8
0
  6
CONTINUOUS
 62
     7
100
AcDbLine
 10
239.779718
 20
172.728493
 30
0.0
 11
239.763149
 21
172.727819
 31
0.0
  0
LINE
  5
6DB
330
662
100
AcDbEntity
  8
0
  6
CONTINUOUS
 62
     7
100
AcDbLine
 10
239.763149
 20
172.727819
 30
0.0
 11
239.746583
 21
172.727038
 31
0.0
  0
LINE
  5
6DC
330
662
100
AcDbEntity
  8
0
  6
CONTINUOUS
 62
     7
100
AcDbLine
 10
239.746583
 20
172.727038
 30
0.0
 11
239.73002
 21
172.726149
 31
0.0
  0
LINE
  5
6DD
330
662
100
AcDbEntity
  8
0
  6
CONTINUOUS
 62
     7
100
AcDbLine
 10
239.73002
 20
172.726149
 30
0.0
 11
239.713462
 21
172.725153
 31
0.0
  0
LINE
  5
6DE
330
662
100
AcDbEntity
  8
0
  6
CONTINUOUS
 62
     7
100
AcDbLine
 10
239.713462
 20
172.725153
 30
0.0
 11
239.696909
 21
172.724051
 31
0.0
  0
LINE
  5
6DF
330
662
100
AcDbEntity
  8
0
  6
CONTINUOUS
 62
     7
100
AcDbLine
 10
239.696909
 20
172.724051
 30
0.0
 11
239.680363
 21
172.722842
 31
0.0
  0
LINE
  5
6E0
330
662
100
AcDbEntity
  8
0
  6
CONTINUOUS
 62
     7
100
AcDbLine
 10
239.680363
 20
172.722842
 30
0.0
 11
239.663823
 21
172.721527
 31
0.0
  0
LINE
  5
6E1
330
662
100
AcDbEntity
  8
0
  6
CONTINUOUS
 62
     7
100
AcDbLine
 10
239.663823
 20
172.721527
 30
0.0
 11
239.647291
 21
172.720106
 31
0.0
  0
LINE
  5
6E2
330
662
100
AcDbEntity
  8
0
  6
CONTINUOUS
 62
     7
100
AcDbLine
 10
239.647291
 20
172.720106
 30
0.0
 11
239.630767
 21
172.718579
 31
0.0
  0
LINE
  5
6E3
330
662
100
AcDbEntity
  8
0
  6
CONTINUOUS
 62
     7
100
AcDbLine
 10
239.630767
 20
172.718579
 30
0.0
 11
239.614253
 21
172.716947
 31
0.0
  0
LINE
  5
6E4
330
662
100
AcDbEntity
  8
0
  6
CONTINUOUS
 62
     7
100
AcDbLine
 10
239.614253
 20
172.716947
 30
0.0
 11
239.597749
 21
172.715209
 31
0.0
  0
LINE
  5
6E5
330
662
100
AcDbEntity
  8
0
  6
CONTINUOUS
 62
     7
100
AcDbLine
 10
239.597749
 20
172.715209
 30
0.0
 11
239.581256
 21
172.713367
 31
0.0
  0
LINE
  5
6E6
330
662
100
AcDbEntity
  8
0
  6
CONTINUOUS
 62
     7
100
AcDbLine
 10
239.581256
 20
172.713367
 30
0.0
 11
239.564774
 21
172.71142
 31
0.0
  0
LINE
  5
6E7
330
662
100
AcDbEntity
  8
0
  6
CONTINUOUS
 62
     7
100
AcDbLine
 10
239.564774
 20
172.71142
 30
0.0
 11
239.548305
 21
172.709368
 31
0.0
  0
LINE
  5
6E8
330
662
100
AcDbEntity
  8
0
  6
CONTINUOUS
 62
     7
100
AcDbLine
 10
239.548305
 20
172.709368
 30
0.0
 11
239.53185
 21
172.707213
 31
0.0
  0
LINE
  5
6E9
330
662
100
AcDbEntity
  8
0
  6
CONTINUOUS
 62
     7
100
AcDbLine
 10
239.53185
 20
172.707213
 30
0.0
 11
239.515408
 21
172.704954
 31
0.0
  0
LINE
  5
6EA
330
662
100
AcDbEntity
  8
0
  6
CONTINUOUS
 62
     7
100
AcDbLine
 10
239.515408
 20
172.704954
 30
0.0
 11
239.498982
 21
172.702591
 31
0.0
  0
LINE
  5
6EB
330
662
100
AcDbEntity
  8
0
  6
CONTINUOUS
 62
     7
100
AcDbLine
 10
239.498982
 20
172.702591
 30
0.0
 11
239.482571
 21
172.700125
 31
0.0
  0
LINE
  5
6EC
330
662
100
AcDbEntity
  8
0
  6
CONTINUOUS
 62
     7
100
AcDbLine
 10
239.482571
 20
172.700125
 30
0.0
 11
239.466177
 21
172.697555
 31
0.0
  0
LINE
  5
6ED
330
662
100
AcDbEntity
  8
0
  6
CONTINUOUS
 62
     7
100
AcDbLine
 10
239.466177
 20
172.697555
 30
0.0
 11
239.4498
 21
172.694883
 31
0.0
  0
LINE
  5
6EE
330
662
100
AcDbEntity
  8
0
  6
CONTINUOUS
 62
     7
100
AcDbLine
 10
239.4498
 20
172.694883
 30
0.0
 11
239.433441
 21
172.692109
 31
0.0
  0
LINE
  5
6EF
330
662
100
AcDbEntity
  8
0
  6
CONTINUOUS
 62
     7
100
AcDbLine
 10
239.433441
 20
172.692109
 30
0.0
 11
239.417101
 21
172.689232
 31
0.0
  0
LINE
  5
6F0
330
662
100
AcDbEntity
  8
0
  6
CONTINUOUS
 62
     7
100
AcDbLine
 10
239.417101
 20
172.689232
 30
0.0
 11
239.400782
 21
172.686254
 31
0.0
  0
LINE
  5
6F1
330
662
100
AcDbEntity
  8
0
  6
CONTINUOUS
 62
     7
100
AcDbLine
 10
239.400782
 20
172.686254
 30
0.0
 11
239.384482
 21
172.683173
 31
0.0
  0
LINE
  5
6F2
330
662
100
AcDbEntity
  8
0
  6
CONTINUOUS
 62
     7
100
AcDbLine
 10
239.384482
 20
172.683173
 30
0.0
 11
239.368204
 21
172.679991
 31
0.0
  0
LINE
  5
6F3
330
662
100
AcDbEntity
  8
0
  6
CONTINUOUS
 62
     7
100
AcDbLine
 10
239.368204
 20
172.679991
 30
0.0
 11
239.351949
 21
172.676708
 31
0.0
  0
LINE
  5
6F4
330
662
100
AcDbEntity
  8
0
  6
CONTINUOUS
 62
     7
100
AcDbLine
 10
239.351949
 20
172.676708
 30
0.0
 11
239.335716
 21
172.673325
 31
0.0
  0
LINE
  5
6F5
330
662
100
AcDbEntity
  8
0
  6
CONTINUOUS
 62
     7
100
AcDbLine
 10
239.335716
 20
172.673325
 30
0.0
 11
239.319507
 21
172.66984
 31
0.0
  0
LINE
  5
6F6
330
662
100
AcDbEntity
  8
0
  6
CONTINUOUS
 62
     7
100
AcDbLine
 10
239.319507
 20
172.66984
 30
0.0
 11
239.303323
 21
172.666255
 31
0.0
  0
LINE
  5
6F7
330
662
100
AcDbEntity
  8
0
  6
CONTINUOUS
 62
     7
100
AcDbLine
 10
239.303323
 20
172.666255
 30
0.0
 11
239.287164
 21
172.66257
 31
0.0
  0
LINE
  5
6F8
330
662
100
AcDbEntity
  8
0
  6
CONTINUOUS
 62
     7
100
AcDbLine
 10
239.287164
 20
172.66257
 30
0.0
 11
239.271031
 21
172.658785
 31
0.0
  0
LINE
  5
6F9
330
662
100
AcDbEntity
  8
0
  6
CONTINUOUS
 62
     7
100
AcDbLine
 10
239.271031
 20
172.658785
 30
0.0
 11
239.254926
 21
172.654901
 31
0.0
  0
LINE
  5
6FA
330
662
100
AcDbEntity
  8
0
  6
CONTINUOUS
 62
     7
100
AcDbLine
 10
239.254926
 20
172.654901
 30
0.0
 11
239.238848
 21
172.650917
 31
0.0
  0
LINE
  5
6FB
330
662
100
AcDbEntity
  8
0
  6
CONTINUOUS
 62
     7
100
AcDbLine
 10
239.238848
 20
172.650917
 30
0.0
 11
239.222799
 21
172.646835
 31
0.0
  0
LINE
  5
6FC
330
662
100
AcDbEntity
  8
0
  6
CONTINUOUS
 62
     7
100
AcDbLine
 10
239.222799
 20
172.646835
 30
0.0
 11
239.206779
 21
172.642653
 31
0.0
  0
LINE
  5
6FD
330
662
100
AcDbEntity
  8
0
  6
CONTINUOUS
 62
     7
100
AcDbLine
 10
239.206779
 20
172.642653
 30
0.0
 11
239.19079
 21
172.638373
 31
0.0
  0
LINE
  5
6FE
330
662
100
AcDbEntity
  8
0
  6
CONTINUOUS
 62
     7
100
AcDbLine
 10
239.19079
 20
172.638373
 30
0.0
 11
239.171395
 21
172.633039
 31
0.0
  0
LINE
  5
6FF
330
662
100
AcDbEntity
  8
0
  6
CONTINUOUS
 62
     7
100
AcDbLine
 10
239.171395
 20
172.633039
 30
0.0
 11
239.152046
 21
172.62756
 31
0.0
  0
LINE
  5
700
330
662
100
AcDbEntity
  8
0
  6
CONTINUOUS
 62
     7
100
AcDbLine
 10
239.152046
 20
172.62756
 30
0.0
 11
239.132744
 21
172.621939
 31
0.0
  0
LINE
  5
701
330
662
100
AcDbEntity
  8
0
  6
CONTINUOUS
 62
     7
100
AcDbLine
 10
239.132744
 20
172.621939
 30
0.0
 11
239.113487
 21
172.616178
 31
0.0
  0
LINE
  5
702
330
662
100
AcDbEntity
  8
0
  6
CONTINUOUS
 62
     7
100
AcDbLine
 10
239.113487
 20
172.616178
 30
0.0
 11
239.094278
 21
172.610276
 31
0.0
  0
LINE
  5
703
330
662
100
AcDbEntity
  8
0
  6
CONTINUOUS
 62
     7
100
AcDbLine
 10
239.094278
 20
172.610276
 30
0.0
 11
239.075114
 21
172.604236
 31
0.0
  0
LINE
  5
704
330
662
100
AcDbEntity
  8
0
  6
CONTINUOUS
 62
     7
100
AcDbLine
 10
239.075114
 20
172.604236
 30
0.0
 11
239.055997
 21
172.598059
 31
0.0
  0
LINE
  5
705
330
662
100
AcDbEntity
  8
0
  6
CONTINUOUS
 62
     7
100
AcDbLine
 10
239.055997
 20
172.598059
 30
0.0
 11
239.036927
 21
172.591747
 31
0.0
  0
LINE
  5
706
330
662
100
AcDbEntity
  8
0
  6
CONTINUOUS
 62
     7
100
AcDbLine
 10
239.036927
 20
172.591747
 30
0.0
 11
239.017904
 21
172.585301
 31
0.0
  0
LINE
  5
707
330
662
100
AcDbEntity
  8
0
  6
CONTINUOUS
 62
     7
100
AcDbLine
 10
239.017904
 20
172.585301
 30
0.0
 11
238.998928
 21
172.578721
 31
0.0
  0
LINE
  5
708
330
662
100
AcDbEntity
  8
0
  6
CONTINUOUS
 62
     7
100
AcDbLine
 10
238.998928
 20
172.578721
 30
0.0
 11
238.979999
 21
172.57201
 31
0.0
  0
LINE
  5
709
330
662
100
AcDbEntity
  8
0
  6
CONTINUOUS
 62
     7
100
AcDbLine
 10
238.979999
 20
172.57201
 30
0.0
 11
238.961117
 21
172.56517
 31
0.0
  0
LINE
  5
70A
330
662
100
AcDbEntity
  8
0
  6
CONTINUOUS
 62
     7
100
AcDbLine
 10
238.961117
 20
172.56517
 30
0.0
 11
238.942282
 21
172.5582
 31
0.0
  0
LINE
  5
70B
330
662
100
AcDbEntity
  8
0
  6
CONTINUOUS
 62
     7
100
AcDbLine
 10
238.942282
 20
172.5582
 30
0.0
 11
238.923495
 21
172.551103
 31
0.0
  0
LINE
  5
70C
330
662
100
AcDbEntity
  8
0
  6
CONTINUOUS
 62
     7
100
AcDbLine
 10
238.923495
 20
172.551103
 30
0.0
 11
238.904755
 21
172.54388
 31
0.0
  0
LINE
  5
70D
330
662
100
AcDbEntity
  8
0
  6
CONTINUOUS
 62
     7
100
AcDbLine
 10
238.904755
 20
172.54388
 30
0.0
 11
238.886063
 21
172.536533
 31
0.0
  0
LINE
  5
70E
330
662
100
AcDbEntity
  8
0
  6
CONTINUOUS
 62
     7
100
AcDbLine
 10
238.886063
 20
172.536533
 30
0.0
 11
238.867418
 21
172.529062
 31
0.0
  0
LINE
  5
70F
330
662
100
AcDbEntity
  8
0
  6
CONTINUOUS
 62
     7
100
AcDbLine
 10
238.867418
 20
172.529062
 30
0.0
 11
238.848822
 21
172.52147
 31
0.0
  0
LINE
  5
710
330
662
100
AcDbEntity
  8
0
  6
CONTINUOUS
 62
     7
100
AcDbLine
 10
238.848822
 20
172.52147
 30
0.0
 11
238.830274
 21
172.513756
 31
0.0
  0
LINE
  5
711
330
662
100
AcDbEntity
  8
0
  6
CONTINUOUS
 62
     7
100
AcDbLine
 10
238.830274
 20
172.513756
 30
0.0
 11
238.811773
 21
172.505924
 31
0.0
  0
LINE
  5
712
330
662
100
AcDbEntity
  8
0
  6
CONTINUOUS
 62
     7
100
AcDbLine
 10
238.811773
 20
172.505924
 30
0.0
 11
238.793321
 21
172.497974
 31
0.0
  0
LINE
  5
713
330
662
100
AcDbEntity
  8
0
  6
CONTINUOUS
 62
     7
100
AcDbLine
 10
238.793321
 20
172.497974
 30
0.0
 11
238.774918
 21
172.489908
 31
0.0
  0
LINE
  5
714
330
662
100
AcDbEntity
  8
0
  6
CONTINUOUS
 62
     7
100
AcDbLine
 10
238.774918
 20
172.489908
 30
0.0
 11
238.756562
 21
172.481727
 31
0.0
  0
LINE
  5
715
330
662
100
AcDbEntity
  8
0
  6
CONTINUOUS
 62
     7
100
AcDbLine
 10
238.756562
 20
172.481727
 30
0.0
 11
238.738256
 21
172.473432
 31
0.0
  0
LINE
  5
716
330
662
100
AcDbEntity
  8
0
  6
CONTINUOUS
 62
     7
100
AcDbLine
 10
238.738256
 20
172.473432
 30
0.0
 11
238.719998
 21
172.465025
 31
0.0
  0
LINE
  5
717
330
662
100
AcDbEntity
  8
0
  6
CONTINUOUS
 62
     7
100
AcDbLine
 10
238.719998
 20
172.465025
 30
0.0
 11
238.701789
 21
172.456507
 31
0.0
  0
LINE
  5
718
330
662
100
AcDbEntity
  8
0
  6
CONTINUOUS
 62
     7
100
AcDbLine
 10
238.701789
 20
172.456507
 30
0.0
 11
238.683629
 21
172.447879
 31
0.0
  0
LINE
  5
719
330
662
100
AcDbEntity
  8
0
  6
CONTINUOUS
 62
     7
100
AcDbLine
 10
238.683629
 20
172.447879
 30
0.0
 11
238.665518
 21
172.439143
 31
0.0
  0
LINE
  5
71A
330
662
100
AcDbEntity
  8
0
  6
CONTINUOUS
 62
     7
100
AcDbLine
 10
238.665518
 20
172.439143
 30
0.0
 11
238.647456
 21
172.4303
 31
0.0
  0
LINE
  5
71B
330
662
100
AcDbEntity
  8
0
  6
CONTINUOUS
 62
     7
100
AcDbLine
 10
238.647456
 20
172.4303
 30
0.0
 11
238.629444
 21
172.421352
 31
0.0
  0
LINE
  5
71C
330
662
100
AcDbEntity
  8
0
  6
CONTINUOUS
 62
     7
100
AcDbLine
 10
238.629444
 20
172.421352
 30
0.0
 11
238.611481
 21
172.4123
 31
0.0
  0
LINE
  5
71D
330
662
100
AcDbEntity
  8
0
  6
CONTINUOUS
 62
     7
100
AcDbLine
 10
238.611481
 20
172.4123
 30
0.0
 11
238.593567
 21
172.403146
 31
0.0
  0
LINE
  5
71E
330
662
100
AcDbEntity
  8
0
  6
CONTINUOUS
 62
     7
100
AcDbLine
 10
238.593567
 20
172.403146
 30
0.0
 11
238.575703
 21
172.39389
 31
0.0
  0
LINE
  5
71F
330
662
100
AcDbEntity
  8
0
  6
CONTINUOUS
 62
     7
100
AcDbLine
 10
238.575703
 20
172.39389
 30
0.0
 11
238.557889
 21
172.384534
 31
0.0
  0
LINE
  5
720
330
662
100
AcDbEntity
  8
0
  6
CONTINUOUS
 62
     7
100
AcDbLine
 10
238.557889
 20
172.384534
 30
0.0
 11
238.540125
 21
172.375079
 31
0.0
  0
LINE
  5
721
330
662
100
AcDbEntity
  8
0
  6
CONTINUOUS
 62
     7
100
AcDbLine
 10
238.540125
 20
172.375079
 30
0.0
 11
238.522411
 21
172.365527
 31
0.0
  0
LINE
  5
722
330
662
100
AcDbEntity
  8
0
  6
CONTINUOUS
 62
     7
100
AcDbLine
 10
238.522411
 20
172.365527
 30
0.0
 11
238.504747
 21
172.355879
 31
0.0
  0
LINE
  5
723
330
662
100
AcDbEntity
  8
0
  6
CONTINUOUS
 62
     7
100
AcDbLine
 10
238.504747
 20
172.355879
 30
0.0
 11
238.487133
 21
172.346137
 31
0.0
  0
LINE
  5
724
330
662
100
AcDbEntity
  8
0
  6
CONTINUOUS
 62
     7
100
AcDbLine
 10
238.487133
 20
172.346137
 30
0.0
 11
238.469569
 21
172.336302
 31
0.0
  0
LINE
  5
725
330
662
100
AcDbEntity
  8
0
  6
CONTINUOUS
 62
     7
100
AcDbLine
 10
238.469569
 20
172.336302
 30
0.0
 11
238.452057
 21
172.326375
 31
0.0
  0
LINE
  5
726
330
662
100
AcDbEntity
  8
0
  6
CONTINUOUS
 62
     7
100
AcDbLine
 10
238.452057
 20
172.326375
 30
0.0
 11
238.434594
 21
172.316358
 31
0.0
  0
LINE
  5
727
330
662
100
AcDbEntity
  8
0
  6
CONTINUOUS
 62
     7
100
AcDbLine
 10
238.434594
 20
172.316358
 30
0.0
 11
238.417183
 21
172.306252
 31
0.0
  0
LINE
  5
728
330
662
100
AcDbEntity
  8
0
  6
CONTINUOUS
 62
     7
100
AcDbLine
 10
238.417183
 20
172.306252
 30
0.0
 11
238.399822
 21
172.296058
 31
0.0
  0
LINE
  5
729
330
662
100
AcDbEntity
  8
0
  6
CONTINUOUS
 62
     7
100
AcDbLine
 10
238.399822
 20
172.296058
 30
0.0
 11
238.382512
 21
172.285778
 31
0.0
  0
LINE
  5
72A
330
662
100
AcDbEntity
  8
0
  6
CONTINUOUS
 62
     7
100
AcDbLine
 10
238.382512
 20
172.285778
 30
0.0
 11
238.365253
 21
172.275413
 31
0.0
  0
LINE
  5
72B
330
662
100
AcDbEntity
  8
0
  6
CONTINUOUS
 62
     7
100
AcDbLine
 10
238.365253
 20
172.275413
 30
0.0
 11
238.348045
 21
172.264964
 31
0.0
  0
LINE
  5
72C
330
662
100
AcDbEntity
  8
0
  6
CONTINUOUS
 62
     7
100
AcDbLine
 10
238.348045
 20
172.264964
 30
0.0
 11
238.330889
 21
172.254433
 31
0.0
  0
LINE
  5
72D
330
662
100
AcDbEntity
  8
0
  6
CONTINUOUS
 62
     7
100
AcDbLine
 10
238.330889
 20
172.254433
 30
0.0
 11
238.313784
 21
172.243822
 31
0.0
  0
LINE
  5
72E
330
662
100
AcDbEntity
  8
0
  6
CONTINUOUS
 62
     7
100
AcDbLine
 10
238.313784
 20
172.243822
 30
0.0
 11
238.296731
 21
172.233131
 31
0.0
  0
LINE
  5
72F
330
662
100
AcDbEntity
  8
0
  6
CONTINUOUS
 62
     7
100
AcDbLine
 10
238.296731
 20
172.233131
 30
0.0
 11
238.279729
 21
172.222362
 31
0.0
  0
LINE
  5
730
330
662
100
AcDbEntity
  8
0
  6
CONTINUOUS
 62
     7
100
AcDbLine
 10
238.279729
 20
172.222362
 30
0.0
 11
238.262779
 21
172.211517
 31
0.0
  0
LINE
  5
731
330
662
100
AcDbEntity
  8
0
  6
CONTINUOUS
 62
     7
100
AcDbLine
 10
238.262779
 20
172.211517
 30
0.0
 11
238.245881
 21
172.200596
 31
0.0
  0
LINE
  5
732
330
662
100
AcDbEntity
  8
0
  6
CONTINUOUS
 62
     7
100
AcDbLine
 10
238.245881
 20
172.200596
 30
0.0
 11
238.229035
 21
172.189601
 31
0.0
  0
LINE
  5
733
330
662
100
AcDbEntity
  8
0
  6
CONTINUOUS
 62
     7
100
AcDbLine
 10
238.229035
 20
172.189601
 30
0.0
 11
238.212241
 21
172.178534
 31
0.0
  0
LINE
  5
734
330
662
100
AcDbEntity
  8
0
  6
CONTINUOUS
 62
     7
100
AcDbLine
 10
238.212241
 20
172.178534
 30
0.0
 11
238.1955
 21
172.167395
 31
0.0
  0
LINE
  5
735
330
662
100
AcDbEntity
  8
0
  6
CONTINUOUS
 62
     7
100
AcDbLine
 10
238.1955
 20
172.167395
 30
0.0
 11
238.17881
 21
172.156187
 31
0.0
  0
LINE
  5
736
330
662
100
AcDbEntity
  8
0
  6
CONTINUOUS
 62
     7
100
AcDbLine
 10
238.17881
 20
172.156187
 30
0.0
 11
238.162174
 21
172.14491
 31
0.0
  0
LINE
  5
737
330
662
100
AcDbEntity
  8
0
  6
CONTINUOUS
 62
     7
100
AcDbLine
 10
238.162174
 20
172.14491
 30
0.0
 11
238.145589
 21
172.133567
 31
0.0
  0
LINE
  5
738
330
662
100
AcDbEntity
  8
0
  6
CONTINUOUS
 62
     7
100
AcDbLine
 10
238.145589
 20
172.133567
 30
0.0
 11
238.129058
 21
172.122157
 31
0.0
  0
LINE
  5
739
330
662
100
AcDbEntity
  8
0
  6
CONTINUOUS
 62
     7
100
AcDbLine
 10
238.129058
 20
172.122157
 30
0.0
 11
238.112579
 21
172.110683
 31
0.0
  0
LINE
  5
73A
330
662
100
AcDbEntity
  8
0
  6
CONTINUOUS
 62
     7
100
AcDbLine
 10
238.112579
 20
172.110683
 30
0.0
 11
238.096154
 21
172.099147
 31
0.0
  0
LINE
  5
73B
330
662
100
AcDbEntity
  8
0
  6
CONTINUOUS
 62
     7
100
AcDbLine
 10
238.096154
 20
172.099147
 30
0.0
 11
238.079781
 21
172.087548
 31
0.0
  0
LINE
  5
73C
330
662
100
AcDbEntity
  8
0
  6
CONTINUOUS
 62
     7
100
AcDbLine
 10
238.079781
 20
172.087548
 30
0.0
 11
238.063461
 21
172.07589
 31
0.0
  0
LINE
  5
73D
330
662
100
AcDbEntity
  8
0
  6
CONTINUOUS
 62
     7
100
AcDbLine
 10
238.063461
 20
172.07589
 30
0.0
 11
238.047195
 21
172.064172
 31
0.0
  0
LINE
  5
73E
330
662
100
AcDbEntity
  8
0
  6
CONTINUOUS
 62
     7
100
AcDbLine
 10
238.047195
 20
172.064172
 30
0.0
 11
238.0306
 21
172.052119
 31
0.0
  0
LINE
  5
73F
330
662
100
AcDbEntity
  8
0
  6
CONTINUOUS
 62
     7
100
AcDbLine
 10
238.0306
 20
172.052119
 30
0.0
 11
238.014058
 21
172.04001
 31
0.0
  0
LINE
  5
740
330
662
100
AcDbEntity
  8
0
  6
CONTINUOUS
 62
     7
100
AcDbLine
 10
238.014058
 20
172.04001
 30
0.0
 11
237.981116
 21
172.015637
 31
0.0
  0
LINE
  5
741
330
662
100
AcDbEntity
  8
0
  6
CONTINUOUS
 62
     7
100
AcDbLine
 10
237.981116
 20
172.015637
 30
0.0
 11
237.948342
 21
171.991083
 31
0.0
  0
LINE
  5
742
330
662
100
AcDbEntity
  8
0
  6
CONTINUOUS
 62
     7
100
AcDbLine
 10
237.948342
 20
171.991083
 30
0.0
 11
237.915708
 21
171.966378
 31
0.0
  0
LINE
  5
743
330
662
100
AcDbEntity
  8
0
  6
CONTINUOUS
 62
     7
100
AcDbLine
 10
237.915708
 20
171.966378
 30
0.0
 11
237.883186
 21
171.941553
 31
0.0
  0
LINE
  5
744
330
662
100
AcDbEntity
  8
0
  6
CONTINUOUS
 62
     7
100
AcDbLine
 10
237.883186
 20
171.941553
 30
0.0
 11
237.850748
 21
171.916638
 31
0.0
  0
LINE
  5
745
330
662
100
AcDbEntity
  8
0
  6
CONTINUOUS
 62
     7
100
AcDbLine
 10
237.850748
 20
171.916638
 30
0.0
 11
237.818366
 21
171.891663
 31
0.0
  0
LINE
  5
746
330
662
100
AcDbEntity
  8
0
  6
CONTINUOUS
 62
     7
100
AcDbLine
 10
237.818366
 20
171.891663
 30
0.0
 11
237.786012
 21
171.866657
 31
0.0
  0
ENDBLK
  5
664
330
662
100
AcDbEntity
  8
0
100
AcDbBlockEnd
  0
BLOCK
  5
749
330
748
100
AcDbEntity
  8
0
100
AcDbBlockBegin
  2
BLKF043
 70
     0
 71
     0
 10
0.0
 20
0.0
 30
0.0
  3
BLKF043
  1

  0
LINE
  5
74C
330
748
100
AcDbEntity
  8
0
  6
CONTINUOUS
 62
     7
100
AcDbLine
 10
236.439324
 20
171.866657
 30
0.0
 11
236.29434
 21
171.96963
 31
0.0
  0
LINE
  5
74D
330
748
100
AcDbEntity
  8
0
  6
CONTINUOUS
 62
     7
100
AcDbLine
 10
236.29434
 20
171.96963
 30
0.0
 11
236.221653
 21
172.020695
 31
0.0
  0
LINE
  5
74E
330
748
100
AcDbEntity
  8
0
  6
CONTINUOUS
 62
     7
100
AcDbLine
 10
236.221653
 20
172.020695
 30
0.0
 11
236.148732
 21
172.071254
 31
0.0
  0
LINE
  5
74F
330
748
100
AcDbEntity
  8
0
  6
CONTINUOUS
 62
     7
100
AcDbLine
 10
236.148732
 20
172.071254
 30
0.0
 11
236.0755
 21
172.121138
 31
0.0
  0
LINE
  5
750
330
748
100
AcDbEntity
  8
0
  6
CONTINUOUS
 62
     7
100
AcDbLine
 10
236.0755
 20
172.121138
 30
0.0
 11
236.001878
 21
172.170179
 31
0.0
  0
LINE
  5
751
330
748
100
AcDbEntity
  8
0
  6
CONTINUOUS
 62
     7
100
AcDbLine
 10
236.001878
 20
172.170179
 30
0.0
 11
235.927788
 21
172.218207
 31
0.0
  0
LINE
  5
752
330
748
100
AcDbEntity
  8
0
  6
CONTINUOUS
 62
     7
100
AcDbLine
 10
235.927788
 20
172.218207
 30
0.0
 11
235.853153
 21
172.265055
 31
0.0
  0
LINE
  5
753
330
748
100
AcDbEntity
  8
0
  6
CONTINUOUS
 62
     7
100
AcDbLine
 10
235.853153
 20
172.265055
 30
0.0
 11
235.777895
 21
172.310553
 31
0.0
  0
LINE
  5
754
330
748
100
AcDbEntity
  8
0
  6
CONTINUOUS
 62
     7
100
AcDbLine
 10
235.777895
 20
172.310553
 30
0.0
 11
235.701935
 21
172.354533
 31
0.0
  0
LINE
  5
755
330
748
100
AcDbEntity
  8
0
  6
CONTINUOUS
 62
     7
100
AcDbLine
 10
235.701935
 20
172.354533
 30
0.0
 11
235.625196
 21
172.396826
 31
0.0
  0
LINE
  5
756
330
748
100
AcDbEntity
  8
0
  6
CONTINUOUS
 62
     7
100
AcDbLine
 10
235.625196
 20
172.396826
 30
0.0
 11
235.5476
 21
172.437264
 31
0.0
  0
LINE
  5
757
330
748
100
AcDbEntity
  8
0
  6
CONTINUOUS
 62
     7
100
AcDbLine
 10
235.5476
 20
172.437264
 30
0.0
 11
235.508457
 21
172.456734
 31
0.0
  0
LINE
  5
758
330
748
100
AcDbEntity
  8
0
  6
CONTINUOUS
 62
     7
100
AcDbLine
 10
235.508457
 20
172.456734
 30
0.0
 11
235.469069
 21
172.475677
 31
0.0
  0
LINE
  5
759
330
748
100
AcDbEntity
  8
0
  6
CONTINUOUS
 62
     7
100
AcDbLine
 10
235.469069
 20
172.475677
 30
0.0
 11
235.429429
 21
172.494072
 31
0.0
  0
LINE
  5
75A
330
748
100
AcDbEntity
  8
0
  6
CONTINUOUS
 62
     7
100
AcDbLine
 10
235.429429
 20
172.494072
 30
0.0
 11
235.389526
 21
172.511898
 31
0.0
  0
LINE
  5
75B
330
748
100
AcDbEntity
  8
0
  6
CONTINUOUS
 62
     7
100
AcDbLine
 10
235.389526
 20
172.511898
 30
0.0
 11
235.349349
 21
172.529133
 31
0.0
  0
LINE
  5
75C
330
748
100
AcDbEntity
  8
0
  6
CONTINUOUS
 62
     7
100
AcDbLine
 10
235.349349
 20
172.529133
 30
0.0
 11
235.308891
 21
172.545756
 31
0.0
  0
LINE
  5
75D
330
748
100
AcDbEntity
  8
0
  6
CONTINUOUS
 62
     7
100
AcDbLine
 10
235.308891
 20
172.545756
 30
0.0
 11
235.26814
 21
172.561748
 31
0.0
  0
LINE
  5
75E
330
748
100
AcDbEntity
  8
0
  6
CONTINUOUS
 62
     7
100
AcDbLine
 10
235.26814
 20
172.561748
 30
0.0
 11
235.227087
 21
172.577085
 31
0.0
  0
LINE
  5
75F
330
748
100
AcDbEntity
  8
0
  6
CONTINUOUS
 62
     7
100
AcDbLine
 10
235.227087
 20
172.577085
 30
0.0
 11
235.169821
 21
172.597182
 31
0.0
  0
LINE
  5
760
330
748
100
AcDbEntity
  8
0
  6
CONTINUOUS
 62
     7
100
AcDbLine
 10
235.169821
 20
172.597182
 30
0.0
 11
235.112001
 21
172.615969
 31
0.0
  0
LINE
  5
761
330
748
100
AcDbEntity
  8
0
  6
CONTINUOUS
 62
     7
100
AcDbLine
 10
235.112001
 20
172.615969
 30
0.0
 11
235.053669
 21
172.633429
 31
0.0
  0
LINE
  5
762
330
748
100
AcDbEntity
  8
0
  6
CONTINUOUS
 62
     7
100
AcDbLine
 10
235.053669
 20
172.633429
 30
0.0
 11
234.994867
 21
172.649541
 31
0.0
  0
LINE
  5
763
330
748
100
AcDbEntity
  8
0
  6
CONTINUOUS
 62
     7
100
AcDbLine
 10
234.994867
 20
172.649541
 30
0.0
 11
234.935638
 21
172.664286
 31
0.0
  0
LINE
  5
764
330
748
100
AcDbEntity
  8
0
  6
CONTINUOUS
 62
     7
100
AcDbLine
 10
234.935638
 20
172.664286
 30
0.0
 11
234.876024
 21
172.677645
 31
0.0
  0
LINE
  5
765
330
748
100
AcDbEntity
  8
0
  6
CONTINUOUS
 62
     7
100
AcDbLine
 10
234.876024
 20
172.677645
 30
0.0
 11
234.816067
 21
172.6896
 31
0.0
  0
LINE
  5
766
330
748
100
AcDbEntity
  8
0
  6
CONTINUOUS
 62
     7
100
AcDbLine
 10
234.816067
 20
172.6896
 30
0.0
 11
234.755808
 21
172.70013
 31
0.0
  0
LINE
  5
767
330
748
100
AcDbEntity
  8
0
  6
CONTINUOUS
 62
     7
100
AcDbLine
 10
234.755808
 20
172.70013
 30
0.0
 11
234.695291
 21
172.709217
 31
0.0
  0
LINE
  5
768
330
748
100
AcDbEntity
  8
0
  6
CONTINUOUS
 62
     7
100
AcDbLine
 10
234.695291
 20
172.709217
 30
0.0
 11
234.634556
 21
172.716842
 31
0.0
  0
LINE
  5
769
330
748
100
AcDbEntity
  8
0
  6
CONTINUOUS
 62
     7
100
AcDbLine
 10
234.634556
 20
172.716842
 30
0.0
 11
234.573647
 21
172.722985
 31
0.0
  0
LINE
  5
76A
330
748
100
AcDbEntity
  8
0
  6
CONTINUOUS
 62
     7
100
AcDbLine
 10
234.573647
 20
172.722985
 30
0.0
 11
234.512605
 21
172.727627
 31
0.0
  0
LINE
  5
76B
330
748
100
AcDbEntity
  8
0
  6
CONTINUOUS
 62
     7
100
AcDbLine
 10
234.512605
 20
172.727627
 30
0.0
 11
234.451472
 21
172.73075
 31
0.0
  0
LINE
  5
76C
330
748
100
AcDbEntity
  8
0
  6
CONTINUOUS
 62
     7
100
AcDbLine
 10
234.451472
 20
172.73075
 30
0.0
 11
234.390291
 21
172.732333
 31
0.0
  0
LINE
  5
76D
330
748
100
AcDbEntity
  8
0
  6
CONTINUOUS
 62
     7
100
AcDbLine
 10
234.390291
 20
172.732333
 30
0.0
 11
234.329103
 21
172.732358
 31
0.0
  0
LINE
  5
76E
330
748
100
AcDbEntity
  8
0
  6
CONTINUOUS
 62
     7
100
AcDbLine
 10
234.329103
 20
172.732358
 30
0.0
 11
234.267951
 21
172.730805
 31
0.0
  0
LINE
  5
76F
330
748
100
AcDbEntity
  8
0
  6
CONTINUOUS
 62
     7
100
AcDbLine
 10
234.267951
 20
172.730805
 30
0.0
 11
234.206606
 21
172.727647
 31
0.0
  0
LINE
  5
770
330
748
100
AcDbEntity
  8
0
  6
CONTINUOUS
 62
     7
100
AcDbLine
 10
234.206606
 20
172.727647
 30
0.0
 11
234.145372
 21
172.722906
 31
0.0
  0
LINE
  5
771
330
748
100
AcDbEntity
  8
0
  6
CONTINUOUS
 62
     7
100
AcDbLine
 10
234.145372
 20
172.722906
 30
0.0
 11
234.084284
 21
172.716612
 31
0.0
  0
LINE
  5
772
330
748
100
AcDbEntity
  8
0
  6
CONTINUOUS
 62
     7
100
AcDbLine
 10
234.084284
 20
172.716612
 30
0.0
 11
234.023373
 21
172.708793
 31
0.0
  0
LINE
  5
773
330
748
100
AcDbEntity
  8
0
  6
CONTINUOUS
 62
     7
100
AcDbLine
 10
234.023373
 20
172.708793
 30
0.0
 11
233.962674
 21
172.699477
 31
0.0
  0
LINE
  5
774
330
748
100
AcDbEntity
  8
0
  6
CONTINUOUS
 62
     7
100
AcDbLine
 10
233.962674
 20
172.699477
 30
0.0
 11
233.902219
 21
172.688694
 31
0.0
  0
LINE
  5
775
330
748
100
AcDbEntity
  8
0
  6
CONTINUOUS
 62
     7
100
AcDbLine
 10
233.902219
 20
172.688694
 30
0.0
 11
233.842042
 21
172.676472
 31
0.0
  0
LINE
  5
776
330
748
100
AcDbEntity
  8
0
  6
CONTINUOUS
 62
     7
100
AcDbLine
 10
233.842042
 20
172.676472
 30
0.0
 11
233.782176
 21
172.66284
 31
0.0
  0
LINE
  5
777
330
748
100
AcDbEntity
  8
0
  6
CONTINUOUS
 62
     7
100
AcDbLine
 10
233.782176
 20
172.66284
 30
0.0
 11
233.722654
 21
172.647825
 31
0.0
  0
LINE
  5
778
330
748
100
AcDbEntity
  8
0
  6
CONTINUOUS
 62
     7
100
AcDbLine
 10
233.722654
 20
172.647825
 30
0.0
 11
233.66351
 21
172.631458
 31
0.0
  0
LINE
  5
779
330
748
100
AcDbEntity
  8
0
  6
CONTINUOUS
 62
     7
100
AcDbLine
 10
233.66351
 20
172.631458
 30
0.0
 11
233.604776
 21
172.613766
 31
0.0
  0
LINE
  5
77A
330
748
100
AcDbEntity
  8
0
  6
CONTINUOUS
 62
     7
100
AcDbLine
 10
233.604776
 20
172.613766
 30
0.0
 11
233.546486
 21
172.594778
 31
0.0
  0
LINE
  5
77B
330
748
100
AcDbEntity
  8
0
  6
CONTINUOUS
 62
     7
100
AcDbLine
 10
233.546486
 20
172.594778
 30
0.0
 11
233.488673
 21
172.574522
 31
0.0
  0
LINE
  5
77C
330
748
100
AcDbEntity
  8
0
  6
CONTINUOUS
 62
     7
100
AcDbLine
 10
233.488673
 20
172.574522
 30
0.0
 11
233.431371
 21
172.553028
 31
0.0
  0
LINE
  5
77D
330
748
100
AcDbEntity
  8
0
  6
CONTINUOUS
 62
     7
100
AcDbLine
 10
233.431371
 20
172.553028
 30
0.0
 11
233.374611
 21
172.530324
 31
0.0
  0
LINE
  5
77E
330
748
100
AcDbEntity
  8
0
  6
CONTINUOUS
 62
     7
100
AcDbLine
 10
233.374611
 20
172.530324
 30
0.0
 11
233.318429
 21
172.506439
 31
0.0
  0
LINE
  5
77F
330
748
100
AcDbEntity
  8
0
  6
CONTINUOUS
 62
     7
100
AcDbLine
 10
233.318429
 20
172.506439
 30
0.0
 11
233.249325
 21
172.475106
 31
0.0
  0
LINE
  5
780
330
748
100
AcDbEntity
  8
0
  6
CONTINUOUS
 62
     7
100
AcDbLine
 10
233.249325
 20
172.475106
 30
0.0
 11
233.181107
 21
172.442098
 31
0.0
  0
LINE
  5
781
330
748
100
AcDbEntity
  8
0
  6
CONTINUOUS
 62
     7
100
AcDbLine
 10
233.181107
 20
172.442098
 30
0.0
 11
233.113716
 21
172.407528
 31
0.0
  0
LINE
  5
782
330
748
100
AcDbEntity
  8
0
  6
CONTINUOUS
 62
     7
100
AcDbLine
 10
233.113716
 20
172.407528
 30
0.0
 11
233.047092
 21
172.371505
 31
0.0
  0
LINE
  5
783
330
748
100
AcDbEntity
  8
0
  6
CONTINUOUS
 62
     7
100
AcDbLine
 10
233.047092
 20
172.371505
 30
0.0
 11
232.981178
 21
172.334143
 31
0.0
  0
LINE
  5
784
330
748
100
AcDbEntity
  8
0
  6
CONTINUOUS
 62
     7
100
AcDbLine
 10
232.981178
 20
172.334143
 30
0.0
 11
232.915914
 21
172.295552
 31
0.0
  0
LINE
  5
785
330
748
100
AcDbEntity
  8
0
  6
CONTINUOUS
 62
     7
100
AcDbLine
 10
232.915914
 20
172.295552
 30
0.0
 11
232.85124
 21
172.255845
 31
0.0
  0
LINE
  5
786
330
748
100
AcDbEntity
  8
0
  6
CONTINUOUS
 62
     7
100
AcDbLine
 10
232.85124
 20
172.255845
 30
0.0
 11
232.787098
 21
172.215133
 31
0.0
  0
LINE
  5
787
330
748
100
AcDbEntity
  8
0
  6
CONTINUOUS
 62
     7
100
AcDbLine
 10
232.787098
 20
172.215133
 30
0.0
 11
232.723429
 21
172.173528
 31
0.0
  0
LINE
  5
788
330
748
100
AcDbEntity
  8
0
  6
CONTINUOUS
 62
     7
100
AcDbLine
 10
232.723429
 20
172.173528
 30
0.0
 11
232.660173
 21
172.131141
 31
0.0
  0
LINE
  5
789
330
748
100
AcDbEntity
  8
0
  6
CONTINUOUS
 62
     7
100
AcDbLine
 10
232.660173
 20
172.131141
 30
0.0
 11
232.597271
 21
172.088084
 31
0.0
  0
LINE
  5
78A
330
748
100
AcDbEntity
  8
0
  6
CONTINUOUS
 62
     7
100
AcDbLine
 10
232.597271
 20
172.088084
 30
0.0
 11
232.534665
 21
172.044468
 31
0.0
  0
LINE
  5
78B
330
748
100
AcDbEntity
  8
0
  6
CONTINUOUS
 62
     7
100
AcDbLine
 10
232.534665
 20
172.044468
 30
0.0
 11
232.472295
 21
172.000406
 31
0.0
  0
LINE
  5
78C
330
748
100
AcDbEntity
  8
0
  6
CONTINUOUS
 62
     7
100
AcDbLine
 10
232.472295
 20
172.000406
 30
0.0
 11
232.410102
 21
171.956009
 31
0.0
  0
LINE
  5
78D
330
748
100
AcDbEntity
  8
0
  6
CONTINUOUS
 62
     7
100
AcDbLine
 10
232.410102
 20
171.956009
 30
0.0
 11
232.286012
 21
171.866657
 31
0.0
  0
ENDBLK
  5
74A
330
748
100
AcDbEntity
  8
0
100
AcDbBlockEnd
  0
BLOCK
  5
7A6
330
7A5
100
AcDbEntity
  8
0
100
AcDbBlockBegin
  2
BLKF044
 70
     0
 71
     0
 10
0.0
 20
0.0
 30
0.0
  3
BLKF044
  1

  0
LINE
  5
7A9
330
7A5
100
AcDbEntity
  8
0
  6
CONTINUOUS
 62
     7
100
AcDbLine
 10
232.286012
 20
158.898713
 30
0.0
 11
232.372481
 21
158.861547
 31
0.0
  0
LINE
  5
7AA
330
7A5
100
AcDbEntity
  8
0
  6
CONTINUOUS
 62
     7
100
AcDbLine
 10
232.372481
 20
158.861547
 30
0.0
 11
232.415745
 21
158.843047
 31
0.0
  0
LINE
  5
7AB
330
7A5
100
AcDbEntity
  8
0
  6
CONTINUOUS
 62
     7
100
AcDbLine
 10
232.415745
 20
158.843047
 30
0.0
 11
232.459044
 21
158.824649
 31
0.0
  0
LINE
  5
7AC
330
7A5
100
AcDbEntity
  8
0
  6
CONTINUOUS
 62
     7
100
AcDbLine
 10
232.459044
 20
158.824649
 30
0.0
 11
232.502391
 21
158.806384
 31
0.0
  0
LINE
  5
7AD
330
7A5
100
AcDbEntity
  8
0
  6
CONTINUOUS
 62
     7
100
AcDbLine
 10
232.502391
 20
158.806384
 30
0.0
 11
232.545796
 21
158.788287
 31
0.0
  0
LINE
  5
7AE
330
7A5
100
AcDbEntity
  8
0
  6
CONTINUOUS
 62
     7
100
AcDbLine
 10
232.545796
 20
158.788287
 30
0.0
 11
232.589272
 21
158.770392
 31
0.0
  0
LINE
  5
7AF
330
7A5
100
AcDbEntity
  8
0
  6
CONTINUOUS
 62
     7
100
AcDbLine
 10
232.589272
 20
158.770392
 30
0.0
 11
232.632831
 21
158.752731
 31
0.0
  0
LINE
  5
7B0
330
7A5
100
AcDbEntity
  8
0
  6
CONTINUOUS
 62
     7
100
AcDbLine
 10
232.632831
 20
158.752731
 30
0.0
 11
232.654645
 21
158.743999
 31
0.0
  0
LINE
  5
7B1
330
7A5
100
AcDbEntity
  8
0
  6
CONTINUOUS
 62
     7
100
AcDbLine
 10
232.654645
 20
158.743999
 30
0.0
 11
232.676484
 21
158.735338
 31
0.0
  0
LINE
  5
7B2
330
7A5
100
AcDbEntity
  8
0
  6
CONTINUOUS
 62
     7
100
AcDbLine
 10
232.676484
 20
158.735338
 30
0.0
 11
232.69835
 21
158.726753
 31
0.0
  0
LINE
  5
7B3
330
7A5
100
AcDbEntity
  8
0
  6
CONTINUOUS
 62
     7
100
AcDbLine
 10
232.69835
 20
158.726753
 30
0.0
 11
232.720244
 21
158.718248
 31
0.0
  0
LINE
  5
7B4
330
7A5
100
AcDbEntity
  8
0
  6
CONTINUOUS
 62
     7
100
AcDbLine
 10
232.720244
 20
158.718248
 30
0.0
 11
232.742167
 21
158.709826
 31
0.0
  0
LINE
  5
7B5
330
7A5
100
AcDbEntity
  8
0
  6
CONTINUOUS
 62
     7
100
AcDbLine
 10
232.742167
 20
158.709826
 30
0.0
 11
232.764121
 21
158.701492
 31
0.0
  0
LINE
  5
7B6
330
7A5
100
AcDbEntity
  8
0
  6
CONTINUOUS
 62
     7
100
AcDbLine
 10
232.764121
 20
158.701492
 30
0.0
 11
232.786108
 21
158.693251
 31
0.0
  0
LINE
  5
7B7
330
7A5
100
AcDbEntity
  8
0
  6
CONTINUOUS
 62
     7
100
AcDbLine
 10
232.786108
 20
158.693251
 30
0.0
 11
232.808129
 21
158.685106
 31
0.0
  0
LINE
  5
7B8
330
7A5
100
AcDbEntity
  8
0
  6
CONTINUOUS
 62
     7
100
AcDbLine
 10
232.808129
 20
158.685106
 30
0.0
 11
232.830185
 21
158.677062
 31
0.0
  0
LINE
  5
7B9
330
7A5
100
AcDbEntity
  8
0
  6
CONTINUOUS
 62
     7
100
AcDbLine
 10
232.830185
 20
158.677062
 30
0.0
 11
232.852277
 21
158.669122
 31
0.0
  0
LINE
  5
7BA
330
7A5
100
AcDbEntity
  8
0
  6
CONTINUOUS
 62
     7
100
AcDbLine
 10
232.852277
 20
158.669122
 30
0.0
 11
232.874409
 21
158.661292
 31
0.0
  0
LINE
  5
7BB
330
7A5
100
AcDbEntity
  8
0
  6
CONTINUOUS
 62
     7
100
AcDbLine
 10
232.874409
 20
158.661292
 30
0.0
 11
232.89658
 21
158.653574
 31
0.0
  0
LINE
  5
7BC
330
7A5
100
AcDbEntity
  8
0
  6
CONTINUOUS
 62
     7
100
AcDbLine
 10
232.89658
 20
158.653574
 30
0.0
 11
232.918792
 21
158.645974
 31
0.0
  0
LINE
  5
7BD
330
7A5
100
AcDbEntity
  8
0
  6
CONTINUOUS
 62
     7
100
AcDbLine
 10
232.918792
 20
158.645974
 30
0.0
 11
232.941047
 21
158.638496
 31
0.0
  0
LINE
  5
7BE
330
7A5
100
AcDbEntity
  8
0
  6
CONTINUOUS
 62
     7
100
AcDbLine
 10
232.941047
 20
158.638496
 30
0.0
 11
232.963346
 21
158.631143
 31
0.0
  0
LINE
  5
7BF
330
7A5
100
AcDbEntity
  8
0
  6
CONTINUOUS
 62
     7
100
AcDbLine
 10
232.963346
 20
158.631143
 30
0.0
 11
232.985692
 21
158.623921
 31
0.0
  0
LINE
  5
7C0
330
7A5
100
AcDbEntity
  8
0
  6
CONTINUOUS
 62
     7
100
AcDbLine
 10
232.985692
 20
158.623921
 30
0.0
 11
233.005865
 21
158.617522
 31
0.0
  0
LINE
  5
7C1
330
7A5
100
AcDbEntity
  8
0
  6
CONTINUOUS
 62
     7
100
AcDbLine
 10
233.005865
 20
158.617522
 30
0.0
 11
233.026068
 21
158.611205
 31
0.0
  0
LINE
  5
7C2
330
7A5
100
AcDbEntity
  8
0
  6
CONTINUOUS
 62
     7
100
AcDbLine
 10
233.026068
 20
158.611205
 30
0.0
 11
233.06652
 21
158.598708
 31
0.0
  0
ENDBLK
  5
7A7
330
7A5
100
AcDbEntity
  8
0
100
AcDbBlockEnd
  0
BLOCK
  5
7C5
330
7C4
100
AcDbEntity
  8
0
100
AcDbBlockBegin
  2
BLKF045
 70
     0
 71
     0
 10
0.0
 20
0.0
 30
0.0
  3
BLKF045
  1

  0
LINE
  5
7C8
330
7C4
100
AcDbEntity
  8
0
  6
CONTINUOUS
 62
     7
100
AcDbLine
 10
234.362668
 20
169.098707
 30
0.0
 11
234.25335
 21
169.0859
 31
0.0
  0
LINE
  5
7C9
330
7C4
100
AcDbEntity
  8
0
  6
CONTINUOUS
 62
     7
100
AcDbLine
 10
234.25335
 20
169.0859
 30
0.0
 11
234.144095
 21
169.072892
 31
0.0
  0
LINE
  5
7CA
330
7C4
100
AcDbEntity
  8
0
  6
CONTINUOUS
 62
     7
100
AcDbLine
 10
234.144095
 20
169.072892
 30
0.0
 11
234.034964
 21
169.059479
 31
0.0
  0
LINE
  5
7CB
330
7C4
100
AcDbEntity
  8
0
  6
CONTINUOUS
 62
     7
100
AcDbLine
 10
234.034964
 20
169.059479
 30
0.0
 11
233.980466
 21
169.052558
 31
0.0
  0
LINE
  5
7CC
330
7C4
100
AcDbEntity
  8
0
  6
CONTINUOUS
 62
     7
100
AcDbLine
 10
233.980466
 20
169.052558
 30
0.0
 11
233.926022
 21
169.04546
 31
0.0
  0
LINE
  5
7CD
330
7C4
100
AcDbEntity
  8
0
  6
CONTINUOUS
 62
     7
100
AcDbLine
 10
233.926022
 20
169.04546
 30
0.0
 11
233.871641
 21
169.03816
 31
0.0
  0
LINE
  5
7CE
330
7C4
100
AcDbEntity
  8
0
  6
CONTINUOUS
 62
     7
100
AcDbLine
 10
233.871641
 20
169.03816
 30
0.0
 11
233.81733
 21
169.030632
 31
0.0
  0
LINE
  5
7CF
330
7C4
100
AcDbEntity
  8
0
  6
CONTINUOUS
 62
     7
100
AcDbLine
 10
233.81733
 20
169.030632
 30
0.0
 11
233.763097
 21
169.022852
 31
0.0
  0
LINE
  5
7D0
330
7C4
100
AcDbEntity
  8
0
  6
CONTINUOUS
 62
     7
100
AcDbLine
 10
233.763097
 20
169.022852
 30
0.0
 11
233.70895
 21
169.014794
 31
0.0
  0
LINE
  5
7D1
330
7C4
100
AcDbEntity
  8
0
  6
CONTINUOUS
 62
     7
100
AcDbLine
 10
233.70895
 20
169.014794
 30
0.0
 11
233.654898
 21
169.006433
 31
0.0
  0
LINE
  5
7D2
330
7C4
100
AcDbEntity
  8
0
  6
CONTINUOUS
 62
     7
100
AcDbLine
 10
233.654898
 20
169.006433
 30
0.0
 11
233.600947
 21
168.997743
 31
0.0
  0
LINE
  5
7D3
330
7C4
100
AcDbEntity
  8
0
  6
CONTINUOUS
 62
     7
100
AcDbLine
 10
233.600947
 20
168.997743
 30
0.0
 11
233.547105
 21
168.9887
 31
0.0
  0
LINE
  5
7D4
330
7C4
100
AcDbEntity
  8
0
  6
CONTINUOUS
 62
     7
100
AcDbLine
 10
233.547105
 20
168.9887
 30
0.0
 11
233.493381
 21
168.979278
 31
0.0
  0
LINE
  5
7D5
330
7C4
100
AcDbEntity
  8
0
  6
CONTINUOUS
 62
     7
100
AcDbLine
 10
233.493381
 20
168.979278
 30
0.0
 11
233.439782
 21
168.969451
 31
0.0
  0
LINE
  5
7D6
330
7C4
100
AcDbEntity
  8
0
  6
CONTINUOUS
 62
     7
100
AcDbLine
 10
233.439782
 20
168.969451
 30
0.0
 11
233.386316
 21
168.959195
 31
0.0
  0
LINE
  5
7D7
330
7C4
100
AcDbEntity
  8
0
  6
CONTINUOUS
 62
     7
100
AcDbLine
 10
233.386316
 20
168.959195
 30
0.0
 11
233.332991
 21
168.948484
 31
0.0
  0
LINE
  5
7D8
330
7C4
100
AcDbEntity
  8
0
  6
CONTINUOUS
 62
     7
100
AcDbLine
 10
233.332991
 20
168.948484
 30
0.0
 11
233.279815
 21
168.937294
 31
0.0
  0
LINE
  5
7D9
330
7C4
100
AcDbEntity
  8
0
  6
CONTINUOUS
 62
     7
100
AcDbLine
 10
233.279815
 20
168.937294
 30
0.0
 11
233.226795
 21
168.925598
 31
0.0
  0
LINE
  5
7DA
330
7C4
100
AcDbEntity
  8
0
  6
CONTINUOUS
 62
     7
100
AcDbLine
 10
233.226795
 20
168.925598
 30
0.0
 11
233.173939
 21
168.913371
 31
0.0
  0
LINE
  5
7DB
330
7C4
100
AcDbEntity
  8
0
  6
CONTINUOUS
 62
     7
100
AcDbLine
 10
233.173939
 20
168.913371
 30
0.0
 11
233.121256
 21
168.900589
 31
0.0
  0
LINE
  5
7DC
330
7C4
100
AcDbEntity
  8
0
  6
CONTINUOUS
 62
     7
100
AcDbLine
 10
233.121256
 20
168.900589
 30
0.0
 11
233.068752
 21
168.887225
 31
0.0
  0
LINE
  5
7DD
330
7C4
100
AcDbEntity
  8
0
  6
CONTINUOUS
 62
     7
100
AcDbLine
 10
233.068752
 20
168.887225
 30
0.0
 11
233.016437
 21
168.873255
 31
0.0
  0
LINE
  5
7DE
330
7C4
100
AcDbEntity
  8
0
  6
CONTINUOUS
 62
     7
100
AcDbLine
 10
233.016437
 20
168.873255
 30
0.0
 11
232.964316
 21
168.858654
 31
0.0
  0
LINE
  5
7DF
330
7C4
100
AcDbEntity
  8
0
  6
CONTINUOUS
 62
     7
100
AcDbLine
 10
232.964316
 20
168.858654
 30
0.0
 11
232.9124
 21
168.843396
 31
0.0
  0
LINE
  5
7E0
330
7C4
100
AcDbEntity
  8
0
  6
CONTINUOUS
 62
     7
100
AcDbLine
 10
232.9124
 20
168.843396
 30
0.0
 11
232.860694
 21
168.827456
 31
0.0
  0
LINE
  5
7E1
330
7C4
100
AcDbEntity
  8
0
  6
CONTINUOUS
 62
     7
100
AcDbLine
 10
232.860694
 20
168.827456
 30
0.0
 11
232.809208
 21
168.810808
 31
0.0
  0
LINE
  5
7E2
330
7C4
100
AcDbEntity
  8
0
  6
CONTINUOUS
 62
     7
100
AcDbLine
 10
232.809208
 20
168.810808
 30
0.0
 11
232.757948
 21
168.793427
 31
0.0
  0
LINE
  5
7E3
330
7C4
100
AcDbEntity
  8
0
  6
CONTINUOUS
 62
     7
100
AcDbLine
 10
232.757948
 20
168.793427
 30
0.0
 11
232.706923
 21
168.775289
 31
0.0
  0
LINE
  5
7E4
330
7C4
100
AcDbEntity
  8
0
  6
CONTINUOUS
 62
     7
100
AcDbLine
 10
232.706923
 20
168.775289
 30
0.0
 11
232.656141
 21
168.756368
 31
0.0
  0
LINE
  5
7E5
330
7C4
100
AcDbEntity
  8
0
  6
CONTINUOUS
 62
     7
100
AcDbLine
 10
232.656141
 20
168.756368
 30
0.0
 11
232.609407
 21
168.738173
 31
0.0
  0
LINE
  5
7E6
330
7C4
100
AcDbEntity
  8
0
  6
CONTINUOUS
 62
     7
100
AcDbLine
 10
232.609407
 20
168.738173
 30
0.0
 11
232.56286
 21
168.719373
 31
0.0
  0
LINE
  5
7E7
330
7C4
100
AcDbEntity
  8
0
  6
CONTINUOUS
 62
     7
100
AcDbLine
 10
232.56286
 20
168.719373
 30
0.0
 11
232.516473
 21
168.700055
 31
0.0
  0
LINE
  5
7E8
330
7C4
100
AcDbEntity
  8
0
  6
CONTINUOUS
 62
     7
100
AcDbLine
 10
232.516473
 20
168.700055
 30
0.0
 11
232.470221
 21
168.680305
 31
0.0
  0
LINE
  5
7E9
330
7C4
100
AcDbEntity
  8
0
  6
CONTINUOUS
 62
     7
100
AcDbLine
 10
232.470221
 20
168.680305
 30
0.0
 11
232.424075
 21
168.660209
 31
0.0
  0
LINE
  5
7EA
330
7C4
100
AcDbEntity
  8
0
  6
CONTINUOUS
 62
     7
100
AcDbLine
 10
232.424075
 20
168.660209
 30
0.0
 11
232.378009
 21
168.639855
 31
0.0
  0
LINE
  5
7EB
330
7C4
100
AcDbEntity
  8
0
  6
CONTINUOUS
 62
     7
100
AcDbLine
 10
232.378009
 20
168.639855
 30
0.0
 11
232.286012
 21
168.598713
 31
0.0
  0
ENDBLK
  5
7C6
330
7C4
100
AcDbEntity
  8
0
100
AcDbBlockEnd
  0
BLOCK
  5
7F0
330
7EF
100
AcDbEntity
  8
0
100
AcDbBlockBegin
  2
BLKF046
 70
     0
 71
     0
 10
0.0
 20
0.0
 30
0.0
  3
BLKF046
  1

  0
LINE
  5
7F3
330
7EF
100
AcDbEntity
  8
0
  6
CONTINUOUS
 62
     7
100
AcDbLine
 10
239.862668
 20
169.098707
 30
0.0
 11
239.75335
 21
169.0859
 31
0.0
  0
LINE
  5
7F4
330
7EF
100
AcDbEntity
  8
0
  6
CONTINUOUS
 62
     7
100
AcDbLine
 10
239.75335
 20
169.0859
 30
0.0
 11
239.644095
 21
169.072892
 31
0.0
  0
LINE
  5
7F5
330
7EF
100
AcDbEntity
  8
0
  6
CONTINUOUS
 62
     7
100
AcDbLine
 10
239.644095
 20
169.072892
 30
0.0
 11
239.534964
 21
169.059479
 31
0.0
  0
LINE
  5
7F6
330
7EF
100
AcDbEntity
  8
0
  6
CONTINUOUS
 62
     7
100
AcDbLine
 10
239.534964
 20
169.059479
 30
0.0
 11
239.480466
 21
169.052558
 31
0.0
  0
LINE
  5
7F7
330
7EF
100
AcDbEntity
  8
0
  6
CONTINUOUS
 62
     7
100
AcDbLine
 10
239.480466
 20
169.052558
 30
0.0
 11
239.426022
 21
169.04546
 31
0.0
  0
LINE
  5
7F8
330
7EF
100
AcDbEntity
  8
0
  6
CONTINUOUS
 62
     7
100
AcDbLine
 10
239.426022
 20
169.04546
 30
0.0
 11
239.37164
 21
169.03816
 31
0.0
  0
LINE
  5
7F9
330
7EF
100
AcDbEntity
  8
0
  6
CONTINUOUS
 62
     7
100
AcDbLine
 10
239.37164
 20
169.03816
 30
0.0
 11
239.317329
 21
169.030632
 31
0.0
  0
LINE
  5
7FA
330
7EF
100
AcDbEntity
  8
0
  6
CONTINUOUS
 62
     7
100
AcDbLine
 10
239.317329
 20
169.030632
 30
0.0
 11
239.263097
 21
169.022852
 31
0.0
  0
LINE
  5
7FB
330
7EF
100
AcDbEntity
  8
0
  6
CONTINUOUS
 62
     7
100
AcDbLine
 10
239.263097
 20
169.022852
 30
0.0
 11
239.20895
 21
169.014794
 31
0.0
  0
LINE
  5
7FC
330
7EF
100
AcDbEntity
  8
0
  6
CONTINUOUS
 62
     7
100
AcDbLine
 10
239.20895
 20
169.014794
 30
0.0
 11
239.154897
 21
169.006433
 31
0.0
  0
LINE
  5
7FD
330
7EF
100
AcDbEntity
  8
0
  6
CONTINUOUS
 62
     7
100
AcDbLine
 10
239.154897
 20
169.006433
 30
0.0
 11
239.100946
 21
168.997743
 31
0.0
  0
LINE
  5
7FE
330
7EF
100
AcDbEntity
  8
0
  6
CONTINUOUS
 62
     7
100
AcDbLine
 10
239.100946
 20
168.997743
 30
0.0
 11
239.047105
 21
168.9887
 31
0.0
  0
LINE
  5
7FF
330
7EF
100
AcDbEntity
  8
0
  6
CONTINUOUS
 62
     7
100
AcDbLine
 10
239.047105
 20
168.9887
 30
0.0
 11
238.993381
 21
168.979278
 31
0.0
  0
LINE
  5
800
330
7EF
100
AcDbEntity
  8
0
  6
CONTINUOUS
 62
     7
100
AcDbLine
 10
238.993381
 20
168.979278
 30
0.0
 11
238.939782
 21
168.969451
 31
0.0
  0
LINE
  5
801
330
7EF
100
AcDbEntity
  8
0
  6
CONTINUOUS
 62
     7
100
AcDbLine
 10
238.939782
 20
168.969451
 30
0.0
 11
238.886316
 21
168.959195
 31
0.0
  0
LINE
  5
802
330
7EF
100
AcDbEntity
  8
0
  6
CONTINUOUS
 62
     7
100
AcDbLine
 10
238.886316
 20
168.959195
 30
0.0
 11
238.832991
 21
168.948485
 31
0.0
  0
LINE
  5
803
330
7EF
100
AcDbEntity
  8
0
  6
CONTINUOUS
 62
     7
100
AcDbLine
 10
238.832991
 20
168.948485
 30
0.0
 11
238.779815
 21
168.937294
 31
0.0
  0
LINE
  5
804
330
7EF
100
AcDbEntity
  8
0
  6
CONTINUOUS
 62
     7
100
AcDbLine
 10
238.779815
 20
168.937294
 30
0.0
 11
238.726795
 21
168.925598
 31
0.0
  0
LINE
  5
805
330
7EF
100
AcDbEntity
  8
0
  6
CONTINUOUS
 62
     7
100
AcDbLine
 10
238.726795
 20
168.925598
 30
0.0
 11
238.673939
 21
168.913371
 31
0.0
  0
LINE
  5
806
330
7EF
100
AcDbEntity
  8
0
  6
CONTINUOUS
 62
     7
100
AcDbLine
 10
238.673939
 20
168.913371
 30
0.0
 11
238.621256
 21
168.900589
 31
0.0
  0
LINE
  5
807
330
7EF
100
AcDbEntity
  8
0
  6
CONTINUOUS
 62
     7
100
AcDbLine
 10
238.621256
 20
168.900589
 30
0.0
 11
238.568752
 21
168.887225
 31
0.0
  0
LINE
  5
808
330
7EF
100
AcDbEntity
  8
0
  6
CONTINUOUS
 62
     7
100
AcDbLine
 10
238.568752
 20
168.887225
 30
0.0
 11
238.516436
 21
168.873256
 31
0.0
  0
LINE
  5
809
330
7EF
100
AcDbEntity
  8
0
  6
CONTINUOUS
 62
     7
100
AcDbLine
 10
238.516436
 20
168.873256
 30
0.0
 11
238.464316
 21
168.858654
 31
0.0
  0
LINE
  5
80A
330
7EF
100
AcDbEntity
  8
0
  6
CONTINUOUS
 62
     7
100
AcDbLine
 10
238.464316
 20
168.858654
 30
0.0
 11
238.412399
 21
168.843396
 31
0.0
  0
LINE
  5
80B
330
7EF
100
AcDbEntity
  8
0
  6
CONTINUOUS
 62
     7
100
AcDbLine
 10
238.412399
 20
168.843396
 30
0.0
 11
238.360694
 21
168.827456
 31
0.0
  0
LINE
  5
80C
330
7EF
100
AcDbEntity
  8
0
  6
CONTINUOUS
 62
     7
100
AcDbLine
 10
238.360694
 20
168.827456
 30
0.0
 11
238.309207
 21
168.810808
 31
0.0
  0
LINE
  5
80D
330
7EF
100
AcDbEntity
  8
0
  6
CONTINUOUS
 62
     7
100
AcDbLine
 10
238.309207
 20
168.810808
 30
0.0
 11
238.257948
 21
168.793427
 31
0.0
  0
LINE
  5
80E
330
7EF
100
AcDbEntity
  8
0
  6
CONTINUOUS
 62
     7
100
AcDbLine
 10
238.257948
 20
168.793427
 30
0.0
 11
238.206923
 21
168.775289
 31
0.0
  0
LINE
  5
80F
330
7EF
100
AcDbEntity
  8
0
  6
CONTINUOUS
 62
     7
100
AcDbLine
 10
238.206923
 20
168.775289
 30
0.0
 11
238.156141
 21
168.756368
 31
0.0
  0
LINE
  5
810
330
7EF
100
AcDbEntity
  8
0
  6
CONTINUOUS
 62
     7
100
AcDbLine
 10
238.156141
 20
168.756368
 30
0.0
 11
238.109407
 21
168.738173
 31
0.0
  0
LINE
  5
811
330
7EF
100
AcDbEntity
  8
0
  6
CONTINUOUS
 62
     7
100
AcDbLine
 10
238.109407
 20
168.738173
 30
0.0
 11
238.06286
 21
168.719373
 31
0.0
  0
LINE
  5
812
330
7EF
100
AcDbEntity
  8
0
  6
CONTINUOUS
 62
     7
100
AcDbLine
 10
238.06286
 20
168.719373
 30
0.0
 11
238.016473
 21
168.700055
 31
0.0
  0
LINE
  5
813
330
7EF
100
AcDbEntity
  8
0
  6
CONTINUOUS
 62
     7
100
AcDbLine
 10
238.016473
 20
168.700055
 30
0.0
 11
237.97022
 21
168.680305
 31
0.0
  0
LINE
  5
814
330
7EF
100
AcDbEntity
  8
0
  6
CONTINUOUS
 62
     7
100
AcDbLine
 10
237.97022
 20
168.680305
 30
0.0
 11
237.924075
 21
168.660209
 31
0.0
  0
LINE
  5
815
330
7EF
100
AcDbEntity
  8
0
  6
CONTINUOUS
 62
     7
100
AcDbLine
 10
237.924075
 20
168.660209
 30
0.0
 11
237.878009
 21
168.639855
 31
0.0
  0
LINE
  5
816
330
7EF
100
AcDbEntity
  8
0
  6
CONTINUOUS
 62
     7
100
AcDbLine
 10
237.878009
 20
168.639855
 30
0.0
 11
237.786012
 21
168.598713
 31
0.0
  0
ENDBLK
  5
7F1
330
7EF
100
AcDbEntity
  8
0
100
AcDbBlockEnd
  0
BLOCK
  5
82C
330
82B
100
AcDbEntity
  8
0
100
AcDbBlockBegin
  2
BLKF047
 70
     0
 71
     0
 10
0.0
 20
0.0
 30
0.0
  3
BLKF047
  1

  0
LINE
  5
82F
330
82B
100
AcDbEntity
  8
0
  6
CONTINUOUS
 62
     7
100
AcDbLine
 10
249.294694
 20
167.382525
 30
0.0
 11
249.438445
 21
167.281868
 31
0.0
  0
LINE
  5
830
330
82B
100
AcDbEntity
  8
0
  6
CONTINUOUS
 62
     7
100
AcDbLine
 10
249.438445
 20
167.281868
 30
0.0
 11
249.856925
 21
166.988837
 31
0.0
  0
LINE
  5
831
330
82B
100
AcDbEntity
  8
0
  6
CONTINUOUS
 62
     7
100
AcDbLine
 10
249.856925
 20
166.988837
 30
0.0
 11
250.512951
 21
166.529493
 31
0.0
  0
LINE
  5
832
330
82B
100
AcDbEntity
  8
0
  6
CONTINUOUS
 62
     7
100
AcDbLine
 10
250.512951
 20
166.529493
 30
0.0
 11
251.34823
 21
165.944623
 31
0.0
  0
LINE
  5
833
330
82B
100
AcDbEntity
  8
0
  6
CONTINUOUS
 62
     7
100
AcDbLine
 10
251.34823
 20
165.944623
 30
0.0
 11
252.288545
 21
165.2862
 31
0.0
  0
LINE
  5
834
330
82B
100
AcDbEntity
  8
0
  6
CONTINUOUS
 62
     7
100
AcDbLine
 10
252.288545
 20
165.2862
 30
0.0
 11
253.250345
 21
164.612742
 31
0.0
  0
LINE
  5
835
330
82B
100
AcDbEntity
  8
0
  6
CONTINUOUS
 62
     7
100
AcDbLine
 10
253.250345
 20
164.612742
 30
0.0
 11
254.148171
 21
163.984077
 31
0.0
  0
LINE
  5
836
330
82B
100
AcDbEntity
  8
0
  6
CONTINUOUS
 62
     7
100
AcDbLine
 10
254.148171
 20
163.984077
 30
0.0
 11
254.902245
 21
163.456069
 31
0.0
  0
LINE
  5
837
330
82B
100
AcDbEntity
  8
0
  6
CONTINUOUS
 62
     7
100
AcDbLine
 10
254.902245
 20
163.456069
 30
0.0
 11
255.445566
 21
163.075628
 31
0.0
  0
LINE
  5
838
330
82B
100
AcDbEntity
  8
0
  6
CONTINUOUS
 62
     7
100
AcDbLine
 10
255.445566
 20
163.075628
 30
0.0
 11
255.729855
 21
162.876578
 31
0.0
  0
LINE
  5
839
330
82B
100
AcDbEntity
  8
0
  6
CONTINUOUS
 62
     7
100
AcDbLine
 10
255.729855
 20
162.876578
 30
0.0
 11
255.765996
 21
162.851261
 31
0.0
  0
ENDBLK
  5
82D
330
82B
100
AcDbEntity
  8
0
100
AcDbBlockEnd
  0
BLOCK
  5
83B
330
83A
100
AcDbEntity
  8
0
100
AcDbBlockBegin
  2
BLKF048
 70
     0
 71
     0
 10
0.0
 20
0.0
 30
0.0
  3
BLKF048
  1

  0
ARC
  5
83E
330
83A
100
AcDbEntity
  8
CSLAYER3
  6
CONTINUOUS
 62
     3
100
AcDbCircle
 10
237.112668
 20
143.09817
 30
0.0
 40
38.08671609672887
100
AcDbArc
 50
55.0
 51
90.0
  0
LINE
  5
83F
330
83A
100
AcDbEntity
  8
CSLAYER3
  6
CONTINUOUS
 62
     3
100
AcDbLine
 10
257.586241
 20
175.847662
 30
0.0
 11
258.958311
 21
174.296982
 31
0.0
  0
LINE
  5
840
330
83A
100
AcDbEntity
  8
CSLAYER3
  6
CONTINUOUS
 62
     3
100
AcDbLine
 10
258.958311
 20
174.296982
 30
0.0
 11
256.994724
 21
174.953876
 31
0.0
  0
LINE
  5
841
330
83A
100
AcDbEntity
  8
CSLAYER3
  6
CONTINUOUS
 62
     3
100
AcDbLine
 10
258.958311
 20
174.296982
 30
0.0
 11
257.290482
 21
175.400769
 31
0.0
  0
LINE
  5
842
330
83A
100
AcDbEntity
  8
CSLAYER3
  6
CONTINUOUS
 62
     3
100
AcDbLine
 10
239.097924
 20
180.596715
 30
0.0
 11
237.112668
 21
181.184886
 31
0.0
  0
LINE
  5
843
330
83A
100
AcDbEntity
  8
CSLAYER3
  6
CONTINUOUS
 62
     3
100
AcDbLine
 10
237.112668
 20
181.184886
 30
0.0
 11
239.126036
 21
181.668143
 31
0.0
  0
LINE
  5
844
330
83A
100
AcDbEntity
  8
CSLAYER3
  6
CONTINUOUS
 62
     3
100
AcDbLine
 10
237.112668
 20
181.184886
 30
0.0
 11
239.11198
 21
181.132429
 31
0.0
  0
TEXT
  5
845
330
83A
100
AcDbEntity
  8
CSLAYER3
 62
     3
100
AcDbText
 10
246.285004
 20
180.73172
 30
0.0
 40
3.0
  1
35°
 50
341.132599
 41
0.801818
  7
ED_VECTOR
 72
     5
 11
252.246501
 21
178.694432
 31
0.0
100
AcDbText
  0
ENDBLK
  5
83C
330
83A
100
AcDbEntity
  8
0
100
AcDbBlockEnd
  0
ENDSEC
  0
SECTION
  2
ENTITIES
  0
TEXT
  5
6F
330
1F
100
AcDbEntity
  8
CSLAYER3
 62
     3
100
AcDbText
 10
20.0
 20
286.504944
 30
0.0
 40
12.7
  1
BM322
 41
0.720588
  7
ED_VECTOR
 72
     5
 11
64.450002
 21
286.504944
 31
0.0
100
AcDbText
  0
LINE
  5
70
330
1F
100
AcDbEntity
  8
0
  6
CONTINUOUS
 62
     7
100
AcDbLine
 10
177.693122
 20
197.458962
 30
0.0
 11
177.693122
 21
218.019808
 31
0.0
  0
LINE
  5
71
330
1F
100
AcDbEntity
  8
0
  6
CONTINUOUS
 62
     7
100
AcDbLine
 10
171.19312
 20
218.019808
 30
0.0
 11
171.19312
 21
198.077464
 31
0.0
  0
LINE
  5
72
330
1F
100
AcDbEntity
  8
0
  6
CONTINUOUS
 62
     7
100
AcDbLine
 10
183.49312
 20
253.319809
 30
0.0
 11
183.49312
 21
257.519806
 31
0.0
  0
LINE
  5
73
330
1F
100
AcDbEntity
  8
0
  6
CONTINUOUS
 62
     7
100
AcDbLine
 10
165.393121
 20
257.519806
 30
0.0
 11
165.393121
 21
253.319809
 31
0.0
  0
LINE
  5
74
330
1F
100
AcDbEntity
  8
0
  6
CONTINUOUS
 62
     7
100
AcDbLine
 10
183.49312
 20
260.019803
 30
0.0
 11
183.49312
 21
265.019799
 31
0.0
  0
LINE
  5
75
330
1F
100
AcDbEntity
  8
0
  6
CONTINUOUS
 62
     7
100
AcDbLine
 10
165.393121
 20
265.019799
 30
0.0
 11
165.393121
 21
260.019803
 31
0.0
  0
LINE
  5
76
330
1F
100
AcDbEntity
  8
0
  6
CONTINUOUS
 62
     7
100
AcDbLine
 10
165.49312
 20
235.869804
 30
0.0
 11
165.943121
 21
227.069804
 31
0.0
  0
LINE
  5
77
330
1F
100
AcDbEntity
  8
0
  6
CONTINUOUS
 62
     7
100
AcDbLine
 10
182.943122
 20
227.069804
 30
0.0
 11
183.393122
 21
235.869804
 31
0.0
  0
LINE
  5
78
330
1F
100
AcDbEntity
  8
0
  6
CONTINUOUS
 62
     7
100
AcDbLine
 10
183.393122
 20
243.619809
 30
0.0
 11
183.393122
 21
248.619804
 31
0.0
  0
LINE
  5
79
330
1F
100
AcDbEntity
  8
0
  6
CONTINUOUS
 62
     7
100
AcDbLine
 10
183.393122
 20
235.869804
 30
0.0
 11
183.393122
 21
237.669805
 31
0.0
  0
LINE
  5
7A
330
1F
100
AcDbEntity
  8
0
  6
CONTINUOUS
 62
     7
100
AcDbLine
 10
165.49312
 20
237.669805
 30
0.0
 11
165.49312
 21
235.869804
 31
0.0
  0
LINE
  5
7B
330
1F
100
AcDbEntity
  8
0
  6
CONTINUOUS
 62
     7
100
AcDbLine
 10
165.49312
 20
248.619804
 30
0.0
 11
165.49312
 21
243.619809
 31
0.0
  0
LINE
  5
7C
330
1F
100
AcDbEntity
  8
0
  6
CONTINUOUS
 62
     7
100
AcDbLine
 10
183.393122
 20
248.619804
 30
0.0
 11
182.893121
 21
249.119798
 31
0.0
  0
LINE
  5
7D
330
1F
100
AcDbEntity
  8
0
  6
CONTINUOUS
 62
     7
100
AcDbLine
 10
165.993121
 20
249.119798
 30
0.0
 11
165.49312
 21
248.619804
 31
0.0
  0
LINE
  5
7E
330
1F
100
AcDbEntity
  8
0
  6
CONTINUOUS
 62
     7
100
AcDbLine
 10
183.243119
 20
252.319807
 30
0.0
 11
183.243119
 21
253.319809
 31
0.0
  0
LINE
  5
7F
330
1F
100
AcDbEntity
  8
0
  6
CONTINUOUS
 62
     7
100
AcDbLine
 10
165.643121
 20
253.319809
 30
0.0
 11
165.643121
 21
252.319807
 31
0.0
  0
LINE
  5
80
330
1F
100
AcDbEntity
  8
0
  6
CONTINUOUS
 62
     7
100
AcDbLine
 10
183.243119
 20
257.519806
 30
0.0
 11
183.243119
 21
260.019803
 31
0.0
  0
LINE
  5
81
330
1F
100
AcDbEntity
  8
0
  6
CONTINUOUS
 62
     7
100
AcDbLine
 10
165.643121
 20
260.019803
 30
0.0
 11
165.643121
 21
257.519806
 31
0.0
  0
LINE
  5
82
330
1F
100
AcDbEntity
  8
0
  6
CONTINUOUS
 62
     7
100
AcDbLine
 10
183.243119
 20
265.019799
 30
0.0
 11
183.243119
 21
266.119802
 31
0.0
  0
LINE
  5
83
330
1F
100
AcDbEntity
  8
0
  6
CONTINUOUS
 62
     7
100
AcDbLine
 10
165.643121
 20
266.119802
 30
0.0
 11
165.643121
 21
265.019799
 31
0.0
  0
LINE
  5
84
330
1F
100
AcDbEntity
  8
0
  6
CONTINUOUS
 62
     7
100
AcDbLine
 10
182.893121
 20
249.119798
 30
0.0
 11
182.893121
 21
252.319807
 31
0.0
  0
LINE
  5
85
330
1F
100
AcDbEntity
  8
0
  6
CONTINUOUS
 62
     7
100
AcDbLine
 10
165.993121
 20
252.319807
 30
0.0
 11
165.993121
 21
249.119798
 31
0.0
  0
LINE
  5
86
330
1F
100
AcDbEntity
  8
0
  6
CONTINUOUS
 62
     7
100
AcDbLine
 10
182.443121
 20
266.119802
 30
0.0
 11
182.443121
 21
270.519802
 31
0.0
  0
LINE
  5
87
330
1F
100
AcDbEntity
  8
0
  6
CONTINUOUS
 62
     7
100
AcDbLine
 10
166.443122
 20
270.519802
 30
0.0
 11
166.443122
 21
266.119802
 31
0.0
  0
LINE
  5
88
330
1F
100
AcDbEntity
  8
0
  6
CONTINUOUS
 62
     7
100
AcDbLine
 10
181.943119
 20
221.019799
 30
0.0
 11
181.943119
 21
227.069804
 31
0.0
  0
LINE
  5
89
330
1F
100
AcDbEntity
  8
0
  6
CONTINUOUS
 62
     7
100
AcDbLine
 10
166.943119
 20
227.069804
 30
0.0
 11
166.943119
 21
221.019799
 31
0.0
  0
LINE
  5
8A
330
1F
100
AcDbEntity
  8
0
  6
CONTINUOUS
 62
     7
100
AcDbLine
 10
181.29312
 20
270.519802
 30
0.0
 11
181.29312
 21
275.019804
 31
0.0
  0
LINE
  5
8B
330
1F
100
AcDbEntity
  8
0
  6
CONTINUOUS
 62
     7
100
AcDbLine
 10
167.593122
 20
275.019804
 30
0.0
 11
167.593122
 21
270.519802
 31
0.0
  0
LINE
  5
8C
330
1F
100
AcDbEntity
  8
0
  6
CONTINUOUS
 62
     7
100
AcDbLine
 10
174.556774
 20
218.019808
 30
0.0
 11
174.329468
 21
218.019808
 31
0.0
  0
LINE
  5
8D
330
1F
100
AcDbEntity
  8
0
  6
CONTINUOUS
 62
     7
100
AcDbLine
 10
174.329468
 20
218.019808
 30
0.0
 11
174.329468
 21
221.019799
 31
0.0
  0
LINE
  5
8E
330
1F
100
AcDbEntity
  8
0
  6
CONTINUOUS
 62
     7
100
AcDbLine
 10
174.556774
 20
221.019799
 30
0.0
 11
174.329468
 21
221.019799
 31
0.0
  0
LINE
  5
8F
330
1F
100
AcDbEntity
  8
0
  6
CONTINUOUS
 62
     7
100
AcDbLine
 10
174.556774
 20
221.019799
 30
0.0
 11
174.556774
 21
218.019808
 31
0.0
  0
LINE
  5
90
330
1F
100
AcDbEntity
  8
0
  6
CONTINUOUS
 62
     7
100
AcDbLine
 10
182.82947
 20
218.019808
 30
0.0
 11
182.82947
 21
221.019799
 31
0.0
  0
LINE
  5
91
330
1F
100
AcDbEntity
  8
0
  6
CONTINUOUS
 62
     7
100
AcDbLine
 10
182.82947
 20
221.019799
 30
0.0
 11
174.556774
 21
221.019799
 31
0.0
  0
LINE
  5
92
330
1F
100
AcDbEntity
  8
0
  6
CONTINUOUS
 62
     7
100
AcDbLine
 10
182.82947
 20
218.019808
 30
0.0
 11
174.556774
 21
218.019808
 31
0.0
  0
LINE
  5
93
330
1F
100
AcDbEntity
  8
0
  6
CONTINUOUS
 62
     7
100
AcDbLine
 10
166.056772
 20
221.019799
 30
0.0
 11
166.056772
 21
218.019808
 31
0.0
  0
LINE
  5
94
330
1F
100
AcDbEntity
  8
0
  6
CONTINUOUS
 62
     7
100
AcDbLine
 10
174.329468
 20
221.019799
 30
0.0
 11
166.056772
 21
221.019799
 31
0.0
  0
LINE
  5
95
330
1F
100
AcDbEntity
  8
0
  6
CONTINUOUS
 62
     7
100
AcDbLine
 10
174.329468
 20
218.019808
 30
0.0
 11
166.056772
 21
218.019808
 31
0.0
  0
LINE
  5
96
330
1F
100
AcDbEntity
  8
0
  6
CONTINUOUS
 62
     7
100
AcDbLine
 10
174.443119
 20
257.519806
 30
0.0
 11
165.393121
 21
257.519806
 31
0.0
  0
LINE
  5
97
330
1F
100
AcDbEntity
  8
0
  6
CONTINUOUS
 62
     7
100
AcDbLine
 10
183.49312
 20
257.519806
 30
0.0
 11
174.443119
 21
257.519806
 31
0.0
  0
LINE
  5
98
330
1F
100
AcDbEntity
  8
0
  6
CONTINUOUS
 62
     7
100
AcDbLine
 10
174.443119
 20
253.319809
 30
0.0
 11
165.393121
 21
253.319809
 31
0.0
  0
LINE
  5
99
330
1F
100
AcDbEntity
  8
0
  6
CONTINUOUS
 62
     7
100
AcDbLine
 10
183.49312
 20
253.319809
 30
0.0
 11
174.443119
 21
253.319809
 31
0.0
  0
LINE
  5
9A
330
1F
100
AcDbEntity
  8
0
  6
CONTINUOUS
 62
     7
100
AcDbLine
 10
174.443119
 20
265.019799
 30
0.0
 11
165.393121
 21
265.019799
 31
0.0
  0
LINE
  5
9B
330
1F
100
AcDbEntity
  8
0
  6
CONTINUOUS
 62
     7
100
AcDbLine
 10
183.49312
 20
265.019799
 30
0.0
 11
174.443119
 21
265.019799
 31
0.0
  0
LINE
  5
9C
330
1F
100
AcDbEntity
  8
0
  6
CONTINUOUS
 62
     7
100
AcDbLine
 10
174.443119
 20
260.019803
 30
0.0
 11
165.393121
 21
260.019803
 31
0.0
  0
LINE
  5
9D
330
1F
100
AcDbEntity
  8
0
  6
CONTINUOUS
 62
     7
100
AcDbLine
 10
183.49312
 20
260.019803
 30
0.0
 11
174.443119
 21
260.019803
 31
0.0
  0
LINE
  5
9E
330
1F
100
AcDbEntity
  8
0
  6
CONTINUOUS
 62
     7
100
AcDbLine
 10
174.443119
 20
235.869804
 30
0.0
 11
165.49312
 21
235.869804
 31
0.0
  0
LINE
  5
9F
330
1F
100
AcDbEntity
  8
0
  6
CONTINUOUS
 62
     7
100
AcDbLine
 10
183.393122
 20
235.869804
 30
0.0
 11
174.443119
 21
235.869804
 31
0.0
  0
LINE
  5
A0
330
1F
100
AcDbEntity
  8
0
  6
CONTINUOUS
 62
     7
100
AcDbLine
 10
174.443119
 20
227.069804
 30
0.0
 11
165.943121
 21
227.069804
 31
0.0
  0
LINE
  5
A1
330
1F
100
AcDbEntity
  8
0
  6
CONTINUOUS
 62
     7
100
AcDbLine
 10
182.943122
 20
227.069804
 30
0.0
 11
174.443119
 21
227.069804
 31
0.0
  0
LINE
  5
A2
330
1F
100
AcDbEntity
  8
0
  6
CONTINUOUS
 62
     7
100
AcDbLine
 10
174.443119
 20
248.619804
 30
0.0
 11
165.49312
 21
248.619804
 31
0.0
  0
LINE
  5
A3
330
1F
100
AcDbEntity
  8
0
  6
CONTINUOUS
 62
     7
100
AcDbLine
 10
183.393122
 20
248.619804
 30
0.0
 11
174.443119
 21
248.619804
 31
0.0
  0
LINE
  5
A4
330
1F
100
AcDbEntity
  8
0
  6
CONTINUOUS
 62
     7
100
AcDbLine
 10
166.468122
 20
237.669805
 30
0.0
 11
165.49312
 21
237.669805
 31
0.0
  0
LINE
  5
A5
330
1F
100
AcDbEntity
  8
0
  6
CONTINUOUS
 62
     7
100
AcDbLine
 10
166.468122
 20
243.619809
 30
0.0
 11
166.468122
 21
237.669805
 31
0.0
  0
LINE
  5
A6
330
1F
100
AcDbEntity
  8
0
  6
CONTINUOUS
 62
     7
100
AcDbLine
 10
165.49312
 20
243.619809
 30
0.0
 11
166.468122
 21
243.619809
 31
0.0
  0
LINE
  5
A7
330
1F
100
AcDbEntity
  8
0
  6
CONTINUOUS
 62
     7
100
AcDbLine
 10
182.41812
 20
243.619809
 30
0.0
 11
183.393122
 21
243.619809
 31
0.0
  0
LINE
  5
A8
330
1F
100
AcDbEntity
  8
0
  6
CONTINUOUS
 62
     7
100
AcDbLine
 10
182.41812
 20
237.669805
 30
0.0
 11
182.41812
 21
243.619809
 31
0.0
  0
LINE
  5
A9
330
1F
100
AcDbEntity
  8
0
  6
CONTINUOUS
 62
     7
100
AcDbLine
 10
183.393122
 20
237.669805
 30
0.0
 11
182.41812
 21
237.669805
 31
0.0
  0
LINE
  5
AA
330
1F
100
AcDbEntity
  8
0
  6
CONTINUOUS
 62
     7
100
AcDbLine
 10
174.443119
 20
249.119798
 30
0.0
 11
165.993121
 21
249.119798
 31
0.0
  0
LINE
  5
AB
330
1F
100
AcDbEntity
  8
0
  6
CONTINUOUS
 62
     7
100
AcDbLine
 10
182.893121
 20
249.119798
 30
0.0
 11
174.443119
 21
249.119798
 31
0.0
  0
LINE
  5
AC
330
1F
100
AcDbEntity
  8
0
  6
CONTINUOUS
 62
     7
100
AcDbLine
 10
174.443119
 20
252.319807
 30
0.0
 11
165.643121
 21
252.319807
 31
0.0
  0
LINE
  5
AD
330
1F
100
AcDbEntity
  8
0
  6
CONTINUOUS
 62
     7
100
AcDbLine
 10
183.243119
 20
252.319807
 30
0.0
 11
174.443119
 21
252.319807
 31
0.0
  0
LINE
  5
AE
330
1F
100
AcDbEntity
  8
0
  6
CONTINUOUS
 62
     7
100
AcDbLine
 10
174.443119
 20
266.119802
 30
0.0
 11
165.643121
 21
266.119802
 31
0.0
  0
LINE
  5
AF
330
1F
100
AcDbEntity
  8
0
  6
CONTINUOUS
 62
     7
100
AcDbLine
 10
183.243119
 20
266.119802
 30
0.0
 11
174.443119
 21
266.119802
 31
0.0
  0
LINE
  5
B0
330
1F
100
AcDbEntity
  8
0
  6
CONTINUOUS
 62
     7
100
AcDbLine
 10
174.443119
 20
270.519802
 30
0.0
 11
166.443122
 21
270.519802
 31
0.0
  0
LINE
  5
B1
330
1F
100
AcDbEntity
  8
0
  6
CONTINUOUS
 62
     7
100
AcDbLine
 10
182.443121
 20
270.519802
 30
0.0
 11
174.443119
 21
270.519802
 31
0.0
  0
LINE
  5
B2
330
1F
100
AcDbEntity
  8
0
  6
CONTINUOUS
 62
     7
100
AcDbLine
 10
174.443119
 20
275.019804
 30
0.0
 11
167.593122
 21
275.019804
 31
0.0
  0
LINE
  5
B3
330
1F
100
AcDbEntity
  8
0
  6
CONTINUOUS
 62
     7
100
AcDbLine
 10
181.29312
 20
275.019804
 30
0.0
 11
174.443119
 21
275.019804
 31
0.0
  0
LINE
  5
B4
330
1F
100
AcDbEntity
  8
0
  6
CONTINUOUS
 62
     7
100
AcDbLine
 10
182.943122
 20
221.019799
 30
0.0
 11
182.943122
 21
218.019808
 31
0.0
  0
LINE
  5
B5
330
1F
100
AcDbEntity
  8
0
  6
CONTINUOUS
 62
     7
100
AcDbLine
 10
182.943122
 20
221.019799
 30
0.0
 11
182.82947
 21
221.019799
 31
0.0
  0
LINE
  5
B6
330
1F
100
AcDbEntity
  8
0
  6
CONTINUOUS
 62
     7
100
AcDbLine
 10
182.943122
 20
218.019808
 30
0.0
 11
182.82947
 21
218.019808
 31
0.0
  0
LINE
  5
B7
330
1F
100
AcDbEntity
  8
0
  6
CONTINUOUS
 62
     7
100
AcDbLine
 10
165.943121
 20
218.019808
 30
0.0
 11
165.943121
 21
221.019799
 31
0.0
  0
LINE
  5
B8
330
1F
100
AcDbEntity
  8
0
  6
CONTINUOUS
 62
     7
100
AcDbLine
 10
166.056772
 20
221.019799
 30
0.0
 11
165.943121
 21
221.019799
 31
0.0
  0
LINE
  5
B9
330
1F
100
AcDbEntity
  8
0
  6
CONTINUOUS
 62
     7
100
AcDbLine
 10
166.056772
 20
218.019808
 30
0.0
 11
165.943121
 21
218.019808
 31
0.0
  0
LINE
  5
BA
330
1F
100
AcDbEntity
  8
0
  6
CONTINUOUS
 62
     7
100
AcDbLine
 10
89.021617
 20
145.871972
 30
0.0
 11
89.34312
 21
145.871972
 31
0.0
  0
LINE
  5
BB
330
1F
100
AcDbEntity
  8
0
  6
CONTINUOUS
 62
     7
100
AcDbLine
 10
89.34312
 20
155.271967
 30
0.0
 11
89.021617
 21
155.271967
 31
0.0
  0
LINE
  5
BC
330
1F
100
AcDbEntity
  8
0
  6
CONTINUOUS
 62
     7
100
AcDbLine
 10
89.34312
 20
145.871972
 30
0.0
 11
89.443122
 21
145.971974
 31
0.0
  0
LINE
  5
BD
330
1F
100
AcDbEntity
  8
0
  6
CONTINUOUS
 62
     7
100
AcDbLine
 10
89.443122
 20
155.171966
 30
0.0
 11
89.34312
 21
155.271967
 31
0.0
  0
LINE
  5
BE
330
1F
100
AcDbEntity
  8
0
  6
CONTINUOUS
 62
     7
100
AcDbLine
 10
91.94312
 20
145.971974
 30
0.0
 11
92.043121
 21
145.971974
 31
0.0
  0
LINE
  5
BF
330
1F
100
AcDbEntity
  8
0
  6
CONTINUOUS
 62
     7
100
AcDbLine
 10
89.443122
 20
145.971974
 30
0.0
 11
89.54312
 21
145.971974
 31
0.0
  0
LINE
  5
C0
330
1F
100
AcDbEntity
  8
0
  6
CONTINUOUS
 62
     7
100
AcDbLine
 10
89.54312
 20
155.171966
 30
0.0
 11
89.443122
 21
155.171966
 31
0.0
  0
LINE
  5
C1
330
1F
100
AcDbEntity
  8
0
  6
CONTINUOUS
 62
     7
100
AcDbLine
 10
92.043121
 20
155.171966
 30
0.0
 11
91.94312
 21
155.171966
 31
0.0
  0
LINE
  5
C2
330
1F
100
AcDbEntity
  8
0
  6
CONTINUOUS
 62
     7
100
AcDbLine
 10
167.843119
 20
161.521961
 30
0.0
 11
167.743121
 21
161.42196
 31
0.0
  0
LINE
  5
C3
330
1F
100
AcDbEntity
  8
0
  6
CONTINUOUS
 62
     7
100
AcDbLine
 10
167.743121
 20
139.721965
 30
0.0
 11
167.843119
 21
139.621963
 31
0.0
  0
LINE
  5
C4
330
1F
100
AcDbEntity
  8
0
  6
CONTINUOUS
 62
     7
100
AcDbLine
 10
168.243122
 20
161.521961
 30
0.0
 11
167.843119
 21
161.521961
 31
0.0
  0
LINE
  5
C5
330
1F
100
AcDbEntity
  8
0
  6
CONTINUOUS
 62
     7
100
AcDbLine
 10
167.843119
 20
139.621963
 30
0.0
 11
168.243122
 21
139.621963
 31
0.0
  0
LINE
  5
C6
330
1F
100
AcDbEntity
  8
0
  6
CONTINUOUS
 62
     7
100
AcDbLine
 10
168.243122
 20
139.621963
 30
0.0
 11
168.34312
 21
139.721965
 31
0.0
  0
LINE
  5
C7
330
1F
100
AcDbEntity
  8
0
  6
CONTINUOUS
 62
     7
100
AcDbLine
 10
168.34312
 20
161.42196
 30
0.0
 11
168.243122
 21
161.521961
 31
0.0
  0
LINE
  5
C8
330
1F
100
AcDbEntity
  8
0
  6
CONTINUOUS
 62
     7
100
AcDbLine
 10
168.34312
 20
139.721965
 30
0.0
 11
180.343122
 21
139.721965
 31
0.0
  0
LINE
  5
C9
330
1F
100
AcDbEntity
  8
0
  6
CONTINUOUS
 62
     7
100
AcDbLine
 10
180.343122
 20
139.721965
 30
0.0
 11
180.543122
 21
139.921968
 31
0.0
  0
LINE
  5
CA
330
1F
100
AcDbEntity
  8
0
  6
CONTINUOUS
 62
     7
100
AcDbLine
 10
92.243121
 20
161.471968
 30
0.0
 11
92.043121
 21
161.271965
 31
0.0
  0
LINE
  5
CB
330
1F
100
AcDbEntity
  8
0
  6
CONTINUOUS
 62
     7
100
AcDbLine
 10
92.043121
 20
139.87196
 30
0.0
 11
92.243121
 21
139.671972
 31
0.0
  0
LINE
  5
CC
330
1F
100
AcDbEntity
  8
0
  6
CONTINUOUS
 62
     7
100
AcDbLine
 10
94.343119
 20
139.671972
 30
0.0
 11
94.443121
 21
139.771973
 31
0.0
  0
LINE
  5
CD
330
1F
100
AcDbEntity
  8
0
  6
CONTINUOUS
 62
     7
100
AcDbLine
 10
94.443121
 20
161.371966
 30
0.0
 11
94.343119
 21
161.471968
 31
0.0
  0
LINE
  5
CE
330
1F
100
AcDbEntity
  8
0
  6
CONTINUOUS
 62
     7
100
AcDbLine
 10
94.443121
 20
141.621967
 30
0.0
 11
94.643121
 21
141.621967
 31
0.0
  0
LINE
  5
CF
330
1F
100
AcDbEntity
  8
0
  6
CONTINUOUS
 62
     7
100
AcDbLine
 10
94.643121
 20
159.521972
 30
0.0
 11
94.443121
 21
159.521972
 31
0.0
  0
LINE
  5
D0
330
1F
100
AcDbEntity
  8
0
  6
CONTINUOUS
 62
     7
100
AcDbLine
 10
99.143122
 20
139.57197
 30
0.0
 11
156.14312
 21
139.57197
 31
0.0
  0
LINE
  5
D1
330
1F
100
AcDbEntity
  8
0
  6
CONTINUOUS
 62
     7
100
AcDbLine
 10
156.14312
 20
161.57197
 30
0.0
 11
99.143122
 21
161.57197
 31
0.0
  0
LINE
  5
D2
330
1F
100
AcDbEntity
  8
0
  6
CONTINUOUS
 62
     7
100
AcDbLine
 10
95.989385
 20
139.581969
 30
0.0
 11
99.143122
 21
139.581969
 31
0.0
  0
LINE
  5
D3
330
1F
100
AcDbEntity
  8
0
  6
CONTINUOUS
 62
     7
100
AcDbLine
 10
99.143122
 20
161.561971
 30
0.0
 11
95.989385
 21
161.561971
 31
0.0
  0
LINE
  5
D4
330
1F
100
AcDbEntity
  8
0
  6
CONTINUOUS
 62
     7
100
AcDbLine
 10
167.64312
 20
139.581969
 30
0.0
 11
167.743121
 21
139.68197
 31
0.0
  0
LINE
  5
D5
330
1F
100
AcDbEntity
  8
0
  6
CONTINUOUS
 62
     7
100
AcDbLine
 10
167.743121
 20
161.461969
 30
0.0
 11
167.64312
 21
161.561971
 31
0.0
  0
LINE
  5
D6
330
1F
100
AcDbEntity
  8
0
  6
CONTINUOUS
 62
     7
100
AcDbLine
 10
156.14312
 20
139.581969
 30
0.0
 11
167.64312
 21
139.581969
 31
0.0
  0
LINE
  5
D7
330
1F
100
AcDbEntity
  8
0
  6
CONTINUOUS
 62
     7
100
AcDbLine
 10
167.64312
 20
161.561971
 30
0.0
 11
156.14312
 21
161.561971
 31
0.0
  0
LINE
  5
D8
330
1F
100
AcDbEntity
  8
0
  6
CONTINUOUS
 62
     7
100
AcDbLine
 10
95.989385
 20
161.561971
 30
0.0
 11
94.643121
 21
161.071961
 31
0.0
  0
LINE
  5
D9
330
1F
100
AcDbEntity
  8
0
  6
CONTINUOUS
 62
     7
100
AcDbLine
 10
94.643121
 20
140.071963
 30
0.0
 11
95.989385
 21
139.581969
 31
0.0
  0
LINE
  5
DA
330
1F
100
AcDbEntity
  8
0
  6
CONTINUOUS
 62
     7
100
AcDbLine
 10
84.67202
 20
144.671967
 30
0.0
 11
88.221618
 21
144.671967
 31
0.0
  0
LINE
  5
DB
330
1F
100
AcDbEntity
  8
0
  6
CONTINUOUS
 62
     7
100
AcDbLine
 10
88.221618
 20
156.471973
 30
0.0
 11
84.67202
 21
156.471973
 31
0.0
  0
ARC
  5
DC
330
1F
100
AcDbEntity
  8
0
  6
CONTINUOUS
 62
     7
100
AcDbCircle
 10
81.080546
 20
155.471675
 30
0.0
 40
1.000297787517966
100
AcDbArc
 50
90.004685
 51
119.99563
  0
ARC
  5
DD
330
1F
100
AcDbEntity
  8
0
  6
CONTINUOUS
 62
     7
100
AcDbCircle
 10
81.080449
 20
145.671904
 30
0.0
 40
0.9999376034023201
100
AcDbArc
 50
239.998842
 51
270.000843
  0
LINE
  5
DE
330
1F
100
AcDbEntity
  8
0
  6
CONTINUOUS
 62
     7
100
AcDbLine
 10
81.080464
 20
144.671967
 30
0.0
 11
81.37202
 21
144.671967
 31
0.0
  0
LINE
  5
DF
330
1F
100
AcDbEntity
  8
0
  6
CONTINUOUS
 62
     7
100
AcDbLine
 10
81.37202
 20
156.471973
 30
0.0
 11
81.080464
 21
156.471973
 31
0.0
  0
LINE
  5
E0
330
1F
100
AcDbEntity
  8
0
  6
CONTINUOUS
 62
     7
100
AcDbLine
 10
81.37202
 20
144.671967
 30
0.0
 11
81.521616
 21
144.821962
 31
0.0
  0
LINE
  5
E1
330
1F
100
AcDbEntity
  8
0
  6
CONTINUOUS
 62
     7
100
AcDbLine
 10
81.521616
 20
156.321963
 30
0.0
 11
81.37202
 21
156.471973
 31
0.0
  0
ARC
  5
E2
330
1F
100
AcDbEntity
  8
0
  6
CONTINUOUS
 62
     7
100
AcDbCircle
 10
88.221613
 20
155.671969
 30
0.0
 40
0.8000040079713999
100
AcDbArc
 50
0.000384
 51
89.999616
  0
ARC
  5
E3
330
1F
100
AcDbEntity
  8
0
  6
CONTINUOUS
 62
     7
100
AcDbCircle
 10
88.221613
 20
145.471971
 30
0.0
 40
0.800004007971407
100
AcDbArc
 50
270.000384
 51
359.999616
  0
LINE
  5
E4
330
1F
100
AcDbEntity
  8
0
  6
CONTINUOUS
 62
     7
100
AcDbLine
 10
84.67202
 20
156.471973
 30
0.0
 11
84.521619
 21
156.321963
 31
0.0
  0
LINE
  5
E5
330
1F
100
AcDbEntity
  8
0
  6
CONTINUOUS
 62
     7
100
AcDbLine
 10
84.521619
 20
144.821962
 30
0.0
 11
84.67202
 21
144.671967
 31
0.0
  0
LINE
  5
E6
330
1F
100
AcDbEntity
  8
0
  6
CONTINUOUS
 62
     7
100
AcDbLine
 10
80.580463
 20
156.337996
 30
0.0
 11
78.021617
 21
154.860636
 31
0.0
  0
LINE
  5
E7
330
1F
100
AcDbEntity
  8
0
  6
CONTINUOUS
 62
     7
100
AcDbLine
 10
78.021617
 20
146.283289
 30
0.0
 11
80.580463
 21
144.805943
 31
0.0
  0
ARC
  5
E8
330
1F
100
AcDbEntity
  8
0
  6
CONTINUOUS
 62
     7
100
AcDbCircle
 10
78.521628
 20
147.149317
 30
0.0
 40
1.000008137145002
100
AcDbArc
 50
180.000163
 51
239.999551
  0
ARC
  5
E9
330
1F
100
AcDbEntity
  8
0
  6
CONTINUOUS
 62
     7
100
AcDbCircle
 10
78.521581
 20
153.994634
 30
0.0
 40
0.9999616372423787
100
AcDbArc
 50
119.99891
 51
180.001375
  0
LINE
  5
EA
330
1F
100
AcDbEntity
  8
0
  6
CONTINUOUS
 62
     7
100
AcDbLine
 10
180.44312
 20
171.839913
 30
0.0
 11
179.443122
 21
173.571964
 31
0.0
  0
LINE
  5
EB
330
1F
100
AcDbEntity
  8
0
  6
CONTINUOUS
 62
     7
100
AcDbLine
 10
169.44312
 20
173.571964
 30
0.0
 11
168.443122
 21
171.839913
 31
0.0
  0
LINE
  5
EC
330
1F
100
AcDbEntity
  8
0
  6
CONTINUOUS
 62
     7
100
AcDbLine
 10
168.443122
 20
169.171964
 30
0.0
 11
168.54312
 21
169.071963
 31
0.0
  0
LINE
  5
ED
330
1F
100
AcDbEntity
  8
0
  6
CONTINUOUS
 62
     7
100
AcDbLine
 10
180.343122
 20
169.071963
 30
0.0
 11
180.44312
 21
169.171964
 31
0.0
  0
LINE
  5
EE
330
1F
100
AcDbEntity
  8
0
  6
CONTINUOUS
 62
     7
100
AcDbLine
 10
168.443122
 20
171.839913
 30
0.0
 11
168.443122
 21
169.171964
 31
0.0
  0
LINE
  5
EF
330
1F
100
AcDbEntity
  8
0
  6
CONTINUOUS
 62
     7
100
AcDbLine
 10
180.44312
 20
169.171964
 30
0.0
 11
180.44312
 21
171.839913
 31
0.0
  0
LINE
  5
F0
330
1F
100
AcDbEntity
  8
0
  6
CONTINUOUS
 62
     7
100
AcDbLine
 10
168.943119
 20
169.071963
 30
0.0
 11
168.443122
 21
168.571969
 31
0.0
  0
LINE
  5
F1
330
1F
100
AcDbEntity
  8
0
  6
CONTINUOUS
 62
     7
100
AcDbLine
 10
180.44312
 20
168.571969
 30
0.0
 11
179.943119
 21
169.071963
 31
0.0
  0
LINE
  5
F2
330
1F
100
AcDbEntity
  8
0
  6
CONTINUOUS
 62
     7
100
AcDbLine
 10
168.443122
 20
158.871969
 30
0.0
 11
168.74312
 21
158.571964
 31
0.0
  0
LINE
  5
F3
330
1F
100
AcDbEntity
  8
0
  6
CONTINUOUS
 62
     7
100
AcDbLine
 10
180.143123
 20
158.571964
 30
0.0
 11
180.44312
 21
158.871969
 31
0.0
  0
LINE
  5
F4
330
1F
100
AcDbEntity
  8
0
  6
CONTINUOUS
 62
     7
100
AcDbLine
 10
168.443122
 20
168.571969
 30
0.0
 11
168.443122
 21
158.871969
 31
0.0
  0
LINE
  5
F5
330
1F
100
AcDbEntity
  8
0
  6
CONTINUOUS
 62
     7
100
AcDbLine
 10
180.44312
 20
158.871969
 30
0.0
 11
180.44312
 21
168.571969
 31
0.0
  0
LINE
  5
F6
330
1F
100
AcDbEntity
  8
0
  6
CONTINUOUS
 62
     7
100
AcDbLine
 10
177.693122
 20
173.571964
 30
0.0
 11
177.693122
 21
194.458967
 31
0.0
  0
LINE
  5
F7
330
1F
100
AcDbEntity
  8
0
  6
CONTINUOUS
 62
     7
100
AcDbLine
 10
171.19312
 20
195.077469
 30
0.0
 11
171.19312
 21
173.571964
 31
0.0
  0
LINE
  5
F8
330
1F
100
AcDbEntity
  8
0
  6
CONTINUOUS
 62
     7
100
AcDbLine
 10
89.34312
 20
150.571962
 30
0.0
 11
89.34312
 21
155.271967
 31
0.0
  0
LINE
  5
F9
330
1F
100
AcDbEntity
  8
0
  6
CONTINUOUS
 62
     7
100
AcDbLine
 10
89.34312
 20
145.871972
 30
0.0
 11
89.34312
 21
150.571962
 31
0.0
  0
LINE
  5
FA
330
1F
100
AcDbEntity
  8
0
  6
CONTINUOUS
 62
     7
100
AcDbLine
 10
89.443122
 20
145.971974
 30
0.0
 11
89.443122
 21
155.171966
 31
0.0
  0
LINE
  5
FB
330
1F
100
AcDbEntity
  8
0
  6
CONTINUOUS
 62
     7
100
AcDbLine
 10
89.54312
 20
155.171966
 30
0.0
 11
89.54312
 21
154.57197
 31
0.0
  0
LINE
  5
FC
330
1F
100
AcDbEntity
  8
0
  6
CONTINUOUS
 62
     7
100
AcDbLine
 10
91.94312
 20
154.57197
 30
0.0
 11
89.54312
 21
154.57197
 31
0.0
  0
LINE
  5
FD
330
1F
100
AcDbEntity
  8
0
  6
CONTINUOUS
 62
     7
100
AcDbLine
 10
91.94312
 20
155.171966
 30
0.0
 11
91.94312
 21
154.57197
 31
0.0
  0
LINE
  5
FE
330
1F
100
AcDbEntity
  8
0
  6
CONTINUOUS
 62
     7
100
AcDbLine
 10
89.54312
 20
146.571969
 30
0.0
 11
89.54312
 21
145.971974
 31
0.0
  0
LINE
  5
FF
330
1F
100
AcDbEntity
  8
0
  6
CONTINUOUS
 62
     7
100
AcDbLine
 10
91.94312
 20
146.571969
 30
0.0
 11
91.94312
 21
145.971974
 31
0.0
  0
LINE
  5
100
330
1F
100
AcDbEntity
  8
0
  6
CONTINUOUS
 62
     7
100
AcDbLine
 10
91.94312
 20
146.571969
 30
0.0
 11
89.54312
 21
146.571969
 31
0.0
  0
LINE
  5
101
330
1F
100
AcDbEntity
  8
0
  6
CONTINUOUS
 62
     7
100
AcDbLine
 10
167.843119
 20
161.521961
 30
0.0
 11
167.843119
 21
139.621963
 31
0.0
  0
LINE
  5
102
330
1F
100
AcDbEntity
  8
0
  6
CONTINUOUS
 62
     7
100
AcDbLine
 10
168.243122
 20
161.521961
 30
0.0
 11
168.243122
 21
139.621963
 31
0.0
  0
LINE
  5
103
330
1F
100
AcDbEntity
  8
0
  6
CONTINUOUS
 62
     7
100
AcDbLine
 10
168.34312
 20
158.571964
 30
0.0
 11
168.34312
 21
139.721965
 31
0.0
  0
LINE
  5
104
330
1F
100
AcDbEntity
  8
0
  6
CONTINUOUS
 62
     7
100
AcDbLine
 10
168.34312
 20
161.42196
 30
0.0
 11
168.34312
 21
158.571964
 31
0.0
  0
LINE
  5
105
330
1F
100
AcDbEntity
  8
0
  6
CONTINUOUS
 62
     7
100
AcDbLine
 10
180.343122
 20
158.571964
 30
0.0
 11
176.928596
 21
158.571964
 31
0.0
  0
LINE
  5
106
330
1F
100
AcDbEntity
  8
0
  6
CONTINUOUS
 62
     7
100
AcDbLine
 10
171.957646
 20
158.571964
 30
0.0
 11
168.34312
 21
158.571964
 31
0.0
  0
LINE
  5
107
330
1F
100
AcDbEntity
  8
0
  6
CONTINUOUS
 62
     7
100
AcDbLine
 10
180.343122
 20
139.721965
 30
0.0
 11
180.343122
 21
158.571964
 31
0.0
  0
LINE
  5
108
330
1F
100
AcDbEntity
  8
0
  6
CONTINUOUS
 62
     7
100
AcDbLine
 10
180.543122
 20
158.37196
 30
0.0
 11
180.543122
 21
139.921968
 31
0.0
  0
LINE
  5
109
330
1F
100
AcDbEntity
  8
0
  6
CONTINUOUS
 62
     7
100
AcDbLine
 10
180.543122
 20
158.37196
 30
0.0
 11
180.343122
 21
158.571964
 31
0.0
  0
LINE
  5
10A
330
1F
100
AcDbEntity
  8
0
  6
CONTINUOUS
 62
     7
100
AcDbLine
 10
92.043121
 20
139.87196
 30
0.0
 11
92.043121
 21
161.271965
 31
0.0
  0
LINE
  5
10B
330
1F
100
AcDbEntity
  8
0
  6
CONTINUOUS
 62
     7
100
AcDbLine
 10
92.243121
 20
161.471968
 30
0.0
 11
92.243121
 21
139.671972
 31
0.0
  0
LINE
  5
10C
330
1F
100
AcDbEntity
  8
0
  6
CONTINUOUS
 62
     7
100
AcDbLine
 10
94.343119
 20
150.571962
 30
0.0
 11
94.343119
 21
161.471968
 31
0.0
  0
LINE
  5
10D
330
1F
100
AcDbEntity
  8
0
  6
CONTINUOUS
 62
     7
100
AcDbLine
 10
94.343119
 20
139.671972
 30
0.0
 11
94.343119
 21
150.571962
 31
0.0
  0
INSERT
  5
111
330
1F
100
AcDbEntity
  8
0
100
AcDbBlockReference
  2
BLKF011
 10
0.0
 20
0.0
 30
0.0
  0
INSERT
  5
199
330
1F
100
AcDbEntity
  8
0
100
AcDbBlockReference
  2
BLKF012
 10
0.0
 20
0.0
 30
0.0
  0
LINE
  5
1F4
330
1F
100
AcDbEntity
  8
0
  6
CONTINUOUS
 62
     7
100
AcDbLine
 10
94.443121
 20
150.571962
 30
0.0
 11
94.443121
 21
139.771973
 31
0.0
  0
LINE
  5
1F5
330
1F
100
AcDbEntity
  8
0
  6
CONTINUOUS
 62
     7
100
AcDbLine
 10
94.443121
 20
161.371966
 30
0.0
 11
94.443121
 21
150.571962
 31
0.0
  0
INSERT
  5
1F9
330
1F
100
AcDbEntity
  8
0
100
AcDbBlockReference
  2
BLKF013
 10
0.0
 20
0.0
 30
0.0
  0
INSERT
  5
235
330
1F
100
AcDbEntity
  8
0
100
AcDbBlockReference
  2
BLKF014
 10
0.0
 20
0.0
 30
0.0
  0
INSERT
  5
256
330
1F
100
AcDbEntity
  8
0
100
AcDbBlockReference
  2
BLKF015
 10
0.0
 20
0.0
 30
0.0
  0
LINE
  5
274
330
1F
100
AcDbEntity
  8
0
  6
CONTINUOUS
 62
     7
100
AcDbLine
 10
156.14312
 20
150.571962
 30
0.0
 11
156.14312
 21
161.57197
 31
0.0
  0
LINE
  5
275
330
1F
100
AcDbEntity
  8
0
  6
CONTINUOUS
 62
     7
100
AcDbLine
 10
156.14312
 20
139.57197
 30
0.0
 11
156.14312
 21
150.571962
 31
0.0
  0
LINE
  5
276
330
1F
100
AcDbEntity
  8
0
  6
CONTINUOUS
 62
     7
100
AcDbLine
 10
99.143122
 20
150.571962
 30
0.0
 11
99.143122
 21
161.57197
 31
0.0
  0
LINE
  5
277
330
1F
100
AcDbEntity
  8
0
  6
CONTINUOUS
 62
     7
100
AcDbLine
 10
99.143122
 20
139.57197
 30
0.0
 11
99.143122
 21
150.571962
 31
0.0
  0
LINE
  5
278
330
1F
100
AcDbEntity
  8
0
  6
CONTINUOUS
 62
     7
100
AcDbLine
 10
95.989385
 20
150.571962
 30
0.0
 11
95.989385
 21
161.561971
 31
0.0
  0
LINE
  5
279
330
1F
100
AcDbEntity
  8
0
  6
CONTINUOUS
 62
     7
100
AcDbLine
 10
95.989385
 20
139.581969
 30
0.0
 11
95.989385
 21
150.571962
 31
0.0
  0
LINE
  5
27A
330
1F
100
AcDbEntity
  8
0
  6
CONTINUOUS
 62
     7
100
AcDbLine
 10
167.64312
 20
150.571962
 30
0.0
 11
167.64312
 21
161.561971
 31
0.0
  0
LINE
  5
27B
330
1F
100
AcDbEntity
  8
0
  6
CONTINUOUS
 62
     7
100
AcDbLine
 10
167.64312
 20
139.581969
 30
0.0
 11
167.64312
 21
150.571962
 31
0.0
  0
LINE
  5
27C
330
1F
100
AcDbEntity
  8
0
  6
CONTINUOUS
 62
     7
100
AcDbLine
 10
167.743121
 20
150.571962
 30
0.0
 11
167.743121
 21
139.68197
 31
0.0
  0
LINE
  5
27D
330
1F
100
AcDbEntity
  8
0
  6
CONTINUOUS
 62
     7
100
AcDbLine
 10
167.743121
 20
161.461969
 30
0.0
 11
167.743121
 21
150.571962
 31
0.0
  0
LINE
  5
27E
330
1F
100
AcDbEntity
  8
0
  6
CONTINUOUS
 62
     7
100
AcDbLine
 10
94.643121
 20
150.571962
 30
0.0
 11
94.643121
 21
161.071961
 31
0.0
  0
LINE
  5
27F
330
1F
100
AcDbEntity
  8
0
  6
CONTINUOUS
 62
     7
100
AcDbLine
 10
94.643121
 20
140.071963
 30
0.0
 11
94.643121
 21
150.571962
 31
0.0
  0
LINE
  5
280
330
1F
100
AcDbEntity
  8
0
  6
CONTINUOUS
 62
     7
100
AcDbLine
 10
84.67202
 20
150.571962
 30
0.0
 11
84.67202
 21
156.471973
 31
0.0
  0
LINE
  5
281
330
1F
100
AcDbEntity
  8
0
  6
CONTINUOUS
 62
     7
100
AcDbLine
 10
84.67202
 20
144.671967
 30
0.0
 11
84.67202
 21
150.571962
 31
0.0
  0
LINE
  5
282
330
1F
100
AcDbEntity
  8
0
  6
CONTINUOUS
 62
     7
100
AcDbLine
 10
81.37202
 20
150.571962
 30
0.0
 11
81.37202
 21
156.471973
 31
0.0
  0
LINE
  5
283
330
1F
100
AcDbEntity
  8
0
  6
CONTINUOUS
 62
     7
100
AcDbLine
 10
81.37202
 20
144.671967
 30
0.0
 11
81.37202
 21
150.571962
 31
0.0
  0
LINE
  5
284
330
1F
100
AcDbEntity
  8
0
  6
CONTINUOUS
 62
     7
100
AcDbLine
 10
81.521616
 20
152.249014
 30
0.0
 11
81.521616
 21
156.071966
 31
0.0
  0
LINE
  5
285
330
1F
100
AcDbEntity
  8
0
  6
CONTINUOUS
 62
     7
100
AcDbLine
 10
81.521616
 20
148.894911
 30
0.0
 11
81.521616
 21
152.249014
 31
0.0
  0
LINE
  5
286
330
1F
100
AcDbEntity
  8
0
  6
CONTINUOUS
 62
     7
100
AcDbLine
 10
81.521616
 20
145.071974
 30
0.0
 11
81.521616
 21
148.894911
 31
0.0
  0
LINE
  5
287
330
1F
100
AcDbEntity
  8
0
  6
CONTINUOUS
 62
     7
100
AcDbLine
 10
81.521616
 20
144.821962
 30
0.0
 11
81.521616
 21
145.071974
 31
0.0
  0
LINE
  5
288
330
1F
100
AcDbEntity
  8
0
  6
CONTINUOUS
 62
     7
100
AcDbLine
 10
81.521616
 20
156.071966
 30
0.0
 11
81.521616
 21
156.321963
 31
0.0
  0
LINE
  5
289
330
1F
100
AcDbEntity
  8
0
  6
CONTINUOUS
 62
     7
100
AcDbLine
 10
89.021617
 20
155.671974
 30
0.0
 11
89.021617
 21
145.471965
 31
0.0
  0
LINE
  5
28A
330
1F
100
AcDbEntity
  8
0
  6
CONTINUOUS
 62
     7
100
AcDbLine
 10
84.521619
 20
144.821962
 30
0.0
 11
84.521619
 21
145.071974
 31
0.0
  0
LINE
  5
28B
330
1F
100
AcDbEntity
  8
0
  6
CONTINUOUS
 62
     7
100
AcDbLine
 10
84.521619
 20
145.071974
 30
0.0
 11
84.521619
 21
148.894911
 31
0.0
  0
LINE
  5
28C
330
1F
100
AcDbEntity
  8
0
  6
CONTINUOUS
 62
     7
100
AcDbLine
 10
84.521619
 20
148.894911
 30
0.0
 11
84.521619
 21
152.249014
 31
0.0
  0
LINE
  5
28D
330
1F
100
AcDbEntity
  8
0
  6
CONTINUOUS
 62
     7
100
AcDbLine
 10
84.521619
 20
152.249014
 30
0.0
 11
84.521619
 21
156.071966
 31
0.0
  0
LINE
  5
28E
330
1F
100
AcDbEntity
  8
0
  6
CONTINUOUS
 62
     7
100
AcDbLine
 10
84.521619
 20
156.071966
 30
0.0
 11
84.521619
 21
156.321963
 31
0.0
  0
LINE
  5
28F
330
1F
100
AcDbEntity
  8
0
  6
CONTINUOUS
 62
     7
100
AcDbLine
 10
84.372022
 20
148.436551
 30
0.0
 11
84.521619
 21
148.894911
 31
0.0
  0
LINE
  5
290
330
1F
100
AcDbEntity
  8
0
  6
CONTINUOUS
 62
     7
100
AcDbLine
 10
81.672021
 20
148.436551
 30
0.0
 11
84.372022
 21
148.436551
 31
0.0
  0
LINE
  5
291
330
1F
100
AcDbEntity
  8
0
  6
CONTINUOUS
 62
     7
100
AcDbLine
 10
81.521616
 20
148.894911
 30
0.0
 11
81.672021
 21
148.436551
 31
0.0
  0
LINE
  5
292
330
1F
100
AcDbEntity
  8
0
  6
CONTINUOUS
 62
     7
100
AcDbLine
 10
81.672021
 20
152.707388
 30
0.0
 11
81.521616
 21
152.249014
 31
0.0
  0
LINE
  5
293
330
1F
100
AcDbEntity
  8
0
  6
CONTINUOUS
 62
     7
100
AcDbLine
 10
84.372022
 20
152.707388
 30
0.0
 11
81.672021
 21
152.707388
 31
0.0
  0
LINE
  5
294
330
1F
100
AcDbEntity
  8
0
  6
CONTINUOUS
 62
     7
100
AcDbLine
 10
84.521619
 20
152.249014
 30
0.0
 11
84.372022
 21
152.707388
 31
0.0
  0
LINE
  5
295
330
1F
100
AcDbEntity
  8
0
  6
CONTINUOUS
 62
     7
100
AcDbLine
 10
81.521616
 20
156.071966
 30
0.0
 11
81.672021
 21
156.071966
 31
0.0
  0
LINE
  5
296
330
1F
100
AcDbEntity
  8
0
  6
CONTINUOUS
 62
     7
100
AcDbLine
 10
81.672021
 20
152.707388
 30
0.0
 11
81.672021
 21
156.071966
 31
0.0
  0
LINE
  5
297
330
1F
100
AcDbEntity
  8
0
  6
CONTINUOUS
 62
     7
100
AcDbLine
 10
84.521619
 20
145.071974
 30
0.0
 11
84.372022
 21
145.071974
 31
0.0
  0
LINE
  5
298
330
1F
100
AcDbEntity
  8
0
  6
CONTINUOUS
 62
     7
100
AcDbLine
 10
84.372022
 20
145.071974
 30
0.0
 11
84.372022
 21
148.436551
 31
0.0
  0
LINE
  5
299
330
1F
100
AcDbEntity
  8
0
  6
CONTINUOUS
 62
     7
100
AcDbLine
 10
84.372022
 20
152.707388
 30
0.0
 11
84.372022
 21
156.071966
 31
0.0
  0
LINE
  5
29A
330
1F
100
AcDbEntity
  8
0
  6
CONTINUOUS
 62
     7
100
AcDbLine
 10
84.372022
 20
156.071966
 30
0.0
 11
84.521619
 21
156.071966
 31
0.0
  0
LINE
  5
29B
330
1F
100
AcDbEntity
  8
0
  6
CONTINUOUS
 62
     7
100
AcDbLine
 10
81.672021
 20
145.071974
 30
0.0
 11
81.672021
 21
148.436551
 31
0.0
  0
LINE
  5
29C
330
1F
100
AcDbEntity
  8
0
  6
CONTINUOUS
 62
     7
100
AcDbLine
 10
81.672021
 20
145.071974
 30
0.0
 11
81.521616
 21
145.071974
 31
0.0
  0
LINE
  5
29D
330
1F
100
AcDbEntity
  8
0
  6
CONTINUOUS
 62
     7
100
AcDbLine
 10
81.672021
 20
156.071966
 30
0.0
 11
84.372022
 21
156.071966
 31
0.0
  0
LINE
  5
29E
330
1F
100
AcDbEntity
  8
0
  6
CONTINUOUS
 62
     7
100
AcDbLine
 10
84.372022
 20
145.071974
 30
0.0
 11
81.672021
 21
145.071974
 31
0.0
  0
LINE
  5
29F
330
1F
100
AcDbEntity
  8
0
  6
CONTINUOUS
 62
     7
100
AcDbLine
 10
77.521619
 20
150.571962
 30
0.0
 11
77.521619
 21
153.99461
 31
0.0
  0
LINE
  5
2A0
330
1F
100
AcDbEntity
  8
0
  6
CONTINUOUS
 62
     7
100
AcDbLine
 10
77.521619
 20
147.149315
 30
0.0
 11
77.521619
 21
150.571962
 31
0.0
  0
LINE
  5
2A1
330
1F
100
AcDbEntity
  8
0
  6
CONTINUOUS
 62
     7
100
AcDbLine
 10
178.007302
 20
171.839913
 30
0.0
 11
176.841036
 21
171.839913
 31
0.0
  0
INSERT
  5
2A5
330
1F
100
AcDbEntity
  8
0
100
AcDbBlockReference
  2
BLKF016
 10
0.0
 20
0.0
 30
0.0
  0
LINE
  5
2E8
330
1F
100
AcDbEntity
  8
0
  6
CONTINUOUS
 62
     7
100
AcDbLine
 10
172.045206
 20
171.839913
 30
0.0
 11
170.87894
 21
171.839913
 31
0.0
  0
INSERT
  5
2EC
330
1F
100
AcDbEntity
  8
0
100
AcDbBlockReference
  2
BLKF017
 10
0.0
 20
0.0
 30
0.0
  0
LINE
  5
3A8
330
1F
100
AcDbEntity
  8
0
  6
CONTINUOUS
 62
     7
100
AcDbLine
 10
168.481023
 20
171.839913
 30
0.0
 11
168.443122
 21
171.839913
 31
0.0
  0
LINE
  5
3A9
330
1F
100
AcDbEntity
  8
0
  6
CONTINUOUS
 62
     7
100
AcDbLine
 10
180.44312
 20
171.839913
 30
0.0
 11
180.405219
 21
171.839913
 31
0.0
  0
INSERT
  5
3AD
330
1F
100
AcDbEntity
  8
0
100
AcDbBlockReference
  2
BLKF018
 10
0.0
 20
0.0
 30
0.0
  0
LINE
  5
3F0
330
1F
100
AcDbEntity
  8
0
  6
CONTINUOUS
 62
     7
100
AcDbLine
 10
179.443122
 20
173.571964
 30
0.0
 11
169.44312
 21
173.571964
 31
0.0
  0
LINE
  5
3F1
330
1F
100
AcDbEntity
  8
0
  6
CONTINUOUS
 62
     7
100
AcDbLine
 10
176.841036
 20
171.839913
 30
0.0
 11
176.841036
 21
169.171964
 31
0.0
  0
LINE
  5
3F2
330
1F
100
AcDbEntity
  8
0
  6
CONTINUOUS
 62
     7
100
AcDbLine
 10
176.578538
 20
169.071963
 30
0.0
 11
176.841036
 21
169.171964
 31
0.0
  0
LINE
  5
3F3
330
1F
100
AcDbEntity
  8
0
  6
CONTINUOUS
 62
     7
100
AcDbLine
 10
172.045206
 20
169.171964
 30
0.0
 11
172.307705
 21
169.071963
 31
0.0
  0
LINE
  5
3F4
330
1F
100
AcDbEntity
  8
0
  6
CONTINUOUS
 62
     7
100
AcDbLine
 10
172.045206
 20
171.839913
 30
0.0
 11
172.045206
 21
169.171964
 31
0.0
  0
LINE
  5
3F5
330
1F
100
AcDbEntity
  8
0
  6
CONTINUOUS
 62
     7
100
AcDbLine
 10
172.307705
 20
169.071963
 30
0.0
 11
176.578538
 21
169.071963
 31
0.0
  0
LINE
  5
3F6
330
1F
100
AcDbEntity
  8
0
  6
CONTINUOUS
 62
     7
100
AcDbLine
 10
170.747687
 20
169.071963
 30
0.0
 11
170.87894
 21
169.171964
 31
0.0
  0
LINE
  5
3F7
330
1F
100
AcDbEntity
  8
0
  6
CONTINUOUS
 62
     7
100
AcDbLine
 10
172.045206
 20
169.171964
 30
0.0
 11
170.87894
 21
169.171964
 31
0.0
  0
LINE
  5
3F8
330
1F
100
AcDbEntity
  8
0
  6
CONTINUOUS
 62
     7
100
AcDbLine
 10
172.307705
 20
169.071963
 30
0.0
 11
170.747687
 21
169.071963
 31
0.0
  0
LINE
  5
3F9
330
1F
100
AcDbEntity
  8
0
  6
CONTINUOUS
 62
     7
100
AcDbLine
 10
170.87894
 20
171.839913
 30
0.0
 11
170.87894
 21
169.171964
 31
0.0
  0
LINE
  5
3FA
330
1F
100
AcDbEntity
  8
0
  6
CONTINUOUS
 62
     7
100
AcDbLine
 10
178.007302
 20
169.171964
 30
0.0
 11
176.841036
 21
169.171964
 31
0.0
  0
LINE
  5
3FB
330
1F
100
AcDbEntity
  8
0
  6
CONTINUOUS
 62
     7
100
AcDbLine
 10
178.007302
 20
169.171964
 30
0.0
 11
178.138551
 21
169.071963
 31
0.0
  0
LINE
  5
3FC
330
1F
100
AcDbEntity
  8
0
  6
CONTINUOUS
 62
     7
100
AcDbLine
 10
178.138551
 20
169.071963
 30
0.0
 11
176.578538
 21
169.071963
 31
0.0
  0
LINE
  5
3FD
330
1F
100
AcDbEntity
  8
0
  6
CONTINUOUS
 62
     7
100
AcDbLine
 10
178.007302
 20
171.839913
 30
0.0
 11
178.007302
 21
169.171964
 31
0.0
  0
LINE
  5
3FE
330
1F
100
AcDbEntity
  8
0
  6
CONTINUOUS
 62
     7
100
AcDbLine
 10
180.405219
 20
171.839913
 30
0.0
 11
180.405219
 21
169.171964
 31
0.0
  0
LINE
  5
3FF
330
1F
100
AcDbEntity
  8
0
  6
CONTINUOUS
 62
     7
100
AcDbLine
 10
180.27397
 20
169.071963
 30
0.0
 11
180.405219
 21
169.171964
 31
0.0
  0
LINE
  5
400
330
1F
100
AcDbEntity
  8
0
  6
CONTINUOUS
 62
     7
100
AcDbLine
 10
178.138551
 20
169.071963
 30
0.0
 11
180.27397
 21
169.071963
 31
0.0
  0
LINE
  5
401
330
1F
100
AcDbEntity
  8
0
  6
CONTINUOUS
 62
     7
100
AcDbLine
 10
168.481023
 20
169.171964
 30
0.0
 11
168.612272
 21
169.071963
 31
0.0
  0
LINE
  5
402
330
1F
100
AcDbEntity
  8
0
  6
CONTINUOUS
 62
     7
100
AcDbLine
 10
168.481023
 20
171.839913
 30
0.0
 11
168.481023
 21
169.171964
 31
0.0
  0
LINE
  5
403
330
1F
100
AcDbEntity
  8
0
  6
CONTINUOUS
 62
     7
100
AcDbLine
 10
168.612272
 20
169.071963
 30
0.0
 11
170.747687
 21
169.071963
 31
0.0
  0
LINE
  5
404
330
1F
100
AcDbEntity
  8
0
  6
CONTINUOUS
 62
     7
100
AcDbLine
 10
168.481023
 20
169.171964
 30
0.0
 11
168.443122
 21
169.171964
 31
0.0
  0
LINE
  5
405
330
1F
100
AcDbEntity
  8
0
  6
CONTINUOUS
 62
     7
100
AcDbLine
 10
168.612272
 20
169.071963
 30
0.0
 11
168.54312
 21
169.071963
 31
0.0
  0
LINE
  5
406
330
1F
100
AcDbEntity
  8
0
  6
CONTINUOUS
 62
     7
100
AcDbLine
 10
180.44312
 20
169.171964
 30
0.0
 11
180.405219
 21
169.171964
 31
0.0
  0
LINE
  5
407
330
1F
100
AcDbEntity
  8
0
  6
CONTINUOUS
 62
     7
100
AcDbLine
 10
180.343122
 20
169.071963
 30
0.0
 11
180.27397
 21
169.071963
 31
0.0
  0
LINE
  5
408
330
1F
100
AcDbEntity
  8
0
  6
CONTINUOUS
 62
     7
100
AcDbLine
 10
176.841036
 20
168.571969
 30
0.0
 11
176.841036
 21
158.871969
 31
0.0
  0
LINE
  5
409
330
1F
100
AcDbEntity
  8
0
  6
CONTINUOUS
 62
     7
100
AcDbLine
 10
175.939784
 20
158.571964
 30
0.0
 11
176.841036
 21
158.871969
 31
0.0
  0
INSERT
  5
40D
330
1F
100
AcDbEntity
  8
0
100
AcDbBlockReference
  2
BLKF019
 10
0.0
 20
0.0
 30
0.0
  0
LINE
  5
428
330
1F
100
AcDbEntity
  8
0
  6
CONTINUOUS
 62
     7
100
AcDbLine
 10
172.045206
 20
168.571969
 30
0.0
 11
172.045206
 21
158.871969
 31
0.0
  0
INSERT
  5
42C
330
1F
100
AcDbEntity
  8
0
100
AcDbBlockReference
  2
BLKF020
 10
0.0
 20
0.0
 30
0.0
  0
INSERT
  5
456
330
1F
100
AcDbEntity
  8
0
100
AcDbBlockReference
  2
BLKF021
 10
0.0
 20
0.0
 30
0.0
  0
LINE
  5
473
330
1F
100
AcDbEntity
  8
0
  6
CONTINUOUS
 62
     7
100
AcDbLine
 10
172.946458
 20
158.571964
 30
0.0
 11
175.939784
 21
158.571964
 31
0.0
  0
LINE
  5
474
330
1F
100
AcDbEntity
  8
0
  6
CONTINUOUS
 62
     7
100
AcDbLine
 10
172.045206
 20
168.571969
 30
0.0
 11
170.87894
 21
168.571969
 31
0.0
  0
INSERT
  5
478
330
1F
100
AcDbEntity
  8
0
100
AcDbBlockReference
  2
BLKF022
 10
0.0
 20
0.0
 30
0.0
  0
LINE
  5
495
330
1F
100
AcDbEntity
  8
0
  6
CONTINUOUS
 62
     7
100
AcDbLine
 10
178.007302
 20
168.571969
 30
0.0
 11
176.841036
 21
168.571969
 31
0.0
  0
INSERT
  5
499
330
1F
100
AcDbEntity
  8
0
100
AcDbBlockReference
  2
BLKF023
 10
0.0
 20
0.0
 30
0.0
  0
LINE
  5
4BE
330
1F
100
AcDbEntity
  8
0
  6
CONTINUOUS
 62
     7
100
AcDbLine
 10
170.428314
 20
158.571964
 30
0.0
 11
170.87894
 21
158.871969
 31
0.0
  0
LINE
  5
4BF
330
1F
100
AcDbEntity
  8
0
  6
CONTINUOUS
 62
     7
100
AcDbLine
 10
172.045206
 20
158.871969
 30
0.0
 11
170.87894
 21
158.871969
 31
0.0
  0
LINE
  5
4C0
330
1F
100
AcDbEntity
  8
0
  6
CONTINUOUS
 62
     7
100
AcDbLine
 10
172.946458
 20
158.571964
 30
0.0
 11
171.957646
 21
158.571964
 31
0.0
  0
LINE
  5
4C1
330
1F
100
AcDbEntity
  8
0
  6
CONTINUOUS
 62
     7
100
AcDbLine
 10
178.007302
 20
158.871969
 30
0.0
 11
176.841036
 21
158.871969
 31
0.0
  0
INSERT
  5
4C5
330
1F
100
AcDbEntity
  8
0
100
AcDbBlockReference
  2
BLKF024
 10
0.0
 20
0.0
 30
0.0
  0
LINE
  5
4DF
330
1F
100
AcDbEntity
  8
0
  6
CONTINUOUS
 62
     7
100
AcDbLine
 10
176.928596
 20
158.571964
 30
0.0
 11
175.939784
 21
158.571964
 31
0.0
  0
LINE
  5
4E0
330
1F
100
AcDbEntity
  8
0
  6
CONTINUOUS
 62
     7
100
AcDbLine
 10
170.87894
 20
168.571969
 30
0.0
 11
170.87894
 21
158.871969
 31
0.0
  0
LINE
  5
4E1
330
1F
100
AcDbEntity
  8
0
  6
CONTINUOUS
 62
     7
100
AcDbLine
 10
178.007302
 20
168.571969
 30
0.0
 11
178.007302
 21
158.871969
 31
0.0
  0
LINE
  5
4E2
330
1F
100
AcDbEntity
  8
0
  6
CONTINUOUS
 62
     7
100
AcDbLine
 10
168.481023
 20
158.871969
 30
0.0
 11
168.931649
 21
158.571964
 31
0.0
  0
LINE
  5
4E3
330
1F
100
AcDbEntity
  8
0
  6
CONTINUOUS
 62
     7
100
AcDbLine
 10
168.481023
 20
168.571969
 30
0.0
 11
168.481023
 21
158.871969
 31
0.0
  0
INSERT
  5
4E7
330
1F
100
AcDbEntity
  8
0
100
AcDbBlockReference
  2
BLKF025
 10
0.0
 20
0.0
 30
0.0
  0
LINE
  5
50C
330
1F
100
AcDbEntity
  8
0
  6
CONTINUOUS
 62
     7
100
AcDbLine
 10
179.954593
 20
158.571964
 30
0.0
 11
180.405219
 21
158.871969
 31
0.0
  0
INSERT
  5
510
330
1F
100
AcDbEntity
  8
0
100
AcDbBlockReference
  2
BLKF026
 10
0.0
 20
0.0
 30
0.0
  0
LINE
  5
52D
330
1F
100
AcDbEntity
  8
0
  6
CONTINUOUS
 62
     7
100
AcDbLine
 10
180.405219
 20
168.571969
 30
0.0
 11
180.405219
 21
158.871969
 31
0.0
  0
LINE
  5
52E
330
1F
100
AcDbEntity
  8
0
  6
CONTINUOUS
 62
     7
100
AcDbLine
 10
168.481023
 20
168.571969
 30
0.0
 11
168.443122
 21
168.571969
 31
0.0
  0
LINE
  5
52F
330
1F
100
AcDbEntity
  8
0
  6
CONTINUOUS
 62
     7
100
AcDbLine
 10
180.44312
 20
168.571969
 30
0.0
 11
180.405219
 21
168.571969
 31
0.0
  0
LINE
  5
530
330
1F
100
AcDbEntity
  8
0
  6
CONTINUOUS
 62
     7
100
AcDbLine
 10
168.481023
 20
158.871969
 30
0.0
 11
168.443122
 21
158.871969
 31
0.0
  0
LINE
  5
531
330
1F
100
AcDbEntity
  8
0
  6
CONTINUOUS
 62
     7
100
AcDbLine
 10
180.44312
 20
158.871969
 30
0.0
 11
180.405219
 21
158.871969
 31
0.0
  0
LINE
  5
532
330
1F
100
AcDbEntity
  8
0
  6
CONTINUOUS
 62
     7
100
AcDbLine
 10
88.221618
 20
144.671967
 30
0.0
 11
88.221618
 21
156.471973
 31
0.0
  0
LINE
  5
533
330
1F
100
AcDbEntity
  8
0
  6
CONTINUOUS
 62
     7
100
AcDbLine
 10
80.580463
 20
150.571962
 30
0.0
 11
80.580463
 21
156.337996
 31
0.0
  0
LINE
  5
534
330
1F
100
AcDbEntity
  8
0
  6
CONTINUOUS
 62
     7
100
AcDbLine
 10
80.580463
 20
144.805943
 30
0.0
 11
80.580463
 21
150.571962
 31
0.0
  0
LINE
  5
535
330
1F
100
AcDbEntity
  8
0
  6
CONTINUOUS
 62
     7
100
AcDbLine
 10
81.080464
 20
156.471973
 30
0.0
 11
81.080464
 21
144.671967
 31
0.0
  0
LINE
  5
536
330
1F
100
AcDbEntity
  8
0
  6
CONTINUOUS
 62
     7
100
AcDbLine
 10
78.021617
 20
150.571962
 30
0.0
 11
78.021617
 21
146.283289
 31
0.0
  0
LINE
  5
537
330
1F
100
AcDbEntity
  8
0
  6
CONTINUOUS
 62
     7
100
AcDbLine
 10
78.021617
 20
154.860636
 30
0.0
 11
78.021617
 21
150.571962
 31
0.0
  0
INSERT
  5
53B
330
1F
100
AcDbEntity
  8
0
100
AcDbBlockReference
  2
BLKF027
 10
0.0
 20
0.0
 30
0.0
  0
INSERT
  5
549
330
1F
100
AcDbEntity
  8
0
100
AcDbBlockReference
  2
BLKF028
 10
0.0
 20
0.0
 30
0.0
  0
INSERT
  5
558
330
1F
100
AcDbEntity
  8
0
100
AcDbBlockReference
  2
BLKF029
 10
0.0
 20
0.0
 30
0.0
  0
INSERT
  5
568
330
1F
100
AcDbEntity
  8
0
100
AcDbBlockReference
  2
BLKF030
 10
0.0
 20
0.0
 30
0.0
  0
INSERT
  5
578
330
1F
100
AcDbEntity
  8
0
100
AcDbBlockReference
  2
BLKF031
 10
0.0
 20
0.0
 30
0.0
  0
INSERT
  5
586
330
1F
100
AcDbEntity
  8
0
100
AcDbBlockReference
  2
BLKF032
 10
0.0
 20
0.0
 30
0.0
  0
INSERT
  5
596
330
1F
100
AcDbEntity
  8
0
100
AcDbBlockReference
  2
BLKF033
 10
0.0
 20
0.0
 30
0.0
  0
INSERT
  5
5A4
330
1F
100
AcDbEntity
  8
0
100
AcDbBlockReference
  2
BLKF034
 10
0.0
 20
0.0
 30
0.0
  0
INSERT
  5
5B6
330
1F
100
AcDbEntity
  8
0
100
AcDbBlockReference
  2
BLKF035
 10
0.0
 20
0.0
 30
0.0
  0
INSERT
  5
5C5
330
1F
100
AcDbEntity
  8
0
100
AcDbBlockReference
  2
BLKF036
 10
0.0
 20
0.0
 30
0.0
  0
ARC
  5
5D2
330
1F
100
AcDbEntity
  8
0
  6
DASHED
 62
     7
100
AcDbCircle
 10
176.568121
 20
199.868214
 30
0.0
 40
5.524999999999968
100
AcDbArc
 50
247.380135
 51
292.619865
  0
ARC
  5
5D3
330
1F
100
AcDbEntity
  8
0
  6
DASHED
 62
     7
100
AcDbCircle
 10
172.318121
 20
189.668214
 30
0.0
 40
5.524999999999968
100
AcDbArc
 50
67.380135
 51
112.619865
  0
ARC
  5
5D4
330
1F
100
AcDbEntity
  8
0
  6
DASHED
 62
     7
100
AcDbCircle
 10
176.568121
 20
202.868214
 30
0.0
 40
5.525000000000007
100
AcDbArc
 50
247.380135
 51
292.619865
  0
ARC
  5
5D5
330
1F
100
AcDbEntity
  8
0
  6
DASHED
 62
     7
100
AcDbCircle
 10
172.318121
 20
192.668214
 30
0.0
 40
5.525000000000019
100
AcDbArc
 50
67.380135
 51
112.619865
  0
LINE
  5
5D6
330
1F
100
AcDbEntity
  8
CSLAYER3
  6
CONTINUOUS
 62
     3
100
AcDbLine
 10
237.112668
 20
194.018302
 30
0.0
 11
237.112668
 21
152.625314
 31
0.0
  0
LINE
  5
5D7
330
1F
100
AcDbEntity
  8
CSLAYER3
  6
CONTINUOUS
 62
     3
100
AcDbLine
 10
265.500794
 20
183.640615
 30
0.0
 11
243.783646
 21
152.625314
 31
0.0
  0
LINE
  5
5D8
330
1F
100
AcDbEntity
  8
0
  6
CONTINUOUS
 62
     7
100
AcDbLine
 10
254.455437
 20
164.379315
 30
0.0
 11
265.322277
 21
179.89877
 31
0.0
  0
LINE
  5
5D9
330
1F
100
AcDbEntity
  8
0
  6
CONTINUOUS
 62
     7
100
AcDbLine
 10
262.192562
 20
182.402851
 30
0.0
 11
251.178829
 21
166.673617
 31
0.0
  0
LINE
  5
5DA
330
1F
100
AcDbEntity
  8
0
  6
CONTINUOUS
 62
     7
100
AcDbLine
 10
248.336014
 20
166.100563
 30
0.0
 11
243.173826
 21
158.728184
 31
0.0
  0
LINE
  5
5DB
330
1F
100
AcDbEntity
  8
0
  6
CONTINUOUS
 62
     7
100
AcDbLine
 10
249.727043
 20
154.13958
 30
0.0
 11
254.889231
 21
161.511945
 31
0.0
  0
ARC
  5
5DC
330
1F
100
AcDbEntity
  8
0
  6
CONTINUOUS
 62
     7
100
AcDbCircle
 10
249.704274
 20
167.095708
 30
0.0
 40
0.5000194900256809
100
AcDbArc
 50
55.002078
 51
144.997562
  0
ARC
  5
5DD
330
1F
100
AcDbEntity
  8
0
  6
CONTINUOUS
 62
     7
100
AcDbCircle
 10
255.356408
 20
163.138053
 30
0.0
 40
0.5000124541984949
100
AcDbArc
 50
-34.999576
 51
54.999483
  0
LINE
  5
5DE
330
1F
100
AcDbEntity
  8
0
  6
CONTINUOUS
 62
     7
100
AcDbLine
 10
249.294694
 20
167.382525
 30
0.0
 11
248.721118
 21
166.563364
 31
0.0
  0
LINE
  5
5DF
330
1F
100
AcDbEntity
  8
0
  6
CONTINUOUS
 62
     7
100
AcDbLine
 10
255.192419
 20
162.032114
 30
0.0
 11
255.765996
 21
162.851261
 31
0.0
  0
LINE
  5
5E0
330
1F
100
AcDbEntity
  8
0
  6
CONTINUOUS
 62
     7
100
AcDbLine
 10
243.992978
 20
158.154609
 30
0.0
 11
243.648833
 21
157.663124
 31
0.0
  0
LINE
  5
5E1
330
1F
100
AcDbEntity
  8
0
  6
CONTINUOUS
 62
     7
100
AcDbLine
 10
248.563745
 20
154.221656
 30
0.0
 11
248.907891
 21
154.713156
 31
0.0
  0
LINE
  5
5E2
330
1F
100
AcDbEntity
  8
0
  6
CONTINUOUS
 62
     7
100
AcDbLine
 10
250.15873
 20
165.556746
 30
0.0
 11
249.814584
 21
165.065246
 31
0.0
  0
LINE
  5
5E3
330
1F
100
AcDbEntity
  8
0
  6
CONTINUOUS
 62
     7
100
AcDbLine
 10
253.410662
 20
162.547247
 30
0.0
 11
253.754807
 21
163.038747
 31
0.0
  0
LINE
  5
5E4
330
1F
100
AcDbEntity
  8
0
  6
CONTINUOUS
 62
     7
100
AcDbLine
 10
242.620022
 20
172.719957
 30
0.0
 11
242.112668
 21
173.598709
 31
0.0
  0
LINE
  5
5E5
330
1F
100
AcDbEntity
  8
0
  6
CONTINUOUS
 62
     7
100
AcDbLine
 10
232.112669
 20
173.598709
 30
0.0
 11
231.605315
 21
172.719957
 31
0.0
  0
LINE
  5
5E6
330
1F
100
AcDbEntity
  8
0
  6
CONTINUOUS
 62
     7
100
AcDbLine
 10
231.879656
 20
158.648716
 30
0.0
 11
231.929646
 21
158.577325
 31
0.0
  0
LINE
  5
5E7
330
1F
100
AcDbEntity
  8
0
  6
CONTINUOUS
 62
     7
100
AcDbLine
 10
231.929646
 20
158.577325
 30
0.0
 11
231.97865
 21
158.526646
 31
0.0
  0
LINE
  5
5E8
330
1F
100
AcDbEntity
  8
0
  6
CONTINUOUS
 62
     7
100
AcDbLine
 10
240.362668
 20
173.598709
 30
0.0
 11
240.362668
 21
189.763622
 31
0.0
  0
LINE
  5
5E9
330
1F
100
AcDbEntity
  8
0
  6
CONTINUOUS
 62
     7
100
AcDbLine
 10
233.862669
 20
189.396786
 30
0.0
 11
233.862669
 21
173.598709
 31
0.0
  0
ARC
  5
5EA
330
1F
100
AcDbEntity
  8
0
  6
CONTINUOUS
 62
     7
100
AcDbCircle
 10
239.313415
 20
150.59957
 30
0.0
 40
39.17785132735399
100
AcDbArc
 50
48.404578
 51
54.268919
  0
ARC
  5
5EB
330
1F
100
AcDbEntity
  8
0
  6
CONTINUOUS
 62
     7
100
AcDbCircle
 10
239.312606
 20
150.599392
 30
0.0
 40
39.17830436896757
100
AcDbArc
 50
88.464167
 51
97.996118
  0
CIRCLE
  5
5EC
330
1F
100
AcDbEntity
  8
0
  6
CONTINUOUS
 62
     7
100
AcDbCircle
 10
245.962666
 20
150.598709
 30
0.0
 40
1.700000186534438
  0
LINE
  5
5ED
330
1F
100
AcDbEntity
  8
0
  6
CONTINUOUS
 62
     7
100
AcDbLine
 10
245.84122
 20
149.741249
 30
0.0
 11
246.644533
 21
150.064798
 31
0.0
  0
LINE
  5
5EE
330
1F
100
AcDbEntity
  8
0
  6
CONTINUOUS
 62
     7
100
AcDbLine
 10
246.644533
 20
150.064798
 30
0.0
 11
246.765981
 21
150.92227
 31
0.0
  0
LINE
  5
5EF
330
1F
100
AcDbEntity
  8
0
  6
CONTINUOUS
 62
     7
100
AcDbLine
 10
245.159355
 20
150.275158
 30
0.0
 11
245.84122
 21
149.741249
 31
0.0
  0
LINE
  5
5F0
330
1F
100
AcDbEntity
  8
0
  6
CONTINUOUS
 62
     7
100
AcDbLine
 10
246.765981
 20
150.92227
 30
0.0
 11
246.084116
 21
151.456179
 31
0.0
  0
LINE
  5
5F1
330
1F
100
AcDbEntity
  8
0
  6
CONTINUOUS
 62
     7
100
AcDbLine
 10
246.084116
 20
151.456179
 30
0.0
 11
245.280804
 21
151.13263
 31
0.0
  0
LINE
  5
5F2
330
1F
100
AcDbEntity
  8
0
  6
CONTINUOUS
 62
     7
100
AcDbLine
 10
245.280804
 20
151.13263
 30
0.0
 11
245.159355
 21
150.275158
 31
0.0
  0
CIRCLE
  5
5F3
330
1F
100
AcDbEntity
  8
0
  6
CONTINUOUS
 62
     7
100
AcDbCircle
 10
245.962672
 20
150.598706
 30
0.0
 40
1.899998645189194
  0
CIRCLE
  5
5F4
330
1F
100
AcDbEntity
  8
0
  6
CONTINUOUS
 62
     7
100
AcDbCircle
 10
232.662667
 20
150.59871
 30
0.0
 40
1.699999971426109
  0
LINE
  5
5F5
330
1F
100
AcDbEntity
  8
0
  6
CONTINUOUS
 62
     7
100
AcDbLine
 10
233.344533
 20
150.064798
 30
0.0
 11
233.465981
 21
150.92227
 31
0.0
  0
LINE
  5
5F6
330
1F
100
AcDbEntity
  8
0
  6
CONTINUOUS
 62
     7
100
AcDbLine
 10
233.465981
 20
150.92227
 30
0.0
 11
232.784117
 21
151.456179
 31
0.0
  0
LINE
  5
5F7
330
1F
100
AcDbEntity
  8
0
  6
CONTINUOUS
 62
     7
100
AcDbLine
 10
232.784117
 20
151.456179
 30
0.0
 11
231.980804
 21
151.13263
 31
0.0
  0
LINE
  5
5F8
330
1F
100
AcDbEntity
  8
0
  6
CONTINUOUS
 62
     7
100
AcDbLine
 10
231.980804
 20
151.13263
 30
0.0
 11
231.859356
 21
150.275158
 31
0.0
  0
LINE
  5
5F9
330
1F
100
AcDbEntity
  8
0
  6
CONTINUOUS
 62
     7
100
AcDbLine
 10
231.859356
 20
150.275158
 30
0.0
 11
232.541221
 21
149.741249
 31
0.0
  0
LINE
  5
5FA
330
1F
100
AcDbEntity
  8
0
  6
CONTINUOUS
 62
     7
100
AcDbLine
 10
232.541221
 20
149.741249
 30
0.0
 11
233.344533
 21
150.064798
 31
0.0
  0
CIRCLE
  5
5FB
330
1F
100
AcDbEntity
  8
0
  6
CONTINUOUS
 62
     7
100
AcDbCircle
 10
232.662672
 20
150.598706
 30
0.0
 40
1.899998430084628
  0
CIRCLE
  5
5FC
330
1F
100
AcDbEntity
  8
0
  6
CONTINUOUS
 62
     7
100
AcDbCircle
 10
245.962667
 20
150.598711
 30
0.0
 40
2.350000503099656
  0
CIRCLE
  5
5FD
330
1F
100
AcDbEntity
  8
0
  6
CONTINUOUS
 62
     7
100
AcDbCircle
 10
232.662667
 20
150.59871
 30
0.0
 40
2.350000287992741
  0
LINE
  5
5FE
330
1F
100
AcDbEntity
  8
0
  6
CONTINUOUS
 62
     7
100
AcDbLine
 10
249.632757
 20
153.22897
 30
0.0
 11
242.249608
 21
158.398719
 31
0.0
  0
ARC
  5
5FF
330
1F
100
AcDbEntity
  8
0
  6
CONTINUOUS
 62
     7
100
AcDbCircle
 10
239.312667
 20
150.598718
 30
0.0
 40
10.64999926123137
100
AcDbArc
 50
-227.087513
 51
14.298404
  0
LINE
  5
600
330
1F
100
AcDbEntity
  8
0
  6
CONTINUOUS
 62
     7
100
AcDbLine
 10
242.249608
 20
158.398719
 30
0.0
 11
232.06129
 21
158.398719
 31
0.0
  0
LINE
  5
601
330
1F
100
AcDbEntity
  8
0
  6
CONTINUOUS
 62
     7
100
AcDbLine
 10
249.807918
 20
153.350489
 30
0.0
 11
249.632757
 21
153.22897
 31
0.0
  0
ARC
  5
602
330
1F
100
AcDbEntity
  8
0
  6
CONTINUOUS
 62
     7
100
AcDbCircle
 10
239.31267
 20
150.598708
 30
0.0
 40
10.85000095474921
100
AcDbArc
 50
-227.50422
 51
14.691849
  0
LINE
  5
603
330
1F
100
AcDbEntity
  8
0
  6
CONTINUOUS
 62
     7
100
AcDbLine
 10
232.06129
 20
158.398719
 30
0.0
 11
231.983105
 21
158.598708
 31
0.0
  0
LINE
  5
604
330
1F
100
AcDbEntity
  8
0
  6
CONTINUOUS
 62
     7
100
AcDbLine
 10
231.983105
 20
158.598708
 30
0.0
 11
242.312668
 21
158.598708
 31
0.0
  0
LINE
  5
605
330
1F
100
AcDbEntity
  8
0
  6
CONTINUOUS
 62
     7
100
AcDbLine
 10
242.312668
 20
158.598708
 30
0.0
 11
242.249608
 21
158.398719
 31
0.0
  0
CIRCLE
  5
606
330
1F
100
AcDbEntity
  8
0
  6
CONTINUOUS
 62
     7
100
AcDbCircle
 10
232.662667
 20
150.598711
 30
0.0
 40
2.150002259572461
  0
CIRCLE
  5
607
330
1F
100
AcDbEntity
  8
0
  6
CONTINUOUS
 62
     7
100
AcDbCircle
 10
245.962667
 20
150.598711
 30
0.0
 40
2.150002474679753
  0
LINE
  5
608
330
1F
100
AcDbEntity
  8
0
  6
CONTINUOUS
 62
     7
100
AcDbLine
 10
242.312668
 20
158.598708
 30
0.0
 11
249.807918
 21
153.350489
 31
0.0
  0
LINE
  5
609
330
1F
100
AcDbEntity
  8
0
  6
CONTINUOUS
 62
     7
100
AcDbLine
 10
249.807918
 20
153.350489
 30
0.0
 11
249.516556
 21
154.286968
 31
0.0
  0
LINE
  5
60A
330
1F
100
AcDbEntity
  8
0
  6
CONTINUOUS
 62
     7
100
AcDbLine
 10
244.247485
 20
160.261529
 30
0.0
 11
243.335142
 21
160.675527
 31
0.0
  0
LINE
  5
60B
330
1F
100
AcDbEntity
  8
0
  6
CONTINUOUS
 62
     7
100
AcDbLine
 10
243.335142
 20
160.675527
 30
0.0
 11
242.612668
 21
160.934688
 31
0.0
  0
ARC
  5
60C
330
1F
100
AcDbEntity
  8
0
  6
CONTINUOUS
 62
     7
100
AcDbCircle
 10
239.312658
 20
150.598719
 30
0.0
 40
10.95001129617915
100
AcDbArc
 50
-89.999945
 51
19.135605
  0
LINE
  5
60D
330
1F
100
AcDbEntity
  8
0
  6
CONTINUOUS
 62
     7
100
AcDbLine
 10
244.305394
 20
160.34423
 30
0.0
 11
244.063695
 21
160.464318
 31
0.0
  0
LINE
  5
60E
330
1F
100
AcDbEntity
  8
0
  6
CONTINUOUS
 62
     7
100
AcDbLine
 10
244.063695
 20
160.464318
 30
0.0
 11
242.612668
 21
161.039622
 31
0.0
  0
ARC
  5
60F
330
1F
100
AcDbEntity
  8
0
  6
CONTINUOUS
 62
     7
100
AcDbCircle
 10
239.312677
 20
150.598715
 30
0.0
 40
10.95000714689231
100
AcDbArc
 50
133.015358
 51
269.999953
  0
ARC
  5
610
330
1F
100
AcDbEntity
  8
0
  6
CONTINUOUS
 62
     7
100
AcDbCircle
 10
239.312692
 20
150.598701
 30
0.0
 40
10.90002298933513
100
AcDbArc
 50
133.11968
 51
179.999972
  0
LINE
  5
611
330
1F
100
AcDbEntity
  8
0
  6
CONTINUOUS
 62
     7
100
AcDbLine
 10
242.612668
 20
160.98717
 30
0.0
 11
243.596641
 21
160.62157
 31
0.0
  0
LINE
  5
612
330
1F
100
AcDbEntity
  8
0
  6
CONTINUOUS
 62
     7
100
AcDbLine
 10
243.596641
 20
160.62157
 30
0.0
 11
244.276441
 21
160.302879
 31
0.0
  0
ARC
  5
613
330
1F
100
AcDbEntity
  8
0
  6
CONTINUOUS
 62
     7
100
AcDbCircle
 10
239.312668
 20
150.598717
 30
0.0
 40
10.89999927901899
100
AcDbArc
 50
-179.999948
 51
19.500756
  0
ARC
  5
614
330
1F
100
AcDbEntity
  8
0
  6
CONTINUOUS
 62
     7
100
AcDbCircle
 10
239.312657
 20
150.598719
 30
0.0
 40
10.98998828641017
100
AcDbArc
 50
133.01013
 51
180.000065
  0
LINE
  5
615
330
1F
100
AcDbEntity
  8
0
  6
CONTINUOUS
 62
     7
100
AcDbLine
 10
242.612668
 20
161.081554
 30
0.0
 11
243.632013
 21
160.704317
 31
0.0
  0
LINE
  5
616
330
1F
100
AcDbEntity
  8
0
  6
CONTINUOUS
 62
     7
100
AcDbLine
 10
243.632013
 20
160.704317
 30
0.0
 11
244.328555
 21
160.377311
 31
0.0
  0
ARC
  5
617
330
1F
100
AcDbEntity
  8
0
  6
CONTINUOUS
 62
     7
100
AcDbCircle
 10
239.31267
 20
150.59871
 30
0.0
 40
10.99000154683278
100
AcDbArc
 50
-179.999983
 51
18.848202
  0
ARC
  5
618
330
1F
100
AcDbEntity
  8
0
  6
CONTINUOUS
 62
     7
100
AcDbCircle
 10
239.312706
 20
150.5987
 30
0.0
 40
11.00003708937144
100
AcDbArc
 50
132.998162
 51
179.999965
  0
LINE
  5
619
330
1F
100
AcDbEntity
  8
0
  6
CONTINUOUS
 62
     7
100
AcDbLine
 10
242.612668
 20
161.092045
 30
0.0
 11
243.635944
 21
160.713525
 31
0.0
  0
LINE
  5
61A
330
1F
100
AcDbEntity
  8
0
  6
CONTINUOUS
 62
     7
100
AcDbLine
 10
243.635944
 20
160.713525
 30
0.0
 11
244.334345
 21
160.385581
 31
0.0
  0
ARC
  5
61B
330
1F
100
AcDbEntity
  8
0
  6
CONTINUOUS
 62
     7
100
AcDbCircle
 10
239.312668
 20
150.598711
 30
0.0
 40
10.99999957188432
100
AcDbArc
 50
-179.999975
 51
18.778434
  0
INSERT
  5
61F
330
1F
100
AcDbEntity
  8
0
100
AcDbBlockReference
  2
BLKF037
 10
0.0
 20
0.0
 30
0.0
  0
INSERT
  5
62E
330
1F
100
AcDbEntity
  8
0
100
AcDbBlockReference
  2
BLKF038
 10
0.0
 20
0.0
 30
0.0
  0
INSERT
  5
63D
330
1F
100
AcDbEntity
  8
0
100
AcDbBlockReference
  2
BLKF039
 10
0.0
 20
0.0
 30
0.0
  0
INSERT
  5
64B
330
1F
100
AcDbEntity
  8
0
100
AcDbBlockReference
  2
BLKF040
 10
0.0
 20
0.0
 30
0.0
  0
LINE
  5
657
330
1F
100
AcDbEntity
  8
0
  6
CONTINUOUS
 62
     7
100
AcDbLine
 10
232.286012
 20
171.866657
 30
0.0
 11
231.612669
 21
171.866657
 31
0.0
  0
LINE
  5
658
330
1F
100
AcDbEntity
  8
0
  6
CONTINUOUS
 62
     7
100
AcDbLine
 10
231.612669
 20
171.866657
 30
0.0
 11
231.612669
 21
172.577085
 31
0.0
  0
LINE
  5
659
330
1F
100
AcDbEntity
  8
0
  6
CONTINUOUS
 62
     7
100
AcDbLine
 10
231.612669
 20
172.577085
 30
0.0
 11
231.612669
 21
172.71571
 31
0.0
  0
INSERT
  5
65D
330
1F
100
AcDbEntity
  8
0
100
AcDbBlockReference
  2
BLKF041
 10
0.0
 20
0.0
 30
0.0
  0
LINE
  5
661
330
1F
100
AcDbEntity
  8
0
  6
CONTINUOUS
 62
     7
100
AcDbLine
 10
242.612668
 20
171.866657
 30
0.0
 11
241.939324
 21
171.866657
 31
0.0
  0
INSERT
  5
665
330
1F
100
AcDbEntity
  8
0
100
AcDbBlockReference
  2
BLKF042
 10
0.0
 20
0.0
 30
0.0
  0
LINE
  5
747
330
1F
100
AcDbEntity
  8
0
  6
CONTINUOUS
 62
     7
100
AcDbLine
 10
237.786012
 20
171.866657
 30
0.0
 11
236.439324
 21
171.866657
 31
0.0
  0
INSERT
  5
74B
330
1F
100
AcDbEntity
  8
0
100
AcDbBlockReference
  2
BLKF043
 10
0.0
 20
0.0
 30
0.0
  0
LINE
  5
78E
330
1F
100
AcDbEntity
  8
0
  6
CONTINUOUS
 62
     7
100
AcDbLine
 10
239.612668
 20
173.598709
 30
0.0
 11
232.112669
 21
173.598709
 31
0.0
  0
LINE
  5
78F
330
1F
100
AcDbEntity
  8
0
  6
CONTINUOUS
 62
     7
100
AcDbLine
 10
242.112668
 20
173.598709
 30
0.0
 11
239.612668
 21
173.598709
 31
0.0
  0
LINE
  5
790
330
1F
100
AcDbEntity
  8
0
  6
CONTINUOUS
 62
     7
100
AcDbLine
 10
236.439324
 20
171.866657
 30
0.0
 11
236.439324
 21
169.198709
 31
0.0
  0
LINE
  5
791
330
1F
100
AcDbEntity
  8
0
  6
CONTINUOUS
 62
     7
100
AcDbLine
 10
236.211993
 20
169.098707
 30
0.0
 11
236.439324
 21
169.198709
 31
0.0
  0
LINE
  5
792
330
1F
100
AcDbEntity
  8
0
  6
CONTINUOUS
 62
     7
100
AcDbLine
 10
232.286012
 20
169.198709
 30
0.0
 11
232.513344
 21
169.098707
 31
0.0
  0
LINE
  5
793
330
1F
100
AcDbEntity
  8
0
  6
CONTINUOUS
 62
     7
100
AcDbLine
 10
232.286012
 20
171.866657
 30
0.0
 11
232.286012
 21
169.198709
 31
0.0
  0
LINE
  5
794
330
1F
100
AcDbEntity
  8
0
  6
CONTINUOUS
 62
     7
100
AcDbLine
 10
232.513344
 20
169.098707
 30
0.0
 11
236.211993
 21
169.098707
 31
0.0
  0
LINE
  5
795
330
1F
100
AcDbEntity
  8
0
  6
CONTINUOUS
 62
     7
100
AcDbLine
 10
237.786012
 20
169.198709
 30
0.0
 11
236.439324
 21
169.198709
 31
0.0
  0
LINE
  5
796
330
1F
100
AcDbEntity
  8
0
  6
CONTINUOUS
 62
     7
100
AcDbLine
 10
237.786012
 20
169.198709
 30
0.0
 11
238.013344
 21
169.098707
 31
0.0
  0
LINE
  5
797
330
1F
100
AcDbEntity
  8
0
  6
CONTINUOUS
 62
     7
100
AcDbLine
 10
238.013344
 20
169.098707
 30
0.0
 11
236.211993
 21
169.098707
 31
0.0
  0
LINE
  5
798
330
1F
100
AcDbEntity
  8
0
  6
CONTINUOUS
 62
     7
100
AcDbLine
 10
237.786012
 20
171.866657
 30
0.0
 11
237.786012
 21
169.198709
 31
0.0
  0
LINE
  5
799
330
1F
100
AcDbEntity
  8
0
  6
CONTINUOUS
 62
     7
100
AcDbLine
 10
241.939324
 20
171.866657
 30
0.0
 11
241.939324
 21
169.198709
 31
0.0
  0
LINE
  5
79A
330
1F
100
AcDbEntity
  8
0
  6
CONTINUOUS
 62
     7
100
AcDbLine
 10
241.711993
 20
169.098707
 30
0.0
 11
241.939324
 21
169.198709
 31
0.0
  0
LINE
  5
79B
330
1F
100
AcDbEntity
  8
0
  6
CONTINUOUS
 62
     7
100
AcDbLine
 10
238.013344
 20
169.098707
 30
0.0
 11
241.711993
 21
169.098707
 31
0.0
  0
LINE
  5
79C
330
1F
100
AcDbEntity
  8
0
  6
CONTINUOUS
 62
     7
100
AcDbLine
 10
231.612669
 20
169.098707
 30
0.0
 11
231.612669
 21
169.198709
 31
0.0
  0
LINE
  5
79D
330
1F
100
AcDbEntity
  8
0
  6
CONTINUOUS
 62
     7
100
AcDbLine
 10
232.286012
 20
169.198709
 30
0.0
 11
231.612669
 21
169.198709
 31
0.0
  0
LINE
  5
79E
330
1F
100
AcDbEntity
  8
0
  6
CONTINUOUS
 62
     7
100
AcDbLine
 10
232.513344
 20
169.098707
 30
0.0
 11
231.612669
 21
169.098707
 31
0.0
  0
LINE
  5
79F
330
1F
100
AcDbEntity
  8
0
  6
CONTINUOUS
 62
     7
100
AcDbLine
 10
242.612668
 20
169.198709
 30
0.0
 11
241.939324
 21
169.198709
 31
0.0
  0
LINE
  5
7A0
330
1F
100
AcDbEntity
  8
0
  6
CONTINUOUS
 62
     7
100
AcDbLine
 10
242.612668
 20
169.198709
 30
0.0
 11
242.612668
 21
169.098707
 31
0.0
  0
LINE
  5
7A1
330
1F
100
AcDbEntity
  8
0
  6
CONTINUOUS
 62
     7
100
AcDbLine
 10
242.612668
 20
169.098707
 30
0.0
 11
241.711993
 21
169.098707
 31
0.0
  0
LINE
  5
7A2
330
1F
100
AcDbEntity
  8
0
  6
CONTINUOUS
 62
     7
100
AcDbLine
 10
231.612669
 20
171.866657
 30
0.0
 11
231.612669
 21
169.198709
 31
0.0
  0
LINE
  5
7A3
330
1F
100
AcDbEntity
  8
0
  6
CONTINUOUS
 62
     7
100
AcDbLine
 10
242.612668
 20
171.866657
 30
0.0
 11
242.612668
 21
169.198709
 31
0.0
  0
LINE
  5
7A4
330
1F
100
AcDbEntity
  8
0
  6
CONTINUOUS
 62
     7
100
AcDbLine
 10
235.658816
 20
158.598708
 30
0.0
 11
236.439324
 21
158.898713
 31
0.0
  0
INSERT
  5
7A8
330
1F
100
AcDbEntity
  8
0
100
AcDbBlockReference
  2
BLKF044
 10
0.0
 20
0.0
 30
0.0
  0
LINE
  5
7C3
330
1F
100
AcDbEntity
  8
0
  6
CONTINUOUS
 62
     7
100
AcDbLine
 10
232.286012
 20
168.598713
 30
0.0
 11
232.286012
 21
158.898713
 31
0.0
  0
INSERT
  5
7C7
330
1F
100
AcDbEntity
  8
0
100
AcDbBlockReference
  2
BLKF045
 10
0.0
 20
0.0
 30
0.0
  0
LINE
  5
7EC
330
1F
100
AcDbEntity
  8
0
  6
CONTINUOUS
 62
     7
100
AcDbLine
 10
236.439324
 20
168.598713
 30
0.0
 11
234.362668
 21
169.098707
 31
0.0
  0
LINE
  5
7ED
330
1F
100
AcDbEntity
  8
0
  6
CONTINUOUS
 62
     7
100
AcDbLine
 10
236.439324
 20
168.598713
 30
0.0
 11
236.439324
 21
158.898713
 31
0.0
  0
LINE
  5
7EE
330
1F
100
AcDbEntity
  8
0
  6
CONTINUOUS
 62
     7
100
AcDbLine
 10
237.786012
 20
168.598713
 30
0.0
 11
236.439324
 21
168.598713
 31
0.0
  0
INSERT
  5
7F2
330
1F
100
AcDbEntity
  8
0
100
AcDbBlockReference
  2
BLKF046
 10
0.0
 20
0.0
 30
0.0
  0
LINE
  5
817
330
1F
100
AcDbEntity
  8
0
  6
CONTINUOUS
 62
     7
100
AcDbLine
 10
237.786012
 20
158.898713
 30
0.0
 11
236.439324
 21
158.898713
 31
0.0
  0
LINE
  5
818
330
1F
100
AcDbEntity
  8
0
  6
CONTINUOUS
 62
     7
100
AcDbLine
 10
237.786012
 20
158.898713
 30
0.0
 11
238.56652
 21
158.598708
 31
0.0
  0
LINE
  5
819
330
1F
100
AcDbEntity
  8
0
  6
CONTINUOUS
 62
     7
100
AcDbLine
 10
237.786012
 20
168.598713
 30
0.0
 11
237.786012
 21
158.898713
 31
0.0
  0
LINE
  5
81A
330
1F
100
AcDbEntity
  8
0
  6
CONTINUOUS
 62
     7
100
AcDbLine
 10
241.158816
 20
158.598708
 30
0.0
 11
241.939324
 21
158.898713
 31
0.0
  0
LINE
  5
81B
330
1F
100
AcDbEntity
  8
0
  6
CONTINUOUS
 62
     7
100
AcDbLine
 10
241.939324
 20
168.598713
 30
0.0
 11
239.862668
 21
169.098707
 31
0.0
  0
LINE
  5
81C
330
1F
100
AcDbEntity
  8
0
  6
CONTINUOUS
 62
     7
100
AcDbLine
 10
241.939324
 20
168.598713
 30
0.0
 11
241.939324
 21
158.898713
 31
0.0
  0
LINE
  5
81D
330
1F
100
AcDbEntity
  8
0
  6
CONTINUOUS
 62
     7
100
AcDbLine
 10
232.286012
 20
168.598713
 30
0.0
 11
231.612669
 21
168.598713
 31
0.0
  0
LINE
  5
81E
330
1F
100
AcDbEntity
  8
0
  6
CONTINUOUS
 62
     7
100
AcDbLine
 10
231.612669
 20
168.598713
 30
0.0
 11
231.612669
 21
168.748708
 31
0.0
  0
LINE
  5
81F
330
1F
100
AcDbEntity
  8
0
  6
CONTINUOUS
 62
     7
100
AcDbLine
 10
242.612668
 20
168.598713
 30
0.0
 11
241.939324
 21
168.598713
 31
0.0
  0
LINE
  5
820
330
1F
100
AcDbEntity
  8
0
  6
CONTINUOUS
 62
     7
100
AcDbLine
 10
242.612668
 20
169.098707
 30
0.0
 11
242.612668
 21
168.756368
 31
0.0
  0
LINE
  5
821
330
1F
100
AcDbEntity
  8
0
  6
CONTINUOUS
 62
     7
100
AcDbLine
 10
242.612668
 20
168.756368
 30
0.0
 11
242.612668
 21
168.598713
 31
0.0
  0
LINE
  5
822
330
1F
100
AcDbEntity
  8
0
  6
CONTINUOUS
 62
     7
100
AcDbLine
 10
231.612669
 20
158.598708
 30
0.0
 11
231.612669
 21
158.898713
 31
0.0
  0
LINE
  5
823
330
1F
100
AcDbEntity
  8
0
  6
CONTINUOUS
 62
     7
100
AcDbLine
 10
232.286012
 20
158.898713
 30
0.0
 11
231.612669
 21
158.898713
 31
0.0
  0
LINE
  5
824
330
1F
100
AcDbEntity
  8
0
  6
CONTINUOUS
 62
     7
100
AcDbLine
 10
231.983105
 20
158.598708
 30
0.0
 11
231.612669
 21
158.598708
 31
0.0
  0
LINE
  5
825
330
1F
100
AcDbEntity
  8
0
  6
CONTINUOUS
 62
     7
100
AcDbLine
 10
242.612668
 20
158.898713
 30
0.0
 11
241.939324
 21
158.898713
 31
0.0
  0
LINE
  5
826
330
1F
100
AcDbEntity
  8
0
  6
CONTINUOUS
 62
     7
100
AcDbLine
 10
242.612668
 20
158.898713
 30
0.0
 11
242.612668
 21
158.623921
 31
0.0
  0
LINE
  5
827
330
1F
100
AcDbEntity
  8
0
  6
CONTINUOUS
 62
     7
100
AcDbLine
 10
242.612668
 20
158.623921
 30
0.0
 11
242.612668
 21
158.598708
 31
0.0
  0
LINE
  5
828
330
1F
100
AcDbEntity
  8
0
  6
CONTINUOUS
 62
     7
100
AcDbLine
 10
242.612668
 20
158.598708
 30
0.0
 11
242.312668
 21
158.598708
 31
0.0
  0
LINE
  5
829
330
1F
100
AcDbEntity
  8
0
  6
CONTINUOUS
 62
     7
100
AcDbLine
 10
231.612669
 20
168.598713
 30
0.0
 11
231.612669
 21
158.898713
 31
0.0
  0
LINE
  5
82A
330
1F
100
AcDbEntity
  8
0
  6
CONTINUOUS
 62
     7
100
AcDbLine
 10
242.612668
 20
168.598713
 30
0.0
 11
242.612668
 21
158.898713
 31
0.0
  0
INSERT
  5
82E
330
1F
100
AcDbEntity
  8
0
100
AcDbBlockReference
  2
BLKF047
 10
0.0
 20
0.0
 30
0.0
  0
INSERT
  5
83D
330
1F
100
AcDbEntity
  8
0
100
AcDbBlockReference
  2
BLKF048
 10
0.0
 20
0.0
 30
0.0
  0
ENDSEC
  0
SECTION
  2
OBJECTS
  0
DICTIONARY
  5
C
330
0
100
AcDbDictionary
  3
ACAD_GROUP
350
D
  3
ACAD_LAYOUT
350
1A
  3
ACAD_MLINESTYLE
350
17
  3
ACAD_PLOTSETTINGS
350
19
1001
ACAD
1000
TREAT_AS_HARD
1070
     0
  0
DICTIONARY
  5
D
102
{ACAD_REACTORS
330
C
102
}
330
C
100
AcDbDictionary
1001
ACAD
1000
TREAT_AS_HARD
1070
     0
  0
DICTIONARY
  5
1A
102
{ACAD_REACTORS
330
C
102
}
330
C
100
AcDbDictionary
1001
ACAD
1000
TREAT_AS_HARD
1070
     0
  0
DICTIONARY
  5
17
102
{ACAD_REACTORS
330
C
102
}
330
C
100
AcDbDictionary
  3
STANDARD
350
18
1001
ACAD
1000
TREAT_AS_HARD
1070
     0
  0
DICTIONARY
  5
19
102
{ACAD_REACTORS
330
C
102
}
330
C
100
AcDbDictionary
1001
ACAD
1000
TREAT_AS_HARD
1070
     0
  0
MLINESTYLE
  5
18
102
{ACAD_REACTORS
330
17
102
}
330
17
100
AcDbMlineStyle
  2
Standard
 70
     0
  3

 62
   256
 51
90.0
 52
90.0
 71
     2
 49
0.5
 62
   256
  6
BYLAYER
 49
-0.5
 62
   256
  6
BYLAYER
  0
ENDSEC
  0
EOF
