  0
SECTION
  2
HEADER
  9
$ACADVER
  1
AC1012
  9
$DWGCODEPAGE
  3
ansi_932
  9
$INSBASE
 10
0.0
 20
0.0
 30
0.0
  9
$EXTMIN
 10
0.0
 20
0.0
 30
0.0
  9
$EXTMAX
 10
291.032125
 20
518.48835
 30
0.0
  9
$LIMMIN
 10
0.0
 20
0.0
  9
$LIMMAX
 10
291.032125
 20
518.48835
  9
$ORTHOMODE
 70
     0
  9
$REGENMODE
 70
     1
  9
$FILLMODE
 70
     1
  9
$QTEXTMODE
 70
     0
  9
$MIRRTEXT
 70
     1
  9
$DRAGMODE
 70
     2
  9
$LTSCALE
 40
1.0
  9
$OSMODE
 70
    37
  9
$ATTMODE
 70
     1
  9
$TEXTSIZE
 40
0.2
  9
$TRACEWID
 40
0.05
  9
$TEXTSTYLE
  7
ED_VECTOR
  9
$CLAYER
  8
0
  9
$CELTYPE
  6
BYLAYER
  9
$CECOLOR
 62
   256
  9
$CELTSCALE
 40
1.0
  9
$DELOBJ
 70
     1
  9
$DISPSILH
 70
     0
  9
$DIMSCALE
 40
1.0
  9
$DIMASZ
 40
3.0
  9
$DIMEXO
 40
1.0
  9
$DIMDLI
 40
10.0
  9
$DIMRND
 40
0.0
  9
$DIMDLE
 40
5.0
  9
$DIMEXE
 40
1.0
  9
$DIMTP
 40
0.0
  9
$DIMTM
 40
0.0
  9
$DIMTXT
 40
4.0
  9
$DIMCEN
 40
2.5
  9
$DIMTSZ
 40
0.0
  9
$DIMTOL
 70
     0
  9
$DIMLIM
 70
     0
  9
$DIMTIH
 70
     0
  9
$DIMTOH
 70
     0
  9
$DIMSE1
 70
     0
  9
$DIMSE2
 70
     0
  9
$DIMTAD
 70
     1
  9
$DIMZIN
 70
     8
  9
$DIMBLK
  1

  9
$DIMASO
 70
     1
  9
$DIMSHO
 70
     1
  9
$DIMPOST
  1

  9
$DIMAPOST
  1

  9
$DIMALT
 70
     0
  9
$DIMALTD
 70
     3
  9
$DIMALTF
 40
0.03937
  9
$DIMLFAC
 40
1.0
  9
$DIMTOFL
 70
     1
  9
$DIMTVP
 40
0.0
  9
$DIMTIX
 70
     0
  9
$DIMSOXD
 70
     0
  9
$DIMSAH
 70
     1
  9
$DIMBLK1
  1
EDTIP_ARROW_S
  9
$DIMBLK2
  1
EDTIP_ARROW_E
  9
$DIMSTYLE
  2
EDDIMINFO
  9
$DIMCLRD
 70
     7
  9
$DIMCLRE
 70
     7
  9
$DIMCLRT
 70
     7
  9
$DIMTFAC
 40
1.0
  9
$DIMGAP
 40
1.0
  9
$DIMJUST
 70
     0
  9
$DIMSD1
 70
     0
  9
$DIMSD2
 70
     0
  9
$DIMTOLJ
 70
     0
  9
$DIMTZIN
 70
     8
  9
$DIMALTZ
 70
     0
  9
$DIMALTTZ
 70
     0
  9
$DIMFIT
 70
     3
  9
$DIMUPT
 70
     0
  9
$DIMUNIT
 70
     2
  9
$DIMDEC
 70
     2
  9
$DIMTDEC
 70
     2
  9
$DIMALTU
 70
     2
  9
$DIMALTTD
 70
     3
  9
$DIMTXSTY
  7
ED_VECTOR
  9
$DIMAUNIT
 70
     0
  9
$LUNITS
 70
     2
  9
$LUPREC
 70
     4
  9
$SKETCHINC
 40
0.1
  9
$FILLETRAD
 40
0.5
  9
$AUNITS
 70
     0
  9
$AUPREC
 70
     0
  9
$MENU
  1
.
  9
$ELEVATION
 40
0.0
  9
$PELEVATION
 40
0.0
  9
$THICKNESS
 40
0.0
  9
$LIMCHECK
 70
     0
  9
$CHAMFERA
 40
0.5
  9
$CHAMFERB
 40
0.5
  9
$CHAMFERC
 40
1.0
  9
$CHAMFERD
 40
0.0
  9
$SKPOLY
 70
     0
  9
$TDCREATE
 40
2455247.696138334
  9
$TDUPDATE
 40
2455247.696138345
  9
$TDINDWG
 40
0.0000000116
  9
$TDUSRTIMER
 40
0.0000000116
  9
$USRTIMER
 70
     1
  9
$ANGBASE
 50
0.0
  9
$ANGDIR
 70
     0
  9
$PDMODE
 70
     0
  9
$PDSIZE
 40
0.0
  9
$PLINEWID
 40
0.0
  9
$COORDS
 70
     1
  9
$SPLFRAME
 70
     0
  9
$SPLINETYPE
 70
     6
  9
$SPLINESEGS
 70
     8
  9
$ATTDIA
 70
     0
  9
$ATTREQ
 70
     1
  9
$HANDLING
 70
     1
  9
$HANDSEED
  5
844
  9
$SURFTAB1
 70
     6
  9
$SURFTAB2
 70
     6
  9
$SURFTYPE
 70
     6
  9
$SURFU
 70
     6
  9
$SURFV
 70
     6
  9
$UCSNAME
  2

  9
$UCSORG
 10
0.0
 20
0.0
 30
0.0
  9
$UCSXDIR
 10
1.0
 20
0.0
 30
0.0
  9
$UCSYDIR
 10
0.0
 20
1.0
 30
0.0
  9
$PUCSNAME
  2

  9
$PUCSORG
 10
0.0
 20
0.0
 30
0.0
  9
$PUCSXDIR
 10
1.0
 20
0.0
 30
0.0
  9
$PUCSYDIR
 10
0.0
 20
1.0
 30
0.0
  9
$USERI1
 70
     0
  9
$USERI2
 70
     0
  9
$USERI3
 70
     0
  9
$USERI4
 70
     0
  9
$USERI5
 70
     0
  9
$USERR1
 40
0.0
  9
$USERR2
 40
0.0
  9
$USERR3
 40
0.0
  9
$USERR4
 40
0.0
  9
$USERR5
 40
0.0
  9
$WORLDVIEW
 70
     1
  9
$SHADEDGE
 70
     3
  9
$SHADEDIF
 70
    70
  9
$TILEMODE
 70
     1
  9
$MAXACTVP
 70
    64
  9
$PINSBASE
 10
0.0
 20
0.0
 30
0.0
  9
$PLIMCHECK
 70
     0
  9
$PEXTMIN
 10
1.000000E+20
 20
1.000000E+20
 30
1.000000E+20
  9
$PEXTMAX
 10
-1.000000E+20
 20
-1.000000E+20
 30
-1.000000E+20
  9
$PLIMMIN
 10
0.0
 20
0.0
  9
$PLIMMAX
 10
12.0
 20
9.0
  9
$UNITMODE
 70
     0
  9
$VISRETAIN
 70
     1
  9
$PLINEGEN
 70
     0
  9
$PSLTSCALE
 70
     1
  9
$TREEDEPTH
 70
  3020
  9
$PICKSTYLE
 70
     1
  9
$CMLSTYLE
  2
STANDARD
  9
$CMLJUST
 70
     0
  9
$CMLSCALE
 40
1.0
  9
$SAVEIMAGES
 70
     1
  0
ENDSEC
  0
SECTION
  2
CLASSES
  0
CLASS
  1
ACDBDICTIONARYWDFLT
  2
AcDbDictionaryWithDefault
  3
ObjectDBX Classes
 90
    32768
280
     0
281
     0
  0
CLASS
  1
XRECORD
  2
AcDbXrecord
  3
AutoCAD 2000
 90
    32768
280
     0
281
     0
  0
CLASS
  1
LWPOLYLINE
  2
AcDbPolyline
  3
AutoCAD 2000
 90
    32768
280
     0
281
     1
  0
CLASS
  1
HATCH
  2
AcDbHatch
  3
AutoCAD 2000
 90
    32768
280
     0
281
     1
  0
CLASS
  1
ACDBPLACEHOLDER
  2
AcDbPlaceHolder
  3
ObjectDBX Classes
 90
        0
280
     0
281
     0
  0
CLASS
  1
LAYOUT
  2
AcDbLayout
  3
ObjectDBX Classes
 90
        0
280
     0
281
     0
  0
ENDSEC
  0
SECTION
  2
TABLES
  0
TABLE
  2
VPORT
  5
8
330
0
100
AcDbSymbolTable
 70
     1
  0
VPORT
  5
29
330
8
100
AcDbSymbolTableRecord
100
AcDbViewportTableRecord
  2
*ACTIVE
 70
     0
 10
0.0
 20
0.0
 11
1.0
 21
1.0
 12
145.516063
 22
259.244175
 13
0.0
 23
0.0
 14
0.5
 24
0.5
 15
0.5
 25
0.5
 16
0.0
 26
0.0
 36
1.0
 17
0.0
 27
0.0
 37
0.0
 40
518.48835
 41
0.561309
 42
50.0
 43
0.0
 44
0.0
 50
0.0
 51
0.0
 71
     0
 72
   100
 73
     1
 74
     3
 75
     0
 76
     0
 77
     0
 78
     0
  0
ENDTAB
  0
TABLE
  2
LTYPE
  5
5
330
0
100
AcDbSymbolTable
 70
     5
  0
LTYPE
  5
14
330
5
100
AcDbSymbolTableRecord
100
AcDbLinetypeTableRecord
  2
BYBLOCK
 70
     0
  3

 72
    65
 73
     0
 40
0.0
  0
LTYPE
  5
15
330
5
100
AcDbSymbolTableRecord
100
AcDbLinetypeTableRecord
  2
BYLAYER
 70
     0
  3

 72
    65
 73
     0
 40
0.0
  0
LTYPE
  5
16
330
5
100
AcDbSymbolTableRecord
100
AcDbLinetypeTableRecord
  2
CONTINUOUS
 70
     0
  3
--------------------
 72
    65
 73
     0
 40
0.0
  0
LTYPE
  5
2A
330
5
100
AcDbSymbolTableRecord
100
AcDbLinetypeTableRecord
  2
DASHED
 70
     0
  3
- - - - - - - - - - -
 72
    65
 73
     2
 40
19.1
 49
12.7
 74
     0
 49
-6.4
 74
     0
  0
LTYPE
  5
2B
330
5
100
AcDbSymbolTableRecord
100
AcDbLinetypeTableRecord
  2
CENTER
 70
     0
  3
- ･ - ･ - ･ - ･ - ･ - ･ - ･ - ･ - ･ - ･ -
 72
    65
 73
     4
 40
51.0
 49
31.8
 74
     0
 49
-6.4
 74
     0
 49
6.4
 74
     0
 49
-6.4
 74
     0
  0
LTYPE
  5
2C
330
5
100
AcDbSymbolTableRecord
100
AcDbLinetypeTableRecord
  2
PHANTOM
 70
     0
  3
- ･ ･ - ･ ･ - ･ ･ - ･ ･ - ･ ･ - ･ ･ - ･ ･ - 
 72
    65
 73
     6
 40
63.8
 49
31.8
 74
     0
 49
-6.4
 74
     0
 49
6.4
 74
     0
 49
-6.4
 74
     0
 49
6.4
 74
     0
 49
-6.4
 74
     0
  0
LTYPE
  5
2D
330
5
100
AcDbSymbolTableRecord
100
AcDbLinetypeTableRecord
  2
DOT
 70
     0
  3
・・・・・・・・・・・・・・・
 72
    65
 73
     2
 40
6.5
 49
0.1
 74
     0
 49
-6.4
 74
     0
  0
ENDTAB
  0
TABLE
  2
LAYER
  5
2
330
0
100
AcDbSymbolTable
 70
    16
  0
LAYER
  5
10
330
2
100
AcDbSymbolTableRecord
100
AcDbLayerTableRecord
  2
0
 70
     0
 62
     7
  6
CONTINUOUS
  0
LAYER
  5
2F
330
2
100
AcDbSymbolTableRecord
100
AcDbLayerTableRecord
  2
CSLAYER3
 70
     0
 62
     7
  6
CONTINUOUS
  0
ENDTAB
  0
TABLE
  2
STYLE
  5
3
330
0
100
AcDbSymbolTable
 70
     2
  0
STYLE
  5
11
330
3
100
AcDbSymbolTableRecord
100
AcDbTextStyleTableRecord
  2
STANDARD
 70
     0
 40
0.0
 41
1.0
 50
0.0
 71
     0
 42
0.2
  3
txt
  4

  0
STYLE
  5
3D
330
3
100
AcDbSymbolTableRecord
100
AcDbTextStyleTableRecord
  2
ED_VECTOR
 70
     0
 40
0.0
 41
1.0
 50
0.0
 71
     0
 42
0.2
  3
MONOTXT.SHX
  4
BIGFONT.SHX
  0
ENDTAB
  0
TABLE
  2
VIEW
  5
6
330
0
100
AcDbSymbolTable
 70
     0
  0
ENDTAB
  0
TABLE
  2
UCS
  5
7
330
0
100
AcDbSymbolTable
 70
     0
  0
ENDTAB
  0
TABLE
  2
APPID
  5
9
330
0
100
AcDbSymbolTable
 70
     1
  0
APPID
  5
12
330
9
100
AcDbSymbolTableRecord
100
AcDbRegAppTableRecord
  2
ACAD
 70
     0
  0
ENDTAB
  0
TABLE
  2
DIMSTYLE
  5
A
330
0
100
AcDbSymbolTable
 70
     2
  0
DIMSTYLE
105
27
330
A
100
AcDbSymbolTableRecord
100
AcDbDimStyleTableRecord
  2
STANDARD
 70
     0
  3

  4

  5

  6

  7

 40
1.0
 41
0.18
 42
0.0625
 43
0.38
 44
0.18
 45
0.0
 46
0.0
 47
0.0
 48
0.0
140
0.18
141
0.09
142
0.0
143
25.4
144
1.0
145
0.0
146
1.0
147
0.09
 71
     0
 72
     0
 73
     1
 74
     1
 75
     0
 76
     0
 77
     0
 78
     0
170
     0
171
     2
172
     0
173
     0
174
     0
175
     0
176
     0
177
     0
178
     0
270
     2
271
     4
272
     4
273
     2
274
     2
340
11
275
     0
280
     0
281
     0
282
     0
283
     1
284
     0
285
     0
286
     0
287
     3
288
     0
  0
DIMSTYLE
105
6E
330
A
100
AcDbSymbolTableRecord
100
AcDbDimStyleTableRecord
  2
EDDIMINFO
 70
     0
  3

  4

  5

  6
EDTIP_ARROW_S
  7
EDTIP_ARROW_E
 40
1.0
 41
3.0
 42
1.0
 43
10.0
 44
1.0
 45
0.0
 46
5.0
 47
0.0
 48
0.0
140
4.0
141
2.5
142
0.0
143
0.03937
144
1.0
145
0.0
146
1.0
147
1.0
 71
     0
 72
     0
 73
     0
 74
     0
 75
     0
 76
     0
 77
     1
 78
     8
170
     0
171
     3
172
     1
173
     1
174
     0
175
     0
176
     7
177
     7
178
     7
179
     2
270
     2
271
     2
272
     2
273
     2
274
     3
340
3D
275
     0
280
     0
281
     0
282
     0
283
     0
284
     8
285
     0
286
     0
287
     3
288
     0
  0
ENDTAB
  0
TABLE
  2
BLOCK_RECORD
  5
1
330
0
100
AcDbSymbolTable
 70
    47
  0
BLOCK_RECORD
  5
1F
330
1
100
AcDbSymbolTableRecord
100
AcDbBlockTableRecord
  2
*MODEL_SPACE
  0
BLOCK_RECORD
  5
1B
330
1
100
AcDbSymbolTableRecord
100
AcDbBlockTableRecord
  2
*PAPER_SPACE
  0
BLOCK_RECORD
  5
3E
330
1
100
AcDbSymbolTableRecord
100
AcDbBlockTableRecord
  2
EDTIP_ARROW_S
  0
BLOCK_RECORD
  5
44
330
1
100
AcDbSymbolTableRecord
100
AcDbBlockTableRecord
  2
EDTIP_ARROW_E
  0
BLOCK_RECORD
  5
4A
330
1
100
AcDbSymbolTableRecord
100
AcDbBlockTableRecord
  2
EDTIP_BLACKDOT_S
  0
BLOCK_RECORD
  5
50
330
1
100
AcDbSymbolTableRecord
100
AcDbBlockTableRecord
  2
EDTIP_BLACKDOT_E
  0
BLOCK_RECORD
  5
56
330
1
100
AcDbSymbolTableRecord
100
AcDbBlockTableRecord
  2
EDTIP_ARCHITECT_S
  0
BLOCK_RECORD
  5
5C
330
1
100
AcDbSymbolTableRecord
100
AcDbBlockTableRecord
  2
EDTIP_ARCHITECT_E
  0
BLOCK_RECORD
  5
62
330
1
100
AcDbSymbolTableRecord
100
AcDbBlockTableRecord
  2
EDTIP_CIVIL_S
  0
BLOCK_RECORD
  5
68
330
1
100
AcDbSymbolTableRecord
100
AcDbBlockTableRecord
  2
EDTIP_CIVIL_E
  0
BLOCK_RECORD
  5
11A
330
1
100
AcDbSymbolTableRecord
100
AcDbBlockTableRecord
  2
BLKF011
  0
BLOCK_RECORD
  5
1A2
330
1
100
AcDbSymbolTableRecord
100
AcDbBlockTableRecord
  2
BLKF012
  0
BLOCK_RECORD
  5
203
330
1
100
AcDbSymbolTableRecord
100
AcDbBlockTableRecord
  2
BLKF013
  0
BLOCK_RECORD
  5
23F
330
1
100
AcDbSymbolTableRecord
100
AcDbBlockTableRecord
  2
BLKF014
  0
BLOCK_RECORD
  5
260
330
1
100
AcDbSymbolTableRecord
100
AcDbBlockTableRecord
  2
BLKF015
  0
BLOCK_RECORD
  5
2A3
330
1
100
AcDbSymbolTableRecord
100
AcDbBlockTableRecord
  2
BLKF016
  0
BLOCK_RECORD
  5
2EA
330
1
100
AcDbSymbolTableRecord
100
AcDbBlockTableRecord
  2
BLKF017
  0
BLOCK_RECORD
  5
3AB
330
1
100
AcDbSymbolTableRecord
100
AcDbBlockTableRecord
  2
BLKF018
  0
BLOCK_RECORD
  5
40B
330
1
100
AcDbSymbolTableRecord
100
AcDbBlockTableRecord
  2
BLKF019
  0
BLOCK_RECORD
  5
42A
330
1
100
AcDbSymbolTableRecord
100
AcDbBlockTableRecord
  2
BLKF020
  0
BLOCK_RECORD
  5
454
330
1
100
AcDbSymbolTableRecord
100
AcDbBlockTableRecord
  2
BLKF021
  0
BLOCK_RECORD
  5
476
330
1
100
AcDbSymbolTableRecord
100
AcDbBlockTableRecord
  2
BLKF022
  0
BLOCK_RECORD
  5
497
330
1
100
AcDbSymbolTableRecord
100
AcDbBlockTableRecord
  2
BLKF023
  0
BLOCK_RECORD
  5
4C3
330
1
100
AcDbSymbolTableRecord
100
AcDbBlockTableRecord
  2
BLKF024
  0
BLOCK_RECORD
  5
4E5
330
1
100
AcDbSymbolTableRecord
100
AcDbBlockTableRecord
  2
BLKF025
  0
BLOCK_RECORD
  5
50E
330
1
100
AcDbSymbolTableRecord
100
AcDbBlockTableRecord
  2
BLKF026
  0
BLOCK_RECORD
  5
539
330
1
100
AcDbSymbolTableRecord
100
AcDbBlockTableRecord
  2
BLKF027
  0
BLOCK_RECORD
  5
549
330
1
100
AcDbSymbolTableRecord
100
AcDbBlockTableRecord
  2
BLKF028
  0
BLOCK_RECORD
  5
557
330
1
100
AcDbSymbolTableRecord
100
AcDbBlockTableRecord
  2
BLKF029
  0
BLOCK_RECORD
  5
566
330
1
100
AcDbSymbolTableRecord
100
AcDbBlockTableRecord
  2
BLKF030
  0
BLOCK_RECORD
  5
576
330
1
100
AcDbSymbolTableRecord
100
AcDbBlockTableRecord
  2
BLKF031
  0
BLOCK_RECORD
  5
588
330
1
100
AcDbSymbolTableRecord
100
AcDbBlockTableRecord
  2
BLKF032
  0
BLOCK_RECORD
  5
598
330
1
100
AcDbSymbolTableRecord
100
AcDbBlockTableRecord
  2
BLKF033
  0
BLOCK_RECORD
  5
5A8
330
1
100
AcDbSymbolTableRecord
100
AcDbBlockTableRecord
  2
BLKF034
  0
BLOCK_RECORD
  5
5B6
330
1
100
AcDbSymbolTableRecord
100
AcDbBlockTableRecord
  2
BLKF035
  0
BLOCK_RECORD
  5
5C4
330
1
100
AcDbSymbolTableRecord
100
AcDbBlockTableRecord
  2
BLKF036
  0
BLOCK_RECORD
  5
61A
330
1
100
AcDbSymbolTableRecord
100
AcDbBlockTableRecord
  2
BLKF037
  0
BLOCK_RECORD
  5
629
330
1
100
AcDbSymbolTableRecord
100
AcDbBlockTableRecord
  2
BLKF038
  0
BLOCK_RECORD
  5
638
330
1
100
AcDbSymbolTableRecord
100
AcDbBlockTableRecord
  2
BLKF039
  0
BLOCK_RECORD
  5
647
330
1
100
AcDbSymbolTableRecord
100
AcDbBlockTableRecord
  2
BLKF040
  0
BLOCK_RECORD
  5
658
330
1
100
AcDbSymbolTableRecord
100
AcDbBlockTableRecord
  2
BLKF041
  0
BLOCK_RECORD
  5
660
330
1
100
AcDbSymbolTableRecord
100
AcDbBlockTableRecord
  2
BLKF042
  0
BLOCK_RECORD
  5
746
330
1
100
AcDbSymbolTableRecord
100
AcDbBlockTableRecord
  2
BLKF043
  0
BLOCK_RECORD
  5
7A3
330
1
100
AcDbSymbolTableRecord
100
AcDbBlockTableRecord
  2
BLKF044
  0
BLOCK_RECORD
  5
7C2
330
1
100
AcDbSymbolTableRecord
100
AcDbBlockTableRecord
  2
BLKF045
  0
BLOCK_RECORD
  5
7ED
330
1
100
AcDbSymbolTableRecord
100
AcDbBlockTableRecord
  2
BLKF046
  0
BLOCK_RECORD
  5
829
330
1
100
AcDbSymbolTableRecord
100
AcDbBlockTableRecord
  2
BLKF047
  0
BLOCK_RECORD
  5
838
330
1
100
AcDbSymbolTableRecord
100
AcDbBlockTableRecord
  2
BLKF048
  0
ENDTAB
  0
ENDSEC
  0
SECTION
  2
BLOCKS
  0
BLOCK
  5
20
330
1F
100
AcDbEntity
  8
0
100
AcDbBlockBegin
  2
*MODEL_SPACE
 70
     0
 71
     0
 10
0.0
 20
0.0
 30
0.0
  3
*MODEL_SPACE
  1

  0
ENDBLK
  5
21
330
1F
100
AcDbEntity
  8
0
100
AcDbBlockEnd
  0
BLOCK
  5
1C
330
1B
100
AcDbEntity
 67
     1
  8
0
100
AcDbBlockBegin
  2
*PAPER_SPACE
 70
     0
 71
     0
 10
0.0
 20
0.0
 30
0.0
  3
*PAPER_SPACE
  1

  0
ENDBLK
  5
1D
330
1B
100
AcDbEntity
 67
     1
  8
0
100
AcDbBlockEnd
  0
BLOCK
  5
3F
330
3E
100
AcDbEntity
  8
0
100
AcDbBlockBegin
  2
EDTIP_ARROW_S
 70
     0
 71
     0
 10
0.0
 20
0.0
 30
0.0
  3
EDTIP_ARROW_S
  1

  0
LINE
  5
41
330
3E
100
AcDbEntity
  8
0
  6
CONTINUOUS
 62
     0
100
AcDbLine
 10
0.0
 20
0.0
 30
0.0
 11
-1.0
 21
0.0
 31
0.0
  0
LINE
  5
42
330
3E
100
AcDbEntity
  8
0
  6
CONTINUOUS
 62
     0
100
AcDbLine
 10
0.0
 20
0.0
 30
0.0
 11
-0.965926
 21
0.258819
 31
0.0
  0
LINE
  5
43
330
3E
100
AcDbEntity
  8
0
  6
CONTINUOUS
 62
     0
100
AcDbLine
 10
0.0
 20
0.0
 30
0.0
 11
-0.965926
 21
-0.258819
 31
0.0
  0
ENDBLK
  5
40
330
3E
100
AcDbEntity
  8
0
100
AcDbBlockEnd
  0
BLOCK
  5
45
330
44
100
AcDbEntity
  8
0
100
AcDbBlockBegin
  2
EDTIP_ARROW_E
 70
     0
 71
     0
 10
0.0
 20
0.0
 30
0.0
  3
EDTIP_ARROW_E
  1

  0
LINE
  5
47
330
44
100
AcDbEntity
  8
0
  6
CONTINUOUS
 62
     0
100
AcDbLine
 10
0.0
 20
0.0
 30
0.0
 11
-1.0
 21
0.0
 31
0.0
  0
LINE
  5
48
330
44
100
AcDbEntity
  8
0
  6
CONTINUOUS
 62
     0
100
AcDbLine
 10
0.0
 20
0.0
 30
0.0
 11
-0.965926
 21
-0.258819
 31
0.0
  0
LINE
  5
49
330
44
100
AcDbEntity
  8
0
  6
CONTINUOUS
 62
     0
100
AcDbLine
 10
0.0
 20
0.0
 30
0.0
 11
-0.965926
 21
0.258819
 31
0.0
  0
ENDBLK
  5
46
330
44
100
AcDbEntity
  8
0
100
AcDbBlockEnd
  0
BLOCK
  5
4B
330
4A
100
AcDbEntity
  8
0
100
AcDbBlockBegin
  2
EDTIP_BLACKDOT_S
 70
     0
 71
     0
 10
0.0
 20
0.0
 30
0.0
  3
EDTIP_BLACKDOT_S
  1

  0
LINE
  5
4D
330
4A
100
AcDbEntity
  8
0
  6
CONTINUOUS
 62
     0
100
AcDbLine
 10
0.0
 20
0.0
 30
0.0
 11
-1.0
 21
0.0
 31
0.0
  0
CIRCLE
  5
4E
330
4A
100
AcDbEntity
  8
0
  6
CONTINUOUS
 62
     0
100
AcDbCircle
 10
0.0
 20
0.0
 30
0.0
 40
0.5
  0
CIRCLE
  5
4F
330
4A
100
AcDbEntity
  8
0
  6
CONTINUOUS
 62
     0
100
AcDbCircle
 10
0.0
 20
0.0
 30
0.0
 40
0.25
  0
ENDBLK
  5
4C
330
4A
100
AcDbEntity
  8
0
100
AcDbBlockEnd
  0
BLOCK
  5
51
330
50
100
AcDbEntity
  8
0
100
AcDbBlockBegin
  2
EDTIP_BLACKDOT_E
 70
     0
 71
     0
 10
0.0
 20
0.0
 30
0.0
  3
EDTIP_BLACKDOT_E
  1

  0
LINE
  5
53
330
50
100
AcDbEntity
  8
0
  6
CONTINUOUS
 62
     0
100
AcDbLine
 10
0.0
 20
0.0
 30
0.0
 11
-1.0
 21
0.0
 31
0.0
  0
CIRCLE
  5
54
330
50
100
AcDbEntity
  8
0
  6
CONTINUOUS
 62
     0
100
AcDbCircle
 10
0.0
 20
0.0
 30
0.0
 40
0.5
  0
CIRCLE
  5
55
330
50
100
AcDbEntity
  8
0
  6
CONTINUOUS
 62
     0
100
AcDbCircle
 10
0.0
 20
0.0
 30
0.0
 40
0.25
  0
ENDBLK
  5
52
330
50
100
AcDbEntity
  8
0
100
AcDbBlockEnd
  0
BLOCK
  5
57
330
56
100
AcDbEntity
  8
0
100
AcDbBlockBegin
  2
EDTIP_ARCHITECT_S
 70
     0
 71
     0
 10
0.0
 20
0.0
 30
0.0
  3
EDTIP_ARCHITECT_S
  1

  0
LINE
  5
59
330
56
100
AcDbEntity
  8
0
  6
CONTINUOUS
 62
     0
100
AcDbLine
 10
0.0
 20
0.0
 30
0.0
 11
-1.0
 21
0.0
 31
0.0
  0
LINE
  5
5A
330
56
100
AcDbEntity
  8
0
  6
CONTINUOUS
 62
     0
100
AcDbLine
 10
0.0
 20
0.0
 30
0.0
 11
-0.707107
 21
-0.707107
 31
0.0
  0
LINE
  5
5B
330
56
100
AcDbEntity
  8
0
  6
CONTINUOUS
 62
     0
100
AcDbLine
 10
0.0
 20
0.0
 30
0.0
 11
0.707107
 21
0.707107
 31
0.0
  0
ENDBLK
  5
58
330
56
100
AcDbEntity
  8
0
100
AcDbBlockEnd
  0
BLOCK
  5
5D
330
5C
100
AcDbEntity
  8
0
100
AcDbBlockBegin
  2
EDTIP_ARCHITECT_E
 70
     0
 71
     0
 10
0.0
 20
0.0
 30
0.0
  3
EDTIP_ARCHITECT_E
  1

  0
LINE
  5
5F
330
5C
100
AcDbEntity
  8
0
  6
CONTINUOUS
 62
     0
100
AcDbLine
 10
0.0
 20
0.0
 30
0.0
 11
-1.0
 21
0.0
 31
0.0
  0
LINE
  5
60
330
5C
100
AcDbEntity
  8
0
  6
CONTINUOUS
 62
     0
100
AcDbLine
 10
0.0
 20
0.0
 30
0.0
 11
-0.707107
 21
-0.707107
 31
0.0
  0
LINE
  5
61
330
5C
100
AcDbEntity
  8
0
  6
CONTINUOUS
 62
     0
100
AcDbLine
 10
0.0
 20
0.0
 30
0.0
 11
0.707107
 21
0.707107
 31
0.0
  0
ENDBLK
  5
5E
330
5C
100
AcDbEntity
  8
0
100
AcDbBlockEnd
  0
BLOCK
  5
63
330
62
100
AcDbEntity
  8
0
100
AcDbBlockBegin
  2
EDTIP_CIVIL_S
 70
     0
 71
     0
 10
0.0
 20
0.0
 30
0.0
  3
EDTIP_CIVIL_S
  1

  0
LINE
  5
65
330
62
100
AcDbEntity
  8
0
  6
CONTINUOUS
 62
     0
100
AcDbLine
 10
0.0
 20
0.0
 30
0.0
 11
-1.0
 21
0.0
 31
0.0
  0
LINE
  5
66
330
62
100
AcDbEntity
  8
0
  6
CONTINUOUS
 62
     0
100
AcDbLine
 10
0.0
 20
-0.083333
 30
0.0
 11
-1.0
 21
-0.083333
 31
0.0
  0
LINE
  5
67
330
62
100
AcDbEntity
  8
0
  6
CONTINUOUS
 62
     0
100
AcDbLine
 10
0.0
 20
-0.166667
 30
0.0
 11
-1.0
 21
-0.166667
 31
0.0
  0
ENDBLK
  5
64
330
62
100
AcDbEntity
  8
0
100
AcDbBlockEnd
  0
BLOCK
  5
69
330
68
100
AcDbEntity
  8
0
100
AcDbBlockBegin
  2
EDTIP_CIVIL_E
 70
     0
 71
     0
 10
0.0
 20
0.0
 30
0.0
  3
EDTIP_CIVIL_E
  1

  0
LINE
  5
6B
330
68
100
AcDbEntity
  8
0
  6
CONTINUOUS
 62
     0
100
AcDbLine
 10
0.0
 20
0.0
 30
0.0
 11
-1.0
 21
0.0
 31
0.0
  0
LINE
  5
6C
330
68
100
AcDbEntity
  8
0
  6
CONTINUOUS
 62
     0
100
AcDbLine
 10
0.0
 20
0.083333
 30
0.0
 11
-1.0
 21
0.083333
 31
0.0
  0
LINE
  5
6D
330
68
100
AcDbEntity
  8
0
  6
CONTINUOUS
 62
     0
100
AcDbLine
 10
0.0
 20
0.166667
 30
0.0
 11
-1.0
 21
0.166667
 31
0.0
  0
ENDBLK
  5
6A
330
68
100
AcDbEntity
  8
0
100
AcDbBlockEnd
  0
BLOCK
  5
11B
330
11A
100
AcDbEntity
  8
0
100
AcDbBlockBegin
  2
BLKF011
 70
     0
 71
     0
 10
0.0
 20
0.0
 30
0.0
  3
BLKF011
  1

  0
LINE
  5
11E
330
11A
100
AcDbEntity
  8
0
  6
CONTINUOUS
 62
     7
100
AcDbLine
 10
88.126657
 20
152.163876
 30
0.0
 11
88.08137
 21
152.164096
 31
0.0
  0
LINE
  5
11F
330
11A
100
AcDbEntity
  8
0
  6
CONTINUOUS
 62
     7
100
AcDbLine
 10
88.08137
 20
152.164096
 30
0.0
 11
88.058719
 21
152.164227
 31
0.0
  0
LINE
  5
120
330
11A
100
AcDbEntity
  8
0
  6
CONTINUOUS
 62
     7
100
AcDbLine
 10
88.058719
 20
152.164227
 30
0.0
 11
88.036059
 21
152.164382
 31
0.0
  0
LINE
  5
121
330
11A
100
AcDbEntity
  8
0
  6
CONTINUOUS
 62
     7
100
AcDbLine
 10
88.036059
 20
152.164382
 30
0.0
 11
88.013387
 21
152.16457
 31
0.0
  0
LINE
  5
122
330
11A
100
AcDbEntity
  8
0
  6
CONTINUOUS
 62
     7
100
AcDbLine
 10
88.013387
 20
152.16457
 30
0.0
 11
87.9907
 21
152.164799
 31
0.0
  0
LINE
  5
123
330
11A
100
AcDbEntity
  8
0
  6
CONTINUOUS
 62
     7
100
AcDbLine
 10
87.9907
 20
152.164799
 30
0.0
 11
87.967995
 21
152.165076
 31
0.0
  0
LINE
  5
124
330
11A
100
AcDbEntity
  8
0
  6
CONTINUOUS
 62
     7
100
AcDbLine
 10
87.967995
 20
152.165076
 30
0.0
 11
87.945269
 21
152.165411
 31
0.0
  0
LINE
  5
125
330
11A
100
AcDbEntity
  8
0
  6
CONTINUOUS
 62
     7
100
AcDbLine
 10
87.945269
 20
152.165411
 30
0.0
 11
87.924
 21
152.165782
 31
0.0
  0
LINE
  5
126
330
11A
100
AcDbEntity
  8
0
  6
CONTINUOUS
 62
     7
100
AcDbLine
 10
87.924
 20
152.165782
 30
0.0
 11
87.902724
 21
152.166207
 31
0.0
  0
LINE
  5
127
330
11A
100
AcDbEntity
  8
0
  6
CONTINUOUS
 62
     7
100
AcDbLine
 10
87.902724
 20
152.166207
 30
0.0
 11
87.881455
 21
152.166686
 31
0.0
  0
LINE
  5
128
330
11A
100
AcDbEntity
  8
0
  6
CONTINUOUS
 62
     7
100
AcDbLine
 10
87.881455
 20
152.166686
 30
0.0
 11
87.860207
 21
152.167214
 31
0.0
  0
LINE
  5
129
330
11A
100
AcDbEntity
  8
0
  6
CONTINUOUS
 62
     7
100
AcDbLine
 10
87.860207
 20
152.167214
 30
0.0
 11
87.838995
 21
152.167792
 31
0.0
  0
LINE
  5
12A
330
11A
100
AcDbEntity
  8
0
  6
CONTINUOUS
 62
     7
100
AcDbLine
 10
87.838995
 20
152.167792
 30
0.0
 11
87.817831
 21
152.168415
 31
0.0
  0
LINE
  5
12B
330
11A
100
AcDbEntity
  8
0
  6
CONTINUOUS
 62
     7
100
AcDbLine
 10
87.817831
 20
152.168415
 30
0.0
 11
87.796731
 21
152.169083
 31
0.0
  0
LINE
  5
12C
330
11A
100
AcDbEntity
  8
0
  6
CONTINUOUS
 62
     7
100
AcDbLine
 10
87.796731
 20
152.169083
 30
0.0
 11
87.775709
 21
152.169792
 31
0.0
  0
LINE
  5
12D
330
11A
100
AcDbEntity
  8
0
  6
CONTINUOUS
 62
     7
100
AcDbLine
 10
87.775709
 20
152.169792
 30
0.0
 11
87.756942
 21
152.170462
 31
0.0
  0
LINE
  5
12E
330
11A
100
AcDbEntity
  8
0
  6
CONTINUOUS
 62
     7
100
AcDbLine
 10
87.756942
 20
152.170462
 30
0.0
 11
87.73823
 21
152.171164
 31
0.0
  0
LINE
  5
12F
330
11A
100
AcDbEntity
  8
0
  6
CONTINUOUS
 62
     7
100
AcDbLine
 10
87.73823
 20
152.171164
 30
0.0
 11
87.719556
 21
152.171899
 31
0.0
  0
LINE
  5
130
330
11A
100
AcDbEntity
  8
0
  6
CONTINUOUS
 62
     7
100
AcDbLine
 10
87.719556
 20
152.171899
 30
0.0
 11
87.700902
 21
152.172667
 31
0.0
  0
LINE
  5
131
330
11A
100
AcDbEntity
  8
0
  6
CONTINUOUS
 62
     7
100
AcDbLine
 10
87.700902
 20
152.172667
 30
0.0
 11
87.682249
 21
152.173469
 31
0.0
  0
LINE
  5
132
330
11A
100
AcDbEntity
  8
0
  6
CONTINUOUS
 62
     7
100
AcDbLine
 10
87.682249
 20
152.173469
 30
0.0
 11
87.663581
 21
152.174306
 31
0.0
  0
LINE
  5
133
330
11A
100
AcDbEntity
  8
0
  6
CONTINUOUS
 62
     7
100
AcDbLine
 10
87.663581
 20
152.174306
 30
0.0
 11
87.644878
 21
152.175178
 31
0.0
  0
LINE
  5
134
330
11A
100
AcDbEntity
  8
0
  6
CONTINUOUS
 62
     7
100
AcDbLine
 10
87.644878
 20
152.175178
 30
0.0
 11
87.626124
 21
152.176086
 31
0.0
  0
LINE
  5
135
330
11A
100
AcDbEntity
  8
0
  6
CONTINUOUS
 62
     7
100
AcDbLine
 10
87.626124
 20
152.176086
 30
0.0
 11
87.607299
 21
152.177029
 31
0.0
  0
LINE
  5
136
330
11A
100
AcDbEntity
  8
0
  6
CONTINUOUS
 62
     7
100
AcDbLine
 10
87.607299
 20
152.177029
 30
0.0
 11
87.588387
 21
152.17801
 31
0.0
  0
LINE
  5
137
330
11A
100
AcDbEntity
  8
0
  6
CONTINUOUS
 62
     7
100
AcDbLine
 10
87.588387
 20
152.17801
 30
0.0
 11
87.569369
 21
152.179027
 31
0.0
  0
LINE
  5
138
330
11A
100
AcDbEntity
  8
0
  6
CONTINUOUS
 62
     7
100
AcDbLine
 10
87.569369
 20
152.179027
 30
0.0
 11
87.550228
 21
152.180083
 31
0.0
  0
LINE
  5
139
330
11A
100
AcDbEntity
  8
0
  6
CONTINUOUS
 62
     7
100
AcDbLine
 10
87.550228
 20
152.180083
 30
0.0
 11
87.530946
 21
152.181176
 31
0.0
  0
LINE
  5
13A
330
11A
100
AcDbEntity
  8
0
  6
CONTINUOUS
 62
     7
100
AcDbLine
 10
87.530946
 20
152.181176
 30
0.0
 11
87.511504
 21
152.182309
 31
0.0
  0
LINE
  5
13B
330
11A
100
AcDbEntity
  8
0
  6
CONTINUOUS
 62
     7
100
AcDbLine
 10
87.511504
 20
152.182309
 30
0.0
 11
87.491885
 21
152.183481
 31
0.0
  0
LINE
  5
13C
330
11A
100
AcDbEntity
  8
0
  6
CONTINUOUS
 62
     7
100
AcDbLine
 10
87.491885
 20
152.183481
 30
0.0
 11
87.472071
 21
152.184693
 31
0.0
  0
LINE
  5
13D
330
11A
100
AcDbEntity
  8
0
  6
CONTINUOUS
 62
     7
100
AcDbLine
 10
87.472071
 20
152.184693
 30
0.0
 11
87.444359
 21
152.186433
 31
0.0
  0
LINE
  5
13E
330
11A
100
AcDbEntity
  8
0
  6
CONTINUOUS
 62
     7
100
AcDbLine
 10
87.444359
 20
152.186433
 30
0.0
 11
87.416517
 21
152.188228
 31
0.0
  0
LINE
  5
13F
330
11A
100
AcDbEntity
  8
0
  6
CONTINUOUS
 62
     7
100
AcDbLine
 10
87.416517
 20
152.188228
 30
0.0
 11
87.388822
 21
152.190057
 31
0.0
  0
LINE
  5
140
330
11A
100
AcDbEntity
  8
0
  6
CONTINUOUS
 62
     7
100
AcDbLine
 10
87.388822
 20
152.190057
 30
0.0
 11
87.361551
 21
152.191898
 31
0.0
  0
LINE
  5
141
330
11A
100
AcDbEntity
  8
0
  6
CONTINUOUS
 62
     7
100
AcDbLine
 10
87.361551
 20
152.191898
 30
0.0
 11
87.334983
 21
152.193728
 31
0.0
  0
LINE
  5
142
330
11A
100
AcDbEntity
  8
0
  6
CONTINUOUS
 62
     7
100
AcDbLine
 10
87.334983
 20
152.193728
 30
0.0
 11
87.309395
 21
152.195527
 31
0.0
  0
LINE
  5
143
330
11A
100
AcDbEntity
  8
0
  6
CONTINUOUS
 62
     7
100
AcDbLine
 10
87.309395
 20
152.195527
 30
0.0
 11
87.285064
 21
152.197271
 31
0.0
  0
LINE
  5
144
330
11A
100
AcDbEntity
  8
0
  6
CONTINUOUS
 62
     7
100
AcDbLine
 10
87.285064
 20
152.197271
 30
0.0
 11
87.262267
 21
152.198939
 31
0.0
  0
LINE
  5
145
330
11A
100
AcDbEntity
  8
0
  6
CONTINUOUS
 62
     7
100
AcDbLine
 10
87.262267
 20
152.198939
 30
0.0
 11
87.23969
 21
152.20066
 31
0.0
  0
LINE
  5
146
330
11A
100
AcDbEntity
  8
0
  6
CONTINUOUS
 62
     7
100
AcDbLine
 10
87.23969
 20
152.20066
 30
0.0
 11
87.226229
 21
152.201756
 31
0.0
  0
LINE
  5
147
330
11A
100
AcDbEntity
  8
0
  6
CONTINUOUS
 62
     7
100
AcDbLine
 10
87.226229
 20
152.201756
 30
0.0
 11
87.2098
 21
152.203156
 31
0.0
  0
LINE
  5
148
330
11A
100
AcDbEntity
  8
0
  6
CONTINUOUS
 62
     7
100
AcDbLine
 10
87.2098
 20
152.203156
 30
0.0
 11
87.192295
 21
152.20469
 31
0.0
  0
LINE
  5
149
330
11A
100
AcDbEntity
  8
0
  6
CONTINUOUS
 62
     7
100
AcDbLine
 10
87.192295
 20
152.20469
 30
0.0
 11
87.209777
 21
152.203156
 31
0.0
  0
LINE
  5
14A
330
11A
100
AcDbEntity
  8
0
  6
CONTINUOUS
 62
     7
100
AcDbLine
 10
87.209777
 20
152.203156
 30
0.0
 11
87.226214
 21
152.201755
 31
0.0
  0
LINE
  5
14B
330
11A
100
AcDbEntity
  8
0
  6
CONTINUOUS
 62
     7
100
AcDbLine
 10
87.226214
 20
152.201755
 30
0.0
 11
87.239681
 21
152.200659
 31
0.0
  0
LINE
  5
14C
330
11A
100
AcDbEntity
  8
0
  6
CONTINUOUS
 62
     7
100
AcDbLine
 10
87.239681
 20
152.200659
 30
0.0
 11
87.262274
 21
152.198939
 31
0.0
  0
LINE
  5
14D
330
11A
100
AcDbEntity
  8
0
  6
CONTINUOUS
 62
     7
100
AcDbLine
 10
87.262274
 20
152.198939
 30
0.0
 11
87.285099
 21
152.19727
 31
0.0
  0
LINE
  5
14E
330
11A
100
AcDbEntity
  8
0
  6
CONTINUOUS
 62
     7
100
AcDbLine
 10
87.285099
 20
152.19727
 30
0.0
 11
87.309459
 21
152.195524
 31
0.0
  0
LINE
  5
14F
330
11A
100
AcDbEntity
  8
0
  6
CONTINUOUS
 62
     7
100
AcDbLine
 10
87.309459
 20
152.195524
 30
0.0
 11
87.335077
 21
152.193723
 31
0.0
  0
LINE
  5
150
330
11A
100
AcDbEntity
  8
0
  6
CONTINUOUS
 62
     7
100
AcDbLine
 10
87.335077
 20
152.193723
 30
0.0
 11
87.361674
 21
152.191889
 31
0.0
  0
LINE
  5
151
330
11A
100
AcDbEntity
  8
0
  6
CONTINUOUS
 62
     7
100
AcDbLine
 10
87.361674
 20
152.191889
 30
0.0
 11
87.388974
 21
152.190044
 31
0.0
  0
LINE
  5
152
330
11A
100
AcDbEntity
  8
0
  6
CONTINUOUS
 62
     7
100
AcDbLine
 10
87.388974
 20
152.190044
 30
0.0
 11
87.416699
 21
152.18821
 31
0.0
  0
LINE
  5
153
330
11A
100
AcDbEntity
  8
0
  6
CONTINUOUS
 62
     7
100
AcDbLine
 10
87.416699
 20
152.18821
 30
0.0
 11
87.444572
 21
152.186409
 31
0.0
  0
LINE
  5
154
330
11A
100
AcDbEntity
  8
0
  6
CONTINUOUS
 62
     7
100
AcDbLine
 10
87.444572
 20
152.186409
 30
0.0
 11
87.472314
 21
152.184663
 31
0.0
  0
LINE
  5
155
330
11A
100
AcDbEntity
  8
0
  6
CONTINUOUS
 62
     7
100
AcDbLine
 10
87.472314
 20
152.184663
 30
0.0
 11
87.492131
 21
152.183448
 31
0.0
  0
LINE
  5
156
330
11A
100
AcDbEntity
  8
0
  6
CONTINUOUS
 62
     7
100
AcDbLine
 10
87.492131
 20
152.183448
 30
0.0
 11
87.511753
 21
152.182272
 31
0.0
  0
LINE
  5
157
330
11A
100
AcDbEntity
  8
0
  6
CONTINUOUS
 62
     7
100
AcDbLine
 10
87.511753
 20
152.182272
 30
0.0
 11
87.531198
 21
152.181135
 31
0.0
  0
LINE
  5
158
330
11A
100
AcDbEntity
  8
0
  6
CONTINUOUS
 62
     7
100
AcDbLine
 10
87.531198
 20
152.181135
 30
0.0
 11
87.550484
 21
152.180038
 31
0.0
  0
LINE
  5
159
330
11A
100
AcDbEntity
  8
0
  6
CONTINUOUS
 62
     7
100
AcDbLine
 10
87.550484
 20
152.180038
 30
0.0
 11
87.569629
 21
152.178979
 31
0.0
  0
LINE
  5
15A
330
11A
100
AcDbEntity
  8
0
  6
CONTINUOUS
 62
     7
100
AcDbLine
 10
87.569629
 20
152.178979
 30
0.0
 11
87.588651
 21
152.177959
 31
0.0
  0
LINE
  5
15B
330
11A
100
AcDbEntity
  8
0
  6
CONTINUOUS
 62
     7
100
AcDbLine
 10
87.588651
 20
152.177959
 30
0.0
 11
87.607567
 21
152.176976
 31
0.0
  0
LINE
  5
15C
330
11A
100
AcDbEntity
  8
0
  6
CONTINUOUS
 62
     7
100
AcDbLine
 10
87.607567
 20
152.176976
 30
0.0
 11
87.626395
 21
152.17603
 31
0.0
  0
LINE
  5
15D
330
11A
100
AcDbEntity
  8
0
  6
CONTINUOUS
 62
     7
100
AcDbLine
 10
87.626395
 20
152.17603
 30
0.0
 11
87.645154
 21
152.175122
 31
0.0
  0
LINE
  5
15E
330
11A
100
AcDbEntity
  8
0
  6
CONTINUOUS
 62
     7
100
AcDbLine
 10
87.645154
 20
152.175122
 30
0.0
 11
87.663861
 21
152.17425
 31
0.0
  0
LINE
  5
15F
330
11A
100
AcDbEntity
  8
0
  6
CONTINUOUS
 62
     7
100
AcDbLine
 10
87.663861
 20
152.17425
 30
0.0
 11
87.682534
 21
152.173414
 31
0.0
  0
LINE
  5
160
330
11A
100
AcDbEntity
  8
0
  6
CONTINUOUS
 62
     7
100
AcDbLine
 10
87.682534
 20
152.173414
 30
0.0
 11
87.701191
 21
152.172614
 31
0.0
  0
LINE
  5
161
330
11A
100
AcDbEntity
  8
0
  6
CONTINUOUS
 62
     7
100
AcDbLine
 10
87.701191
 20
152.172614
 30
0.0
 11
87.719849
 21
152.171849
 31
0.0
  0
LINE
  5
162
330
11A
100
AcDbEntity
  8
0
  6
CONTINUOUS
 62
     7
100
AcDbLine
 10
87.719849
 20
152.171849
 30
0.0
 11
87.738527
 21
152.171119
 31
0.0
  0
LINE
  5
163
330
11A
100
AcDbEntity
  8
0
  6
CONTINUOUS
 62
     7
100
AcDbLine
 10
87.738527
 20
152.171119
 30
0.0
 11
87.757243
 21
152.170423
 31
0.0
  0
LINE
  5
164
330
11A
100
AcDbEntity
  8
0
  6
CONTINUOUS
 62
     7
100
AcDbLine
 10
87.757243
 20
152.170423
 30
0.0
 11
87.776014
 21
152.169762
 31
0.0
  0
LINE
  5
165
330
11A
100
AcDbEntity
  8
0
  6
CONTINUOUS
 62
     7
100
AcDbLine
 10
87.776014
 20
152.169762
 30
0.0
 11
87.797071
 21
152.169063
 31
0.0
  0
LINE
  5
166
330
11A
100
AcDbEntity
  8
0
  6
CONTINUOUS
 62
     7
100
AcDbLine
 10
87.797071
 20
152.169063
 30
0.0
 11
87.818206
 21
152.168407
 31
0.0
  0
LINE
  5
167
330
11A
100
AcDbEntity
  8
0
  6
CONTINUOUS
 62
     7
100
AcDbLine
 10
87.818206
 20
152.168407
 30
0.0
 11
87.839403
 21
152.167794
 31
0.0
  0
LINE
  5
168
330
11A
100
AcDbEntity
  8
0
  6
CONTINUOUS
 62
     7
100
AcDbLine
 10
87.839403
 20
152.167794
 30
0.0
 11
87.86065
 21
152.167225
 31
0.0
  0
LINE
  5
169
330
11A
100
AcDbEntity
  8
0
  6
CONTINUOUS
 62
     7
100
AcDbLine
 10
87.86065
 20
152.167225
 30
0.0
 11
87.881933
 21
152.1667
 31
0.0
  0
LINE
  5
16A
330
11A
100
AcDbEntity
  8
0
  6
CONTINUOUS
 62
     7
100
AcDbLine
 10
87.881933
 20
152.1667
 30
0.0
 11
87.903236
 21
152.166219
 31
0.0
  0
LINE
  5
16B
330
11A
100
AcDbEntity
  8
0
  6
CONTINUOUS
 62
     7
100
AcDbLine
 10
87.903236
 20
152.166219
 30
0.0
 11
87.924547
 21
152.165785
 31
0.0
  0
LINE
  5
16C
330
11A
100
AcDbEntity
  8
0
  6
CONTINUOUS
 62
     7
100
AcDbLine
 10
87.924547
 20
152.165785
 30
0.0
 11
87.94585
 21
152.165396
 31
0.0
  0
LINE
  5
16D
330
11A
100
AcDbEntity
  8
0
  6
CONTINUOUS
 62
     7
100
AcDbLine
 10
87.94585
 20
152.165396
 30
0.0
 11
87.96863
 21
152.165031
 31
0.0
  0
LINE
  5
16E
330
11A
100
AcDbEntity
  8
0
  6
CONTINUOUS
 62
     7
100
AcDbLine
 10
87.96863
 20
152.165031
 30
0.0
 11
87.99139
 21
152.164719
 31
0.0
  0
LINE
  5
16F
330
11A
100
AcDbEntity
  8
0
  6
CONTINUOUS
 62
     7
100
AcDbLine
 10
87.99139
 20
152.164719
 30
0.0
 11
88.014131
 21
152.164458
 31
0.0
  0
LINE
  5
170
330
11A
100
AcDbEntity
  8
0
  6
CONTINUOUS
 62
     7
100
AcDbLine
 10
88.014131
 20
152.164458
 30
0.0
 11
88.036857
 21
152.164246
 31
0.0
  0
LINE
  5
171
330
11A
100
AcDbEntity
  8
0
  6
CONTINUOUS
 62
     7
100
AcDbLine
 10
88.036857
 20
152.164246
 30
0.0
 11
88.059572
 21
152.164083
 31
0.0
  0
LINE
  5
172
330
11A
100
AcDbEntity
  8
0
  6
CONTINUOUS
 62
     7
100
AcDbLine
 10
88.059572
 20
152.164083
 30
0.0
 11
88.082277
 21
152.163968
 31
0.0
  0
LINE
  5
173
330
11A
100
AcDbEntity
  8
0
  6
CONTINUOUS
 62
     7
100
AcDbLine
 10
88.082277
 20
152.163968
 30
0.0
 11
88.104977
 21
152.1639
 31
0.0
  0
LINE
  5
174
330
11A
100
AcDbEntity
  8
0
  6
CONTINUOUS
 62
     7
100
AcDbLine
 10
88.104977
 20
152.1639
 30
0.0
 11
88.127674
 21
152.163876
 31
0.0
  0
LINE
  5
175
330
11A
100
AcDbEntity
  8
0
  6
CONTINUOUS
 62
     7
100
AcDbLine
 10
88.127674
 20
152.163876
 30
0.0
 11
88.150309
 21
152.163897
 31
0.0
  0
LINE
  5
176
330
11A
100
AcDbEntity
  8
0
  6
CONTINUOUS
 62
     7
100
AcDbLine
 10
88.150309
 20
152.163897
 30
0.0
 11
88.172947
 21
152.163964
 31
0.0
  0
LINE
  5
177
330
11A
100
AcDbEntity
  8
0
  6
CONTINUOUS
 62
     7
100
AcDbLine
 10
88.172947
 20
152.163964
 30
0.0
 11
88.195591
 21
152.164076
 31
0.0
  0
LINE
  5
178
330
11A
100
AcDbEntity
  8
0
  6
CONTINUOUS
 62
     7
100
AcDbLine
 10
88.195591
 20
152.164076
 30
0.0
 11
88.218244
 21
152.164237
 31
0.0
  0
LINE
  5
179
330
11A
100
AcDbEntity
  8
0
  6
CONTINUOUS
 62
     7
100
AcDbLine
 10
88.218244
 20
152.164237
 30
0.0
 11
88.240908
 21
152.164446
 31
0.0
  0
LINE
  5
17A
330
11A
100
AcDbEntity
  8
0
  6
CONTINUOUS
 62
     7
100
AcDbLine
 10
88.240908
 20
152.164446
 30
0.0
 11
88.263587
 21
152.164706
 31
0.0
  0
LINE
  5
17B
330
11A
100
AcDbEntity
  8
0
  6
CONTINUOUS
 62
     7
100
AcDbLine
 10
88.263587
 20
152.164706
 30
0.0
 11
88.286283
 21
152.165017
 31
0.0
  0
LINE
  5
17C
330
11A
100
AcDbEntity
  8
0
  6
CONTINUOUS
 62
     7
100
AcDbLine
 10
88.286283
 20
152.165017
 30
0.0
 11
88.308999
 21
152.165381
 31
0.0
  0
LINE
  5
17D
330
11A
100
AcDbEntity
  8
0
  6
CONTINUOUS
 62
     7
100
AcDbLine
 10
88.308999
 20
152.165381
 30
0.0
 11
88.330261
 21
152.16577
 31
0.0
  0
LINE
  5
17E
330
11A
100
AcDbEntity
  8
0
  6
CONTINUOUS
 62
     7
100
AcDbLine
 10
88.330261
 20
152.16577
 30
0.0
 11
88.351531
 21
152.166206
 31
0.0
  0
LINE
  5
17F
330
11A
100
AcDbEntity
  8
0
  6
CONTINUOUS
 62
     7
100
AcDbLine
 10
88.351531
 20
152.166206
 30
0.0
 11
88.372793
 21
152.166688
 31
0.0
  0
LINE
  5
180
330
11A
100
AcDbEntity
  8
0
  6
CONTINUOUS
 62
     7
100
AcDbLine
 10
88.372793
 20
152.166688
 30
0.0
 11
88.394034
 21
152.167215
 31
0.0
  0
LINE
  5
181
330
11A
100
AcDbEntity
  8
0
  6
CONTINUOUS
 62
     7
100
AcDbLine
 10
88.394034
 20
152.167215
 30
0.0
 11
88.415242
 21
152.167786
 31
0.0
  0
LINE
  5
182
330
11A
100
AcDbEntity
  8
0
  6
CONTINUOUS
 62
     7
100
AcDbLine
 10
88.415242
 20
152.167786
 30
0.0
 11
88.436402
 21
152.168402
 31
0.0
  0
LINE
  5
183
330
11A
100
AcDbEntity
  8
0
  6
CONTINUOUS
 62
     7
100
AcDbLine
 10
88.436402
 20
152.168402
 30
0.0
 11
88.457501
 21
152.169061
 31
0.0
  0
LINE
  5
184
330
11A
100
AcDbEntity
  8
0
  6
CONTINUOUS
 62
     7
100
AcDbLine
 10
88.457501
 20
152.169061
 30
0.0
 11
88.478526
 21
152.169762
 31
0.0
  0
LINE
  5
185
330
11A
100
AcDbEntity
  8
0
  6
CONTINUOUS
 62
     7
100
AcDbLine
 10
88.478526
 20
152.169762
 30
0.0
 11
88.497302
 21
152.170427
 31
0.0
  0
LINE
  5
186
330
11A
100
AcDbEntity
  8
0
  6
CONTINUOUS
 62
     7
100
AcDbLine
 10
88.497302
 20
152.170427
 30
0.0
 11
88.516025
 21
152.171126
 31
0.0
  0
LINE
  5
187
330
11A
100
AcDbEntity
  8
0
  6
CONTINUOUS
 62
     7
100
AcDbLine
 10
88.516025
 20
152.171126
 30
0.0
 11
88.534712
 21
152.171859
 31
0.0
  0
LINE
  5
188
330
11A
100
AcDbEntity
  8
0
  6
CONTINUOUS
 62
     7
100
AcDbLine
 10
88.534712
 20
152.171859
 30
0.0
 11
88.553379
 21
152.172627
 31
0.0
  0
LINE
  5
189
330
11A
100
AcDbEntity
  8
0
  6
CONTINUOUS
 62
     7
100
AcDbLine
 10
88.553379
 20
152.172627
 30
0.0
 11
88.572045
 21
152.173431
 31
0.0
  0
LINE
  5
18A
330
11A
100
AcDbEntity
  8
0
  6
CONTINUOUS
 62
     7
100
AcDbLine
 10
88.572045
 20
152.173431
 30
0.0
 11
88.590727
 21
152.174269
 31
0.0
  0
LINE
  5
18B
330
11A
100
AcDbEntity
  8
0
  6
CONTINUOUS
 62
     7
100
AcDbLine
 10
88.590727
 20
152.174269
 30
0.0
 11
88.609441
 21
152.175144
 31
0.0
  0
LINE
  5
18C
330
11A
100
AcDbEntity
  8
0
  6
CONTINUOUS
 62
     7
100
AcDbLine
 10
88.609441
 20
152.175144
 30
0.0
 11
88.628205
 21
152.176055
 31
0.0
  0
LINE
  5
18D
330
11A
100
AcDbEntity
  8
0
  6
CONTINUOUS
 62
     7
100
AcDbLine
 10
88.628205
 20
152.176055
 30
0.0
 11
88.647036
 21
152.177003
 31
0.0
  0
LINE
  5
18E
330
11A
100
AcDbEntity
  8
0
  6
CONTINUOUS
 62
     7
100
AcDbLine
 10
88.647036
 20
152.177003
 30
0.0
 11
88.665952
 21
152.177988
 31
0.0
  0
LINE
  5
18F
330
11A
100
AcDbEntity
  8
0
  6
CONTINUOUS
 62
     7
100
AcDbLine
 10
88.665952
 20
152.177988
 30
0.0
 11
88.68497
 21
152.17901
 31
0.0
  0
LINE
  5
190
330
11A
100
AcDbEntity
  8
0
  6
CONTINUOUS
 62
     7
100
AcDbLine
 10
88.68497
 20
152.17901
 30
0.0
 11
88.704107
 21
152.18007
 31
0.0
  0
LINE
  5
191
330
11A
100
AcDbEntity
  8
0
  6
CONTINUOUS
 62
     7
100
AcDbLine
 10
88.704107
 20
152.18007
 30
0.0
 11
88.72338
 21
152.181168
 31
0.0
  0
LINE
  5
192
330
11A
100
AcDbEntity
  8
0
  6
CONTINUOUS
 62
     7
100
AcDbLine
 10
88.72338
 20
152.181168
 30
0.0
 11
88.742806
 21
152.182304
 31
0.0
  0
LINE
  5
193
330
11A
100
AcDbEntity
  8
0
  6
CONTINUOUS
 62
     7
100
AcDbLine
 10
88.742806
 20
152.182304
 30
0.0
 11
88.762404
 21
152.183479
 31
0.0
  0
LINE
  5
194
330
11A
100
AcDbEntity
  8
0
  6
CONTINUOUS
 62
     7
100
AcDbLine
 10
88.762404
 20
152.183479
 30
0.0
 11
88.782189
 21
152.184693
 31
0.0
  0
LINE
  5
195
330
11A
100
AcDbEntity
  8
0
  6
CONTINUOUS
 62
     7
100
AcDbLine
 10
88.782189
 20
152.184693
 30
0.0
 11
88.809762
 21
152.186429
 31
0.0
  0
LINE
  5
196
330
11A
100
AcDbEntity
  8
0
  6
CONTINUOUS
 62
     7
100
AcDbLine
 10
88.809762
 20
152.186429
 30
0.0
 11
88.837459
 21
152.188219
 31
0.0
  0
LINE
  5
197
330
11A
100
AcDbEntity
  8
0
  6
CONTINUOUS
 62
     7
100
AcDbLine
 10
88.837459
 20
152.188219
 30
0.0
 11
88.865013
 21
152.190043
 31
0.0
  0
LINE
  5
198
330
11A
100
AcDbEntity
  8
0
  6
CONTINUOUS
 62
     7
100
AcDbLine
 10
88.865013
 20
152.190043
 30
0.0
 11
88.89216
 21
152.191879
 31
0.0
  0
LINE
  5
199
330
11A
100
AcDbEntity
  8
0
  6
CONTINUOUS
 62
     7
100
AcDbLine
 10
88.89216
 20
152.191879
 30
0.0
 11
88.918631
 21
152.193708
 31
0.0
  0
LINE
  5
19A
330
11A
100
AcDbEntity
  8
0
  6
CONTINUOUS
 62
     7
100
AcDbLine
 10
88.918631
 20
152.193708
 30
0.0
 11
88.944162
 21
152.195508
 31
0.0
  0
LINE
  5
19B
330
11A
100
AcDbEntity
  8
0
  6
CONTINUOUS
 62
     7
100
AcDbLine
 10
88.944162
 20
152.195508
 30
0.0
 11
88.968485
 21
152.197258
 31
0.0
  0
LINE
  5
19C
330
11A
100
AcDbEntity
  8
0
  6
CONTINUOUS
 62
     7
100
AcDbLine
 10
88.968485
 20
152.197258
 30
0.0
 11
88.991334
 21
152.198939
 31
0.0
  0
LINE
  5
19D
330
11A
100
AcDbEntity
  8
0
  6
CONTINUOUS
 62
     7
100
AcDbLine
 10
88.991334
 20
152.198939
 30
0.0
 11
89.013962
 21
152.200673
 31
0.0
  0
LINE
  5
19E
330
11A
100
AcDbEntity
  8
0
  6
CONTINUOUS
 62
     7
100
AcDbLine
 10
89.013962
 20
152.200673
 30
0.0
 11
89.02736
 21
152.201768
 31
0.0
  0
LINE
  5
19F
330
11A
100
AcDbEntity
  8
0
  6
CONTINUOUS
 62
     7
100
AcDbLine
 10
89.02736
 20
152.201768
 30
0.0
 11
89.043608
 21
152.203156
 31
0.0
  0
LINE
  5
1A0
330
11A
100
AcDbEntity
  8
0
  6
CONTINUOUS
 62
     7
100
AcDbLine
 10
89.043608
 20
152.203156
 30
0.0
 11
89.06102
 21
152.20469
 31
0.0
  0
LINE
  5
1A1
330
11A
100
AcDbEntity
  8
0
  6
CONTINUOUS
 62
     7
100
AcDbLine
 10
89.06102
 20
152.20469
 30
0.0
 11
89.043507
 21
152.203156
 31
0.0
  0
ENDBLK
  5
11C
330
11A
100
AcDbEntity
  8
0
100
AcDbBlockEnd
  0
BLOCK
  5
1A3
330
1A2
100
AcDbEntity
  8
0
100
AcDbBlockBegin
  2
BLKF012
 70
     0
 71
     0
 10
0.0
 20
0.0
 30
0.0
  3
BLKF012
  1

  0
LINE
  5
1A6
330
1A2
100
AcDbEntity
  8
0
  6
CONTINUOUS
 62
     7
100
AcDbLine
 10
88.307915
 20
130.444003
 30
0.0
 11
88.21726
 21
130.444991
 31
0.0
  0
LINE
  5
1A7
330
1A2
100
AcDbEntity
  8
0
  6
CONTINUOUS
 62
     7
100
AcDbLine
 10
88.21726
 20
130.444991
 30
0.0
 11
88.171949
 21
130.445338
 31
0.0
  0
LINE
  5
1A8
330
1A2
100
AcDbEntity
  8
0
  6
CONTINUOUS
 62
     7
100
AcDbLine
 10
88.171949
 20
130.445338
 30
0.0
 11
88.126657
 21
130.445508
 31
0.0
  0
LINE
  5
1A9
330
1A2
100
AcDbEntity
  8
0
  6
CONTINUOUS
 62
     7
100
AcDbLine
 10
88.126657
 20
130.445508
 30
0.0
 11
88.081352
 21
130.445454
 31
0.0
  0
LINE
  5
1AA
330
1A2
100
AcDbEntity
  8
0
  6
CONTINUOUS
 62
     7
100
AcDbLine
 10
88.081352
 20
130.445454
 30
0.0
 11
88.03604
 21
130.445174
 31
0.0
  0
LINE
  5
1AB
330
1A2
100
AcDbEntity
  8
0
  6
CONTINUOUS
 62
     7
100
AcDbLine
 10
88.03604
 20
130.445174
 30
0.0
 11
87.99069
 21
130.444677
 31
0.0
  0
LINE
  5
1AC
330
1A2
100
AcDbEntity
  8
0
  6
CONTINUOUS
 62
     7
100
AcDbLine
 10
87.99069
 20
130.444677
 30
0.0
 11
87.945269
 21
130.443973
 31
0.0
  0
LINE
  5
1AD
330
1A2
100
AcDbEntity
  8
0
  6
CONTINUOUS
 62
     7
100
AcDbLine
 10
87.945269
 20
130.443973
 30
0.0
 11
87.902728
 21
130.443135
 31
0.0
  0
LINE
  5
1AE
330
1A2
100
AcDbEntity
  8
0
  6
CONTINUOUS
 62
     7
100
AcDbLine
 10
87.902728
 20
130.443135
 30
0.0
 11
87.860212
 21
130.442125
 31
0.0
  0
LINE
  5
1AF
330
1A2
100
AcDbEntity
  8
0
  6
CONTINUOUS
 62
     7
100
AcDbLine
 10
87.860212
 20
130.442125
 30
0.0
 11
87.817834
 21
130.440944
 31
0.0
  0
LINE
  5
1B0
330
1A2
100
AcDbEntity
  8
0
  6
CONTINUOUS
 62
     7
100
AcDbLine
 10
87.817834
 20
130.440944
 30
0.0
 11
87.775709
 21
130.439593
 31
0.0
  0
LINE
  5
1B1
330
1A2
100
AcDbEntity
  8
0
  6
CONTINUOUS
 62
     7
100
AcDbLine
 10
87.775709
 20
130.439593
 30
0.0
 11
87.738229
 21
130.438237
 31
0.0
  0
LINE
  5
1B2
330
1A2
100
AcDbEntity
  8
0
  6
CONTINUOUS
 62
     7
100
AcDbLine
 10
87.738229
 20
130.438237
 30
0.0
 11
87.700899
 21
130.436742
 31
0.0
  0
LINE
  5
1B3
330
1A2
100
AcDbEntity
  8
0
  6
CONTINUOUS
 62
     7
100
AcDbLine
 10
87.700899
 20
130.436742
 30
0.0
 11
87.663578
 21
130.435105
 31
0.0
  0
LINE
  5
1B4
330
1A2
100
AcDbEntity
  8
0
  6
CONTINUOUS
 62
     7
100
AcDbLine
 10
87.663578
 20
130.435105
 30
0.0
 11
87.626121
 21
130.433323
 31
0.0
  0
LINE
  5
1B5
330
1A2
100
AcDbEntity
  8
0
  6
CONTINUOUS
 62
     7
100
AcDbLine
 10
87.626121
 20
130.433323
 30
0.0
 11
87.588385
 21
130.431394
 31
0.0
  0
LINE
  5
1B6
330
1A2
100
AcDbEntity
  8
0
  6
CONTINUOUS
 62
     7
100
AcDbLine
 10
87.588385
 20
130.431394
 30
0.0
 11
87.550227
 21
130.429314
 31
0.0
  0
LINE
  5
1B7
330
1A2
100
AcDbEntity
  8
0
  6
CONTINUOUS
 62
     7
100
AcDbLine
 10
87.550227
 20
130.429314
 30
0.0
 11
87.511504
 21
130.427081
 31
0.0
  0
LINE
  5
1B8
330
1A2
100
AcDbEntity
  8
0
  6
CONTINUOUS
 62
     7
100
AcDbLine
 10
87.511504
 20
130.427081
 30
0.0
 11
87.472071
 21
130.424691
 31
0.0
  0
LINE
  5
1B9
330
1A2
100
AcDbEntity
  8
0
  6
CONTINUOUS
 62
     7
100
AcDbLine
 10
87.472071
 20
130.424691
 30
0.0
 11
87.416517
 21
130.421153
 31
0.0
  0
LINE
  5
1BA
330
1A2
100
AcDbEntity
  8
0
  6
CONTINUOUS
 62
     7
100
AcDbLine
 10
87.416517
 20
130.421153
 30
0.0
 11
87.361552
 21
130.417483
 31
0.0
  0
LINE
  5
1BB
330
1A2
100
AcDbEntity
  8
0
  6
CONTINUOUS
 62
     7
100
AcDbLine
 10
87.361552
 20
130.417483
 30
0.0
 11
87.309395
 21
130.413857
 31
0.0
  0
LINE
  5
1BC
330
1A2
100
AcDbEntity
  8
0
  6
CONTINUOUS
 62
     7
100
AcDbLine
 10
87.309395
 20
130.413857
 30
0.0
 11
87.262267
 21
130.410446
 31
0.0
  0
LINE
  5
1BD
330
1A2
100
AcDbEntity
  8
0
  6
CONTINUOUS
 62
     7
100
AcDbLine
 10
87.262267
 20
130.410446
 30
0.0
 11
87.23969
 21
130.408725
 31
0.0
  0
LINE
  5
1BE
330
1A2
100
AcDbEntity
  8
0
  6
CONTINUOUS
 62
     7
100
AcDbLine
 10
87.23969
 20
130.408725
 30
0.0
 11
87.2098
 21
130.406229
 31
0.0
  0
LINE
  5
1BF
330
1A2
100
AcDbEntity
  8
0
  6
CONTINUOUS
 62
     7
100
AcDbLine
 10
87.2098
 20
130.406229
 30
0.0
 11
87.192295
 21
130.404694
 31
0.0
  0
LINE
  5
1C0
330
1A2
100
AcDbEntity
  8
0
  6
CONTINUOUS
 62
     7
100
AcDbLine
 10
87.192295
 20
130.404694
 30
0.0
 11
87.209777
 21
130.406229
 31
0.0
  0
LINE
  5
1C1
330
1A2
100
AcDbEntity
  8
0
  6
CONTINUOUS
 62
     7
100
AcDbLine
 10
87.209777
 20
130.406229
 30
0.0
 11
87.239681
 21
130.408726
 31
0.0
  0
LINE
  5
1C2
330
1A2
100
AcDbEntity
  8
0
  6
CONTINUOUS
 62
     7
100
AcDbLine
 10
87.239681
 20
130.408726
 30
0.0
 11
87.262274
 21
130.410446
 31
0.0
  0
LINE
  5
1C3
330
1A2
100
AcDbEntity
  8
0
  6
CONTINUOUS
 62
     7
100
AcDbLine
 10
87.262274
 20
130.410446
 30
0.0
 11
87.309459
 21
130.413858
 31
0.0
  0
LINE
  5
1C4
330
1A2
100
AcDbEntity
  8
0
  6
CONTINUOUS
 62
     7
100
AcDbLine
 10
87.309459
 20
130.413858
 30
0.0
 11
87.361674
 21
130.417489
 31
0.0
  0
LINE
  5
1C5
330
1A2
100
AcDbEntity
  8
0
  6
CONTINUOUS
 62
     7
100
AcDbLine
 10
87.361674
 20
130.417489
 30
0.0
 11
87.416699
 21
130.421164
 31
0.0
  0
LINE
  5
1C6
330
1A2
100
AcDbEntity
  8
0
  6
CONTINUOUS
 62
     7
100
AcDbLine
 10
87.416699
 20
130.421164
 30
0.0
 11
87.472314
 21
130.424706
 31
0.0
  0
LINE
  5
1C7
330
1A2
100
AcDbEntity
  8
0
  6
CONTINUOUS
 62
     7
100
AcDbLine
 10
87.472314
 20
130.424706
 30
0.0
 11
87.511753
 21
130.427095
 31
0.0
  0
LINE
  5
1C8
330
1A2
100
AcDbEntity
  8
0
  6
CONTINUOUS
 62
     7
100
AcDbLine
 10
87.511753
 20
130.427095
 30
0.0
 11
87.550485
 21
130.429327
 31
0.0
  0
LINE
  5
1C9
330
1A2
100
AcDbEntity
  8
0
  6
CONTINUOUS
 62
     7
100
AcDbLine
 10
87.550485
 20
130.429327
 30
0.0
 11
87.588651
 21
130.431406
 31
0.0
  0
LINE
  5
1CA
330
1A2
100
AcDbEntity
  8
0
  6
CONTINUOUS
 62
     7
100
AcDbLine
 10
87.588651
 20
130.431406
 30
0.0
 11
87.626396
 21
130.433334
 31
0.0
  0
LINE
  5
1CB
330
1A2
100
AcDbEntity
  8
0
  6
CONTINUOUS
 62
     7
100
AcDbLine
 10
87.626396
 20
130.433334
 30
0.0
 11
87.663861
 21
130.435115
 31
0.0
  0
LINE
  5
1CC
330
1A2
100
AcDbEntity
  8
0
  6
CONTINUOUS
 62
     7
100
AcDbLine
 10
87.663861
 20
130.435115
 30
0.0
 11
87.701191
 21
130.436752
 31
0.0
  0
LINE
  5
1CD
330
1A2
100
AcDbEntity
  8
0
  6
CONTINUOUS
 62
     7
100
AcDbLine
 10
87.701191
 20
130.436752
 30
0.0
 11
87.738528
 21
130.438248
 31
0.0
  0
LINE
  5
1CE
330
1A2
100
AcDbEntity
  8
0
  6
CONTINUOUS
 62
     7
100
AcDbLine
 10
87.738528
 20
130.438248
 30
0.0
 11
87.776014
 21
130.439607
 31
0.0
  0
LINE
  5
1CF
330
1A2
100
AcDbEntity
  8
0
  6
CONTINUOUS
 62
     7
100
AcDbLine
 10
87.776014
 20
130.439607
 30
0.0
 11
87.818205
 21
130.440966
 31
0.0
  0
LINE
  5
1D0
330
1A2
100
AcDbEntity
  8
0
  6
CONTINUOUS
 62
     7
100
AcDbLine
 10
87.818205
 20
130.440966
 30
0.0
 11
87.86065
 21
130.442153
 31
0.0
  0
LINE
  5
1D1
330
1A2
100
AcDbEntity
  8
0
  6
CONTINUOUS
 62
     7
100
AcDbLine
 10
87.86065
 20
130.442153
 30
0.0
 11
87.903236
 21
130.443162
 31
0.0
  0
LINE
  5
1D2
330
1A2
100
AcDbEntity
  8
0
  6
CONTINUOUS
 62
     7
100
AcDbLine
 10
87.903236
 20
130.443162
 30
0.0
 11
87.94585
 21
130.443988
 31
0.0
  0
LINE
  5
1D3
330
1A2
100
AcDbEntity
  8
0
  6
CONTINUOUS
 62
     7
100
AcDbLine
 10
87.94585
 20
130.443988
 30
0.0
 11
87.99139
 21
130.444668
 31
0.0
  0
LINE
  5
1D4
330
1A2
100
AcDbEntity
  8
0
  6
CONTINUOUS
 62
     7
100
AcDbLine
 10
87.99139
 20
130.444668
 30
0.0
 11
88.036858
 21
130.445142
 31
0.0
  0
LINE
  5
1D5
330
1A2
100
AcDbEntity
  8
0
  6
CONTINUOUS
 62
     7
100
AcDbLine
 10
88.036858
 20
130.445142
 30
0.0
 11
88.082278
 21
130.445419
 31
0.0
  0
LINE
  5
1D6
330
1A2
100
AcDbEntity
  8
0
  6
CONTINUOUS
 62
     7
100
AcDbLine
 10
88.082278
 20
130.445419
 30
0.0
 11
88.127674
 21
130.445508
 31
0.0
  0
LINE
  5
1D7
330
1A2
100
AcDbEntity
  8
0
  6
CONTINUOUS
 62
     7
100
AcDbLine
 10
88.127674
 20
130.445508
 30
0.0
 11
88.172946
 21
130.445417
 31
0.0
  0
LINE
  5
1D8
330
1A2
100
AcDbEntity
  8
0
  6
CONTINUOUS
 62
     7
100
AcDbLine
 10
88.172946
 20
130.445417
 30
0.0
 11
88.218241
 21
130.445139
 31
0.0
  0
LINE
  5
1D9
330
1A2
100
AcDbEntity
  8
0
  6
CONTINUOUS
 62
     7
100
AcDbLine
 10
88.218241
 20
130.445139
 30
0.0
 11
88.263584
 21
130.444665
 31
0.0
  0
LINE
  5
1DA
330
1A2
100
AcDbEntity
  8
0
  6
CONTINUOUS
 62
     7
100
AcDbLine
 10
88.263584
 20
130.444665
 30
0.0
 11
88.308999
 21
130.443988
 31
0.0
  0
LINE
  5
1DB
330
1A2
100
AcDbEntity
  8
0
  6
CONTINUOUS
 62
     7
100
AcDbLine
 10
88.308999
 20
130.443988
 30
0.0
 11
88.351535
 21
130.443165
 31
0.0
  0
LINE
  5
1DC
330
1A2
100
AcDbEntity
  8
0
  6
CONTINUOUS
 62
     7
100
AcDbLine
 10
88.351535
 20
130.443165
 30
0.0
 11
88.394043
 21
130.44216
 31
0.0
  0
LINE
  5
1DD
330
1A2
100
AcDbEntity
  8
0
  6
CONTINUOUS
 62
     7
100
AcDbLine
 10
88.394043
 20
130.44216
 30
0.0
 11
88.436411
 21
130.440978
 31
0.0
  0
LINE
  5
1DE
330
1A2
100
AcDbEntity
  8
0
  6
CONTINUOUS
 62
     7
100
AcDbLine
 10
88.436411
 20
130.440978
 30
0.0
 11
88.478526
 21
130.439622
 31
0.0
  0
LINE
  5
1DF
330
1A2
100
AcDbEntity
  8
0
  6
CONTINUOUS
 62
     7
100
AcDbLine
 10
88.478526
 20
130.439622
 30
0.0
 11
88.516009
 21
130.438263
 31
0.0
  0
LINE
  5
1E0
330
1A2
100
AcDbEntity
  8
0
  6
CONTINUOUS
 62
     7
100
AcDbLine
 10
88.516009
 20
130.438263
 30
0.0
 11
88.553341
 21
130.436764
 31
0.0
  0
LINE
  5
1E1
330
1A2
100
AcDbEntity
  8
0
  6
CONTINUOUS
 62
     7
100
AcDbLine
 10
88.553341
 20
130.436764
 30
0.0
 11
88.590667
 21
130.435124
 31
0.0
  0
LINE
  5
1E2
330
1A2
100
AcDbEntity
  8
0
  6
CONTINUOUS
 62
     7
100
AcDbLine
 10
88.590667
 20
130.435124
 30
0.0
 11
88.628128
 21
130.433338
 31
0.0
  0
LINE
  5
1E3
330
1A2
100
AcDbEntity
  8
0
  6
CONTINUOUS
 62
     7
100
AcDbLine
 10
88.628128
 20
130.433338
 30
0.0
 11
88.665868
 21
130.431403
 31
0.0
  0
LINE
  5
1E4
330
1A2
100
AcDbEntity
  8
0
  6
CONTINUOUS
 62
     7
100
AcDbLine
 10
88.665868
 20
130.431403
 30
0.0
 11
88.70403
 21
130.429317
 31
0.0
  0
LINE
  5
1E5
330
1A2
100
AcDbEntity
  8
0
  6
CONTINUOUS
 62
     7
100
AcDbLine
 10
88.70403
 20
130.429317
 30
0.0
 11
88.742756
 21
130.427076
 31
0.0
  0
LINE
  5
1E6
330
1A2
100
AcDbEntity
  8
0
  6
CONTINUOUS
 62
     7
100
AcDbLine
 10
88.742756
 20
130.427076
 30
0.0
 11
88.782189
 21
130.424676
 31
0.0
  0
LINE
  5
1E7
330
1A2
100
AcDbEntity
  8
0
  6
CONTINUOUS
 62
     7
100
AcDbLine
 10
88.782189
 20
130.424676
 30
0.0
 11
88.837562
 21
130.421133
 31
0.0
  0
LINE
  5
1E8
330
1A2
100
AcDbEntity
  8
0
  6
CONTINUOUS
 62
     7
100
AcDbLine
 10
88.837562
 20
130.421133
 30
0.0
 11
88.892346
 21
130.417459
 31
0.0
  0
LINE
  5
1E9
330
1A2
100
AcDbEntity
  8
0
  6
CONTINUOUS
 62
     7
100
AcDbLine
 10
88.892346
 20
130.417459
 30
0.0
 11
88.944339
 21
130.413833
 31
0.0
  0
LINE
  5
1EA
330
1A2
100
AcDbEntity
  8
0
  6
CONTINUOUS
 62
     7
100
AcDbLine
 10
88.944339
 20
130.413833
 30
0.0
 11
88.991334
 21
130.410431
 31
0.0
  0
LINE
  5
1EB
330
1A2
100
AcDbEntity
  8
0
  6
CONTINUOUS
 62
     7
100
AcDbLine
 10
88.991334
 20
130.410431
 30
0.0
 11
89.013839
 21
130.408718
 31
0.0
  0
LINE
  5
1EC
330
1A2
100
AcDbEntity
  8
0
  6
CONTINUOUS
 62
     7
100
AcDbLine
 10
89.013839
 20
130.408718
 30
0.0
 11
89.043608
 21
130.406229
 31
0.0
  0
LINE
  5
1ED
330
1A2
100
AcDbEntity
  8
0
  6
CONTINUOUS
 62
     7
100
AcDbLine
 10
89.043608
 20
130.406229
 30
0.0
 11
89.06102
 21
130.404694
 31
0.0
  0
LINE
  5
1EE
330
1A2
100
AcDbEntity
  8
0
  6
CONTINUOUS
 62
     7
100
AcDbLine
 10
89.06102
 20
130.404694
 30
0.0
 11
89.043507
 21
130.406229
 31
0.0
  0
LINE
  5
1EF
330
1A2
100
AcDbEntity
  8
0
  6
CONTINUOUS
 62
     7
100
AcDbLine
 10
89.043507
 20
130.406229
 30
0.0
 11
89.013594
 21
130.408727
 31
0.0
  0
LINE
  5
1F0
330
1A2
100
AcDbEntity
  8
0
  6
CONTINUOUS
 62
     7
100
AcDbLine
 10
89.013594
 20
130.408727
 30
0.0
 11
88.991014
 21
130.410446
 31
0.0
  0
LINE
  5
1F1
330
1A2
100
AcDbEntity
  8
0
  6
CONTINUOUS
 62
     7
100
AcDbLine
 10
88.991014
 20
130.410446
 30
0.0
 11
88.94387
 21
130.413854
 31
0.0
  0
LINE
  5
1F2
330
1A2
100
AcDbEntity
  8
0
  6
CONTINUOUS
 62
     7
100
AcDbLine
 10
88.94387
 20
130.413854
 30
0.0
 11
88.891683
 21
130.417482
 31
0.0
  0
LINE
  5
1F3
330
1A2
100
AcDbEntity
  8
0
  6
CONTINUOUS
 62
     7
100
AcDbLine
 10
88.891683
 20
130.417482
 30
0.0
 11
88.836677
 21
130.421162
 31
0.0
  0
LINE
  5
1F4
330
1A2
100
AcDbEntity
  8
0
  6
CONTINUOUS
 62
     7
100
AcDbLine
 10
88.836677
 20
130.421162
 30
0.0
 11
88.781075
 21
130.424721
 31
0.0
  0
LINE
  5
1F5
330
1A2
100
AcDbEntity
  8
0
  6
CONTINUOUS
 62
     7
100
AcDbLine
 10
88.781075
 20
130.424721
 30
0.0
 11
88.741627
 21
130.427133
 31
0.0
  0
LINE
  5
1F6
330
1A2
100
AcDbEntity
  8
0
  6
CONTINUOUS
 62
     7
100
AcDbLine
 10
88.741627
 20
130.427133
 30
0.0
 11
88.702887
 21
130.429391
 31
0.0
  0
LINE
  5
1F7
330
1A2
100
AcDbEntity
  8
0
  6
CONTINUOUS
 62
     7
100
AcDbLine
 10
88.702887
 20
130.429391
 30
0.0
 11
88.664713
 21
130.431495
 31
0.0
  0
LINE
  5
1F8
330
1A2
100
AcDbEntity
  8
0
  6
CONTINUOUS
 62
     7
100
AcDbLine
 10
88.664713
 20
130.431495
 30
0.0
 11
88.626965
 21
130.433443
 31
0.0
  0
LINE
  5
1F9
330
1A2
100
AcDbEntity
  8
0
  6
CONTINUOUS
 62
     7
100
AcDbLine
 10
88.626965
 20
130.433443
 30
0.0
 11
88.589502
 21
130.435233
 31
0.0
  0
LINE
  5
1FA
330
1A2
100
AcDbEntity
  8
0
  6
CONTINUOUS
 62
     7
100
AcDbLine
 10
88.589502
 20
130.435233
 30
0.0
 11
88.552181
 21
130.436863
 31
0.0
  0
LINE
  5
1FB
330
1A2
100
AcDbEntity
  8
0
  6
CONTINUOUS
 62
     7
100
AcDbLine
 10
88.552181
 20
130.436863
 30
0.0
 11
88.514862
 21
130.438332
 31
0.0
  0
LINE
  5
1FC
330
1A2
100
AcDbEntity
  8
0
  6
CONTINUOUS
 62
     7
100
AcDbLine
 10
88.514862
 20
130.438332
 30
0.0
 11
88.477404
 21
130.439637
 31
0.0
  0
LINE
  5
1FD
330
1A2
100
AcDbEntity
  8
0
  6
CONTINUOUS
 62
     7
100
AcDbLine
 10
88.477404
 20
130.439637
 30
0.0
 11
88.435337
 21
130.440908
 31
0.0
  0
LINE
  5
1FE
330
1A2
100
AcDbEntity
  8
0
  6
CONTINUOUS
 62
     7
100
AcDbLine
 10
88.435337
 20
130.440908
 30
0.0
 11
88.393009
 21
130.442025
 31
0.0
  0
LINE
  5
1FF
330
1A2
100
AcDbEntity
  8
0
  6
CONTINUOUS
 62
     7
100
AcDbLine
 10
88.393009
 20
130.442025
 30
0.0
 11
88.307915
 21
130.444003
 31
0.0
  0
ENDBLK
  5
1A4
330
1A2
100
AcDbEntity
  8
0
100
AcDbBlockEnd
  0
BLOCK
  5
204
330
203
100
AcDbEntity
  8
0
100
AcDbBlockBegin
  2
BLKF013
 70
     0
 71
     0
 10
0.0
 20
0.0
 30
0.0
  3
BLKF013
  1

  0
LINE
  5
207
330
203
100
AcDbEntity
  8
0
  6
CONTINUOUS
 62
     7
100
AcDbLine
 10
88.976582
 20
152.111961
 30
0.0
 11
88.954114
 21
152.109355
 31
0.0
  0
LINE
  5
208
330
203
100
AcDbEntity
  8
0
  6
CONTINUOUS
 62
     7
100
AcDbLine
 10
88.954114
 20
152.109355
 30
0.0
 11
88.931629
 21
152.106924
 31
0.0
  0
LINE
  5
209
330
203
100
AcDbEntity
  8
0
  6
CONTINUOUS
 62
     7
100
AcDbLine
 10
88.931629
 20
152.106924
 30
0.0
 11
88.912734
 21
152.10512
 31
0.0
  0
LINE
  5
20A
330
203
100
AcDbEntity
  8
0
  6
CONTINUOUS
 62
     7
100
AcDbLine
 10
88.912734
 20
152.10512
 30
0.0
 11
88.89382
 21
152.103504
 31
0.0
  0
LINE
  5
20B
330
203
100
AcDbEntity
  8
0
  6
CONTINUOUS
 62
     7
100
AcDbLine
 10
88.89382
 20
152.103504
 30
0.0
 11
88.874893
 21
152.102018
 31
0.0
  0
LINE
  5
20C
330
203
100
AcDbEntity
  8
0
  6
CONTINUOUS
 62
     7
100
AcDbLine
 10
88.874893
 20
152.102018
 30
0.0
 11
88.855961
 21
152.100606
 31
0.0
  0
LINE
  5
20D
330
203
100
AcDbEntity
  8
0
  6
CONTINUOUS
 62
     7
100
AcDbLine
 10
88.855961
 20
152.100606
 30
0.0
 11
88.824053
 21
152.098279
 31
0.0
  0
LINE
  5
20E
330
203
100
AcDbEntity
  8
0
  6
CONTINUOUS
 62
     7
100
AcDbLine
 10
88.824053
 20
152.098279
 30
0.0
 11
88.792143
 21
152.096015
 31
0.0
  0
LINE
  5
20F
330
203
100
AcDbEntity
  8
0
  6
CONTINUOUS
 62
     7
100
AcDbLine
 10
88.792143
 20
152.096015
 30
0.0
 11
88.760228
 21
152.093833
 31
0.0
  0
LINE
  5
210
330
203
100
AcDbEntity
  8
0
  6
CONTINUOUS
 62
     7
100
AcDbLine
 10
88.760228
 20
152.093833
 30
0.0
 11
88.728306
 21
152.091755
 31
0.0
  0
LINE
  5
211
330
203
100
AcDbEntity
  8
0
  6
CONTINUOUS
 62
     7
100
AcDbLine
 10
88.728306
 20
152.091755
 30
0.0
 11
88.707877
 21
152.090487
 31
0.0
  0
LINE
  5
212
330
203
100
AcDbEntity
  8
0
  6
CONTINUOUS
 62
     7
100
AcDbLine
 10
88.707877
 20
152.090487
 30
0.0
 11
88.687444
 21
152.089268
 31
0.0
  0
LINE
  5
213
330
203
100
AcDbEntity
  8
0
  6
CONTINUOUS
 62
     7
100
AcDbLine
 10
88.687444
 20
152.089268
 30
0.0
 11
88.667008
 21
152.088096
 31
0.0
  0
LINE
  5
214
330
203
100
AcDbEntity
  8
0
  6
CONTINUOUS
 62
     7
100
AcDbLine
 10
88.667008
 20
152.088096
 30
0.0
 11
88.64657
 21
152.086971
 31
0.0
  0
LINE
  5
215
330
203
100
AcDbEntity
  8
0
  6
CONTINUOUS
 62
     7
100
AcDbLine
 10
88.64657
 20
152.086971
 30
0.0
 11
88.605685
 21
152.084853
 31
0.0
  0
LINE
  5
216
330
203
100
AcDbEntity
  8
0
  6
CONTINUOUS
 62
     7
100
AcDbLine
 10
88.605685
 20
152.084853
 30
0.0
 11
88.564792
 21
152.082903
 31
0.0
  0
LINE
  5
217
330
203
100
AcDbEntity
  8
0
  6
CONTINUOUS
 62
     7
100
AcDbLine
 10
88.564792
 20
152.082903
 30
0.0
 11
88.523931
 21
152.081112
 31
0.0
  0
LINE
  5
218
330
203
100
AcDbEntity
  8
0
  6
CONTINUOUS
 62
     7
100
AcDbLine
 10
88.523931
 20
152.081112
 30
0.0
 11
88.483063
 21
152.079466
 31
0.0
  0
LINE
  5
219
330
203
100
AcDbEntity
  8
0
  6
CONTINUOUS
 62
     7
100
AcDbLine
 10
88.483063
 20
152.079466
 30
0.0
 11
88.44219
 21
152.077955
 31
0.0
  0
LINE
  5
21A
330
203
100
AcDbEntity
  8
0
  6
CONTINUOUS
 62
     7
100
AcDbLine
 10
88.44219
 20
152.077955
 30
0.0
 11
88.401312
 21
152.07657
 31
0.0
  0
LINE
  5
21B
330
203
100
AcDbEntity
  8
0
  6
CONTINUOUS
 62
     7
100
AcDbLine
 10
88.401312
 20
152.07657
 30
0.0
 11
88.367104
 21
152.075503
 31
0.0
  0
LINE
  5
21C
330
203
100
AcDbEntity
  8
0
  6
CONTINUOUS
 62
     7
100
AcDbLine
 10
88.367104
 20
152.075503
 30
0.0
 11
88.332892
 21
152.074531
 31
0.0
  0
LINE
  5
21D
330
203
100
AcDbEntity
  8
0
  6
CONTINUOUS
 62
     7
100
AcDbLine
 10
88.332892
 20
152.074531
 30
0.0
 11
88.298678
 21
152.073669
 31
0.0
  0
LINE
  5
21E
330
203
100
AcDbEntity
  8
0
  6
CONTINUOUS
 62
     7
100
AcDbLine
 10
88.298678
 20
152.073669
 30
0.0
 11
88.264462
 21
152.07293
 31
0.0
  0
LINE
  5
21F
330
203
100
AcDbEntity
  8
0
  6
CONTINUOUS
 62
     7
100
AcDbLine
 10
88.264462
 20
152.07293
 30
0.0
 11
88.230243
 21
152.07233
 31
0.0
  0
LINE
  5
220
330
203
100
AcDbEntity
  8
0
  6
CONTINUOUS
 62
     7
100
AcDbLine
 10
88.230243
 20
152.07233
 30
0.0
 11
88.196023
 21
152.071882
 31
0.0
  0
LINE
  5
221
330
203
100
AcDbEntity
  8
0
  6
CONTINUOUS
 62
     7
100
AcDbLine
 10
88.196023
 20
152.071882
 30
0.0
 11
88.161802
 21
152.071602
 31
0.0
  0
LINE
  5
222
330
203
100
AcDbEntity
  8
0
  6
CONTINUOUS
 62
     7
100
AcDbLine
 10
88.161802
 20
152.071602
 30
0.0
 11
88.127581
 21
152.071504
 31
0.0
  0
LINE
  5
223
330
203
100
AcDbEntity
  8
0
  6
CONTINUOUS
 62
     7
100
AcDbLine
 10
88.127581
 20
152.071504
 30
0.0
 11
88.093344
 21
152.071597
 31
0.0
  0
LINE
  5
224
330
203
100
AcDbEntity
  8
0
  6
CONTINUOUS
 62
     7
100
AcDbLine
 10
88.093344
 20
152.071597
 30
0.0
 11
88.059107
 21
152.071873
 31
0.0
  0
LINE
  5
225
330
203
100
AcDbEntity
  8
0
  6
CONTINUOUS
 62
     7
100
AcDbLine
 10
88.059107
 20
152.071873
 30
0.0
 11
88.024871
 21
152.072316
 31
0.0
  0
LINE
  5
226
330
203
100
AcDbEntity
  8
0
  6
CONTINUOUS
 62
     7
100
AcDbLine
 10
88.024871
 20
152.072316
 30
0.0
 11
87.990637
 21
152.072913
 31
0.0
  0
LINE
  5
227
330
203
100
AcDbEntity
  8
0
  6
CONTINUOUS
 62
     7
100
AcDbLine
 10
87.990637
 20
152.072913
 30
0.0
 11
87.956405
 21
152.073648
 31
0.0
  0
LINE
  5
228
330
203
100
AcDbEntity
  8
0
  6
CONTINUOUS
 62
     7
100
AcDbLine
 10
87.956405
 20
152.073648
 30
0.0
 11
87.922175
 21
152.074507
 31
0.0
  0
LINE
  5
229
330
203
100
AcDbEntity
  8
0
  6
CONTINUOUS
 62
     7
100
AcDbLine
 10
87.922175
 20
152.074507
 30
0.0
 11
87.887947
 21
152.075476
 31
0.0
  0
LINE
  5
22A
330
203
100
AcDbEntity
  8
0
  6
CONTINUOUS
 62
     7
100
AcDbLine
 10
87.887947
 20
152.075476
 30
0.0
 11
87.853724
 21
152.076541
 31
0.0
  0
LINE
  5
22B
330
203
100
AcDbEntity
  8
0
  6
CONTINUOUS
 62
     7
100
AcDbLine
 10
87.853724
 20
152.076541
 30
0.0
 11
87.812744
 21
152.077926
 31
0.0
  0
LINE
  5
22C
330
203
100
AcDbEntity
  8
0
  6
CONTINUOUS
 62
     7
100
AcDbLine
 10
87.812744
 20
152.077926
 30
0.0
 11
87.771771
 21
152.079437
 31
0.0
  0
LINE
  5
22D
330
203
100
AcDbEntity
  8
0
  6
CONTINUOUS
 62
     7
100
AcDbLine
 10
87.771771
 20
152.079437
 30
0.0
 11
87.730803
 21
152.081083
 31
0.0
  0
LINE
  5
22E
330
203
100
AcDbEntity
  8
0
  6
CONTINUOUS
 62
     7
100
AcDbLine
 10
87.730803
 20
152.081083
 30
0.0
 11
87.689841
 21
152.082874
 31
0.0
  0
LINE
  5
22F
330
203
100
AcDbEntity
  8
0
  6
CONTINUOUS
 62
     7
100
AcDbLine
 10
87.689841
 20
152.082874
 30
0.0
 11
87.648811
 21
152.084823
 31
0.0
  0
LINE
  5
230
330
203
100
AcDbEntity
  8
0
  6
CONTINUOUS
 62
     7
100
AcDbLine
 10
87.648811
 20
152.084823
 30
0.0
 11
87.60779
 21
152.08694
 31
0.0
  0
LINE
  5
231
330
203
100
AcDbEntity
  8
0
  6
CONTINUOUS
 62
     7
100
AcDbLine
 10
87.60779
 20
152.08694
 30
0.0
 11
87.587282
 21
152.088065
 31
0.0
  0
LINE
  5
232
330
203
100
AcDbEntity
  8
0
  6
CONTINUOUS
 62
     7
100
AcDbLine
 10
87.587282
 20
152.088065
 30
0.0
 11
87.566778
 21
152.089237
 31
0.0
  0
LINE
  5
233
330
203
100
AcDbEntity
  8
0
  6
CONTINUOUS
 62
     7
100
AcDbLine
 10
87.566778
 20
152.089237
 30
0.0
 11
87.546277
 21
152.090456
 31
0.0
  0
LINE
  5
234
330
203
100
AcDbEntity
  8
0
  6
CONTINUOUS
 62
     7
100
AcDbLine
 10
87.546277
 20
152.090456
 30
0.0
 11
87.525779
 21
152.091725
 31
0.0
  0
LINE
  5
235
330
203
100
AcDbEntity
  8
0
  6
CONTINUOUS
 62
     7
100
AcDbLine
 10
87.525779
 20
152.091725
 30
0.0
 11
87.493783
 21
152.093804
 31
0.0
  0
LINE
  5
236
330
203
100
AcDbEntity
  8
0
  6
CONTINUOUS
 62
     7
100
AcDbLine
 10
87.493783
 20
152.093804
 30
0.0
 11
87.461794
 21
152.095986
 31
0.0
  0
LINE
  5
237
330
203
100
AcDbEntity
  8
0
  6
CONTINUOUS
 62
     7
100
AcDbLine
 10
87.461794
 20
152.095986
 30
0.0
 11
87.429809
 21
152.09825
 31
0.0
  0
LINE
  5
238
330
203
100
AcDbEntity
  8
0
  6
CONTINUOUS
 62
     7
100
AcDbLine
 10
87.429809
 20
152.09825
 30
0.0
 11
87.397826
 21
152.100576
 31
0.0
  0
LINE
  5
239
330
203
100
AcDbEntity
  8
0
  6
CONTINUOUS
 62
     7
100
AcDbLine
 10
87.397826
 20
152.100576
 30
0.0
 11
87.378839
 21
152.101988
 31
0.0
  0
LINE
  5
23A
330
203
100
AcDbEntity
  8
0
  6
CONTINUOUS
 62
     7
100
AcDbLine
 10
87.378839
 20
152.101988
 30
0.0
 11
87.359858
 21
152.103473
 31
0.0
  0
LINE
  5
23B
330
203
100
AcDbEntity
  8
0
  6
CONTINUOUS
 62
     7
100
AcDbLine
 10
87.359858
 20
152.103473
 30
0.0
 11
87.340889
 21
152.105089
 31
0.0
  0
LINE
  5
23C
330
203
100
AcDbEntity
  8
0
  6
CONTINUOUS
 62
     7
100
AcDbLine
 10
87.340889
 20
152.105089
 30
0.0
 11
87.321939
 21
152.106894
 31
0.0
  0
LINE
  5
23D
330
203
100
AcDbEntity
  8
0
  6
CONTINUOUS
 62
     7
100
AcDbLine
 10
87.321939
 20
152.106894
 30
0.0
 11
87.299289
 21
152.109339
 31
0.0
  0
LINE
  5
23E
330
203
100
AcDbEntity
  8
0
  6
CONTINUOUS
 62
     7
100
AcDbLine
 10
87.299289
 20
152.109339
 30
0.0
 11
87.276658
 21
152.111961
 31
0.0
  0
ENDBLK
  5
205
330
203
100
AcDbEntity
  8
0
100
AcDbBlockEnd
  0
BLOCK
  5
240
330
23F
100
AcDbEntity
  8
0
100
AcDbBlockBegin
  2
BLKF014
 70
     0
 71
     0
 10
0.0
 20
0.0
 30
0.0
  3
BLKF014
  1

  0
LINE
  5
243
330
23F
100
AcDbEntity
  8
0
  6
CONTINUOUS
 62
     7
100
AcDbLine
 10
88.126657
 20
130.537881
 30
0.0
 11
88.195031
 21
130.536978
 31
0.0
  0
LINE
  5
244
330
23F
100
AcDbEntity
  8
0
  6
CONTINUOUS
 62
     7
100
AcDbLine
 10
88.195031
 20
130.536978
 30
0.0
 11
88.229217
 21
130.536482
 31
0.0
  0
LINE
  5
245
330
23F
100
AcDbEntity
  8
0
  6
CONTINUOUS
 62
     7
100
AcDbLine
 10
88.229217
 20
130.536482
 30
0.0
 11
88.263402
 21
130.535931
 31
0.0
  0
LINE
  5
246
330
23F
100
AcDbEntity
  8
0
  6
CONTINUOUS
 62
     7
100
AcDbLine
 10
88.263402
 20
130.535931
 30
0.0
 11
88.297584
 21
130.535309
 31
0.0
  0
LINE
  5
247
330
23F
100
AcDbEntity
  8
0
  6
CONTINUOUS
 62
     7
100
AcDbLine
 10
88.297584
 20
130.535309
 30
0.0
 11
88.331764
 21
130.534596
 31
0.0
  0
LINE
  5
248
330
23F
100
AcDbEntity
  8
0
  6
CONTINUOUS
 62
     7
100
AcDbLine
 10
88.331764
 20
130.534596
 30
0.0
 11
88.365942
 21
130.533776
 31
0.0
  0
LINE
  5
249
330
23F
100
AcDbEntity
  8
0
  6
CONTINUOUS
 62
     7
100
AcDbLine
 10
88.365942
 20
130.533776
 30
0.0
 11
88.400116
 21
130.532829
 31
0.0
  0
LINE
  5
24A
330
23F
100
AcDbEntity
  8
0
  6
CONTINUOUS
 62
     7
100
AcDbLine
 10
88.400116
 20
130.532829
 30
0.0
 11
88.420571
 21
130.532196
 31
0.0
  0
LINE
  5
24B
330
23F
100
AcDbEntity
  8
0
  6
CONTINUOUS
 62
     7
100
AcDbLine
 10
88.420571
 20
130.532196
 30
0.0
 11
88.441025
 21
130.531513
 31
0.0
  0
LINE
  5
24C
330
23F
100
AcDbEntity
  8
0
  6
CONTINUOUS
 62
     7
100
AcDbLine
 10
88.441025
 20
130.531513
 30
0.0
 11
88.461478
 21
130.530783
 31
0.0
  0
LINE
  5
24D
330
23F
100
AcDbEntity
  8
0
  6
CONTINUOUS
 62
     7
100
AcDbLine
 10
88.461478
 20
130.530783
 30
0.0
 11
88.481929
 21
130.530009
 31
0.0
  0
LINE
  5
24E
330
23F
100
AcDbEntity
  8
0
  6
CONTINUOUS
 62
     7
100
AcDbLine
 10
88.481929
 20
130.530009
 30
0.0
 11
88.522827
 21
130.528335
 31
0.0
  0
LINE
  5
24F
330
23F
100
AcDbEntity
  8
0
  6
CONTINUOUS
 62
     7
100
AcDbLine
 10
88.522827
 20
130.528335
 30
0.0
 11
88.563719
 21
130.526511
 31
0.0
  0
LINE
  5
250
330
23F
100
AcDbEntity
  8
0
  6
CONTINUOUS
 62
     7
100
AcDbLine
 10
88.563719
 20
130.526511
 30
0.0
 11
88.604681
 21
130.524545
 31
0.0
  0
LINE
  5
251
330
23F
100
AcDbEntity
  8
0
  6
CONTINUOUS
 62
     7
100
AcDbLine
 10
88.604681
 20
130.524545
 30
0.0
 11
88.645635
 21
130.522427
 31
0.0
  0
LINE
  5
252
330
23F
100
AcDbEntity
  8
0
  6
CONTINUOUS
 62
     7
100
AcDbLine
 10
88.645635
 20
130.522427
 30
0.0
 11
88.666108
 21
130.521306
 31
0.0
  0
LINE
  5
253
330
23F
100
AcDbEntity
  8
0
  6
CONTINUOUS
 62
     7
100
AcDbLine
 10
88.666108
 20
130.521306
 30
0.0
 11
88.686578
 21
130.520139
 31
0.0
  0
LINE
  5
254
330
23F
100
AcDbEntity
  8
0
  6
CONTINUOUS
 62
     7
100
AcDbLine
 10
88.686578
 20
130.520139
 30
0.0
 11
88.707045
 21
130.518924
 31
0.0
  0
LINE
  5
255
330
23F
100
AcDbEntity
  8
0
  6
CONTINUOUS
 62
     7
100
AcDbLine
 10
88.707045
 20
130.518924
 30
0.0
 11
88.727509
 21
130.51766
 31
0.0
  0
LINE
  5
256
330
23F
100
AcDbEntity
  8
0
  6
CONTINUOUS
 62
     7
100
AcDbLine
 10
88.727509
 20
130.51766
 30
0.0
 11
88.75949
 21
130.515583
 31
0.0
  0
LINE
  5
257
330
23F
100
AcDbEntity
  8
0
  6
CONTINUOUS
 62
     7
100
AcDbLine
 10
88.75949
 20
130.515583
 30
0.0
 11
88.791465
 21
130.5134
 31
0.0
  0
LINE
  5
258
330
23F
100
AcDbEntity
  8
0
  6
CONTINUOUS
 62
     7
100
AcDbLine
 10
88.791465
 20
130.5134
 30
0.0
 11
88.823435
 21
130.511135
 31
0.0
  0
LINE
  5
259
330
23F
100
AcDbEntity
  8
0
  6
CONTINUOUS
 62
     7
100
AcDbLine
 10
88.823435
 20
130.511135
 30
0.0
 11
88.855402
 21
130.508808
 31
0.0
  0
LINE
  5
25A
330
23F
100
AcDbEntity
  8
0
  6
CONTINUOUS
 62
     7
100
AcDbLine
 10
88.855402
 20
130.508808
 30
0.0
 11
88.874392
 21
130.507396
 31
0.0
  0
LINE
  5
25B
330
23F
100
AcDbEntity
  8
0
  6
CONTINUOUS
 62
     7
100
AcDbLine
 10
88.874392
 20
130.507396
 30
0.0
 11
88.893376
 21
130.505912
 31
0.0
  0
LINE
  5
25C
330
23F
100
AcDbEntity
  8
0
  6
CONTINUOUS
 62
     7
100
AcDbLine
 10
88.893376
 20
130.505912
 30
0.0
 11
88.912348
 21
130.504296
 31
0.0
  0
LINE
  5
25D
330
23F
100
AcDbEntity
  8
0
  6
CONTINUOUS
 62
     7
100
AcDbLine
 10
88.912348
 20
130.504296
 30
0.0
 11
88.931301
 21
130.50249
 31
0.0
  0
LINE
  5
25E
330
23F
100
AcDbEntity
  8
0
  6
CONTINUOUS
 62
     7
100
AcDbLine
 10
88.931301
 20
130.50249
 30
0.0
 11
88.953988
 21
130.500039
 31
0.0
  0
LINE
  5
25F
330
23F
100
AcDbEntity
  8
0
  6
CONTINUOUS
 62
     7
100
AcDbLine
 10
88.953988
 20
130.500039
 30
0.0
 11
88.976657
 21
130.497409
 31
0.0
  0
ENDBLK
  5
241
330
23F
100
AcDbEntity
  8
0
100
AcDbBlockEnd
  0
BLOCK
  5
261
330
260
100
AcDbEntity
  8
0
100
AcDbBlockBegin
  2
BLKF015
 70
     0
 71
     0
 10
0.0
 20
0.0
 30
0.0
  3
BLKF015
  1

  0
LINE
  5
264
330
260
100
AcDbEntity
  8
0
  6
CONTINUOUS
 62
     7
100
AcDbLine
 10
87.27671
 20
130.497424
 30
0.0
 11
87.299222
 21
130.500038
 31
0.0
  0
LINE
  5
265
330
260
100
AcDbEntity
  8
0
  6
CONTINUOUS
 62
     7
100
AcDbLine
 10
87.299222
 20
130.500038
 30
0.0
 11
87.321752
 21
130.502475
 31
0.0
  0
LINE
  5
266
330
260
100
AcDbEntity
  8
0
  6
CONTINUOUS
 62
     7
100
AcDbLine
 10
87.321752
 20
130.502475
 30
0.0
 11
87.34068
 21
130.504282
 31
0.0
  0
LINE
  5
267
330
260
100
AcDbEntity
  8
0
  6
CONTINUOUS
 62
     7
100
AcDbLine
 10
87.34068
 20
130.504282
 30
0.0
 11
87.359627
 21
130.505898
 31
0.0
  0
LINE
  5
268
330
260
100
AcDbEntity
  8
0
  6
CONTINUOUS
 62
     7
100
AcDbLine
 10
87.359627
 20
130.505898
 30
0.0
 11
87.378586
 21
130.507382
 31
0.0
  0
LINE
  5
269
330
260
100
AcDbEntity
  8
0
  6
CONTINUOUS
 62
     7
100
AcDbLine
 10
87.378586
 20
130.507382
 30
0.0
 11
87.397551
 21
130.508794
 31
0.0
  0
LINE
  5
26A
330
260
100
AcDbEntity
  8
0
  6
CONTINUOUS
 62
     7
100
AcDbLine
 10
87.397551
 20
130.508794
 30
0.0
 11
87.429536
 21
130.511121
 31
0.0
  0
LINE
  5
26B
330
260
100
AcDbEntity
  8
0
  6
CONTINUOUS
 62
     7
100
AcDbLine
 10
87.429536
 20
130.511121
 30
0.0
 11
87.461524
 21
130.513387
 31
0.0
  0
LINE
  5
26C
330
260
100
AcDbEntity
  8
0
  6
CONTINUOUS
 62
     7
100
AcDbLine
 10
87.461524
 20
130.513387
 30
0.0
 11
87.493516
 21
130.515569
 31
0.0
  0
LINE
  5
26D
330
260
100
AcDbEntity
  8
0
  6
CONTINUOUS
 62
     7
100
AcDbLine
 10
87.493516
 20
130.515569
 30
0.0
 11
87.525514
 21
130.517645
 31
0.0
  0
LINE
  5
26E
330
260
100
AcDbEntity
  8
0
  6
CONTINUOUS
 62
     7
100
AcDbLine
 10
87.525514
 20
130.517645
 30
0.0
 11
87.545992
 21
130.518909
 31
0.0
  0
LINE
  5
26F
330
260
100
AcDbEntity
  8
0
  6
CONTINUOUS
 62
     7
100
AcDbLine
 10
87.545992
 20
130.518909
 30
0.0
 11
87.566474
 21
130.520123
 31
0.0
  0
LINE
  5
270
330
260
100
AcDbEntity
  8
0
  6
CONTINUOUS
 62
     7
100
AcDbLine
 10
87.566474
 20
130.520123
 30
0.0
 11
87.586958
 21
130.521289
 31
0.0
  0
LINE
  5
271
330
260
100
AcDbEntity
  8
0
  6
CONTINUOUS
 62
     7
100
AcDbLine
 10
87.586958
 20
130.521289
 30
0.0
 11
87.607445
 21
130.522411
 31
0.0
  0
LINE
  5
272
330
260
100
AcDbEntity
  8
0
  6
CONTINUOUS
 62
     7
100
AcDbLine
 10
87.607445
 20
130.522411
 30
0.0
 11
87.648427
 21
130.524528
 31
0.0
  0
LINE
  5
273
330
260
100
AcDbEntity
  8
0
  6
CONTINUOUS
 62
     7
100
AcDbLine
 10
87.648427
 20
130.524528
 30
0.0
 11
87.689416
 21
130.526496
 31
0.0
  0
LINE
  5
274
330
260
100
AcDbEntity
  8
0
  6
CONTINUOUS
 62
     7
100
AcDbLine
 10
87.689416
 20
130.526496
 30
0.0
 11
87.730335
 21
130.528323
 31
0.0
  0
LINE
  5
275
330
260
100
AcDbEntity
  8
0
  6
CONTINUOUS
 62
     7
100
AcDbLine
 10
87.730335
 20
130.528323
 30
0.0
 11
87.77126
 21
130.530001
 31
0.0
  0
LINE
  5
276
330
260
100
AcDbEntity
  8
0
  6
CONTINUOUS
 62
     7
100
AcDbLine
 10
87.77126
 20
130.530001
 30
0.0
 11
87.791725
 21
130.530777
 31
0.0
  0
LINE
  5
277
330
260
100
AcDbEntity
  8
0
  6
CONTINUOUS
 62
     7
100
AcDbLine
 10
87.791725
 20
130.530777
 30
0.0
 11
87.812191
 21
130.531509
 31
0.0
  0
LINE
  5
278
330
260
100
AcDbEntity
  8
0
  6
CONTINUOUS
 62
     7
100
AcDbLine
 10
87.812191
 20
130.531509
 30
0.0
 11
87.832659
 21
130.532194
 31
0.0
  0
LINE
  5
279
330
260
100
AcDbEntity
  8
0
  6
CONTINUOUS
 62
     7
100
AcDbLine
 10
87.832659
 20
130.532194
 30
0.0
 11
87.853128
 21
130.532829
 31
0.0
  0
LINE
  5
27A
330
260
100
AcDbEntity
  8
0
  6
CONTINUOUS
 62
     7
100
AcDbLine
 10
87.853128
 20
130.532829
 30
0.0
 11
87.88731
 21
130.533778
 31
0.0
  0
LINE
  5
27B
330
260
100
AcDbEntity
  8
0
  6
CONTINUOUS
 62
     7
100
AcDbLine
 10
87.88731
 20
130.533778
 30
0.0
 11
87.921497
 21
130.534599
 31
0.0
  0
LINE
  5
27C
330
260
100
AcDbEntity
  8
0
  6
CONTINUOUS
 62
     7
100
AcDbLine
 10
87.921497
 20
130.534599
 30
0.0
 11
87.955686
 21
130.535312
 31
0.0
  0
LINE
  5
27D
330
260
100
AcDbEntity
  8
0
  6
CONTINUOUS
 62
     7
100
AcDbLine
 10
87.955686
 20
130.535312
 30
0.0
 11
87.989877
 21
130.535935
 31
0.0
  0
LINE
  5
27E
330
260
100
AcDbEntity
  8
0
  6
CONTINUOUS
 62
     7
100
AcDbLine
 10
87.989877
 20
130.535935
 30
0.0
 11
88.02407
 21
130.536485
 31
0.0
  0
LINE
  5
27F
330
260
100
AcDbEntity
  8
0
  6
CONTINUOUS
 62
     7
100
AcDbLine
 10
88.02407
 20
130.536485
 30
0.0
 11
88.058265
 21
130.53698
 31
0.0
  0
LINE
  5
280
330
260
100
AcDbEntity
  8
0
  6
CONTINUOUS
 62
     7
100
AcDbLine
 10
88.058265
 20
130.53698
 30
0.0
 11
88.126657
 21
130.537881
 31
0.0
  0
ENDBLK
  5
262
330
260
100
AcDbEntity
  8
0
100
AcDbBlockEnd
  0
BLOCK
  5
2A4
330
2A3
100
AcDbEntity
  8
0
100
AcDbBlockBegin
  2
BLKF016
 70
     0
 71
     0
 10
0.0
 20
0.0
 30
0.0
  3
BLKF016
  1

  0
LINE
  5
2A7
330
2A3
100
AcDbEntity
  8
0
  6
CONTINUOUS
 62
     7
100
AcDbLine
 10
171.724574
 20
162.572635
 30
0.0
 11
171.555317
 21
162.675878
 31
0.0
  0
LINE
  5
2A8
330
2A3
100
AcDbEntity
  8
0
  6
CONTINUOUS
 62
     7
100
AcDbLine
 10
171.555317
 20
162.675878
 30
0.0
 11
171.470519
 21
162.72707
 31
0.0
  0
LINE
  5
2A9
330
2A3
100
AcDbEntity
  8
0
  6
CONTINUOUS
 62
     7
100
AcDbLine
 10
171.470519
 20
162.72707
 30
0.0
 11
171.385516
 21
162.777746
 31
0.0
  0
LINE
  5
2AA
330
2A3
100
AcDbEntity
  8
0
  6
CONTINUOUS
 62
     7
100
AcDbLine
 10
171.385516
 20
162.777746
 30
0.0
 11
171.300241
 21
162.827734
 31
0.0
  0
LINE
  5
2AB
330
2A3
100
AcDbEntity
  8
0
  6
CONTINUOUS
 62
     7
100
AcDbLine
 10
171.300241
 20
162.827734
 30
0.0
 11
171.214626
 21
162.876863
 31
0.0
  0
LINE
  5
2AC
330
2A3
100
AcDbEntity
  8
0
  6
CONTINUOUS
 62
     7
100
AcDbLine
 10
171.214626
 20
162.876863
 30
0.0
 11
171.128603
 21
162.924961
 31
0.0
  0
LINE
  5
2AD
330
2A3
100
AcDbEntity
  8
0
  6
CONTINUOUS
 62
     7
100
AcDbLine
 10
171.128603
 20
162.924961
 30
0.0
 11
171.042104
 21
162.971855
 31
0.0
  0
LINE
  5
2AE
330
2A3
100
AcDbEntity
  8
0
  6
CONTINUOUS
 62
     7
100
AcDbLine
 10
171.042104
 20
162.971855
 30
0.0
 11
170.95506
 21
163.017374
 31
0.0
  0
LINE
  5
2AF
330
2A3
100
AcDbEntity
  8
0
  6
CONTINUOUS
 62
     7
100
AcDbLine
 10
170.95506
 20
163.017374
 30
0.0
 11
170.867405
 21
163.061346
 31
0.0
  0
LINE
  5
2B0
330
2A3
100
AcDbEntity
  8
0
  6
CONTINUOUS
 62
     7
100
AcDbLine
 10
170.867405
 20
163.061346
 30
0.0
 11
170.779069
 21
163.103599
 31
0.0
  0
LINE
  5
2B1
330
2A3
100
AcDbEntity
  8
0
  6
CONTINUOUS
 62
     7
100
AcDbLine
 10
170.779069
 20
163.103599
 30
0.0
 11
170.689984
 21
163.143961
 31
0.0
  0
LINE
  5
2B2
330
2A3
100
AcDbEntity
  8
0
  6
CONTINUOUS
 62
     7
100
AcDbLine
 10
170.689984
 20
163.143961
 30
0.0
 11
170.64514
 21
163.16338
 31
0.0
  0
LINE
  5
2B3
330
2A3
100
AcDbEntity
  8
0
  6
CONTINUOUS
 62
     7
100
AcDbLine
 10
170.64514
 20
163.16338
 30
0.0
 11
170.600084
 21
163.182261
 31
0.0
  0
LINE
  5
2B4
330
2A3
100
AcDbEntity
  8
0
  6
CONTINUOUS
 62
     7
100
AcDbLine
 10
170.600084
 20
163.182261
 30
0.0
 11
170.554806
 21
163.200583
 31
0.0
  0
LINE
  5
2B5
330
2A3
100
AcDbEntity
  8
0
  6
CONTINUOUS
 62
     7
100
AcDbLine
 10
170.554806
 20
163.200583
 30
0.0
 11
170.509299
 21
163.218325
 31
0.0
  0
LINE
  5
2B6
330
2A3
100
AcDbEntity
  8
0
  6
CONTINUOUS
 62
     7
100
AcDbLine
 10
170.509299
 20
163.218325
 30
0.0
 11
170.463553
 21
163.235466
 31
0.0
  0
LINE
  5
2B7
330
2A3
100
AcDbEntity
  8
0
  6
CONTINUOUS
 62
     7
100
AcDbLine
 10
170.463553
 20
163.235466
 30
0.0
 11
170.417562
 21
163.251983
 31
0.0
  0
LINE
  5
2B8
330
2A3
100
AcDbEntity
  8
0
  6
CONTINUOUS
 62
     7
100
AcDbLine
 10
170.417562
 20
163.251983
 30
0.0
 11
170.371314
 21
163.267856
 31
0.0
  0
LINE
  5
2B9
330
2A3
100
AcDbEntity
  8
0
  6
CONTINUOUS
 62
     7
100
AcDbLine
 10
170.371314
 20
163.267856
 30
0.0
 11
170.324804
 21
163.283063
 31
0.0
  0
LINE
  5
2BA
330
2A3
100
AcDbEntity
  8
0
  6
CONTINUOUS
 62
     7
100
AcDbLine
 10
170.324804
 20
163.283063
 30
0.0
 11
170.258083
 21
163.303543
 31
0.0
  0
LINE
  5
2BB
330
2A3
100
AcDbEntity
  8
0
  6
CONTINUOUS
 62
     7
100
AcDbLine
 10
170.258083
 20
163.303543
 30
0.0
 11
170.190848
 21
163.322617
 31
0.0
  0
LINE
  5
2BC
330
2A3
100
AcDbEntity
  8
0
  6
CONTINUOUS
 62
     7
100
AcDbLine
 10
170.190848
 20
163.322617
 30
0.0
 11
170.123138
 21
163.340278
 31
0.0
  0
LINE
  5
2BD
330
2A3
100
AcDbEntity
  8
0
  6
CONTINUOUS
 62
     7
100
AcDbLine
 10
170.123138
 20
163.340278
 30
0.0
 11
170.054993
 21
163.356513
 31
0.0
  0
LINE
  5
2BE
330
2A3
100
AcDbEntity
  8
0
  6
CONTINUOUS
 62
     7
100
AcDbLine
 10
170.054993
 20
163.356513
 30
0.0
 11
169.986449
 21
163.371316
 31
0.0
  0
LINE
  5
2BF
330
2A3
100
AcDbEntity
  8
0
  6
CONTINUOUS
 62
     7
100
AcDbLine
 10
169.986449
 20
163.371316
 30
0.0
 11
169.917547
 21
163.384675
 31
0.0
  0
LINE
  5
2C0
330
2A3
100
AcDbEntity
  8
0
  6
CONTINUOUS
 62
     7
100
AcDbLine
 10
169.917547
 20
163.384675
 30
0.0
 11
169.848324
 21
163.396581
 31
0.0
  0
LINE
  5
2C1
330
2A3
100
AcDbEntity
  8
0
  6
CONTINUOUS
 62
     7
100
AcDbLine
 10
169.848324
 20
163.396581
 30
0.0
 11
169.77882
 21
163.407025
 31
0.0
  0
LINE
  5
2C2
330
2A3
100
AcDbEntity
  8
0
  6
CONTINUOUS
 62
     7
100
AcDbLine
 10
169.77882
 20
163.407025
 30
0.0
 11
169.709073
 21
163.415997
 31
0.0
  0
LINE
  5
2C3
330
2A3
100
AcDbEntity
  8
0
  6
CONTINUOUS
 62
     7
100
AcDbLine
 10
169.709073
 20
163.415997
 30
0.0
 11
169.639122
 21
163.423487
 31
0.0
  0
LINE
  5
2C4
330
2A3
100
AcDbEntity
  8
0
  6
CONTINUOUS
 62
     7
100
AcDbLine
 10
169.639122
 20
163.423487
 30
0.0
 11
169.569005
 21
163.429486
 31
0.0
  0
LINE
  5
2C5
330
2A3
100
AcDbEntity
  8
0
  6
CONTINUOUS
 62
     7
100
AcDbLine
 10
169.569005
 20
163.429486
 30
0.0
 11
169.498761
 21
163.433985
 31
0.0
  0
LINE
  5
2C6
330
2A3
100
AcDbEntity
  8
0
  6
CONTINUOUS
 62
     7
100
AcDbLine
 10
169.498761
 20
163.433985
 30
0.0
 11
169.428429
 21
163.436974
 31
0.0
  0
LINE
  5
2C7
330
2A3
100
AcDbEntity
  8
0
  6
CONTINUOUS
 62
     7
100
AcDbLine
 10
169.428429
 20
163.436974
 30
0.0
 11
169.358047
 21
163.438443
 31
0.0
  0
LINE
  5
2C8
330
2A3
100
AcDbEntity
  8
0
  6
CONTINUOUS
 62
     7
100
AcDbLine
 10
169.358047
 20
163.438443
 30
0.0
 11
169.287655
 21
163.438383
 31
0.0
  0
LINE
  5
2C9
330
2A3
100
AcDbEntity
  8
0
  6
CONTINUOUS
 62
     7
100
AcDbLine
 10
169.287655
 20
163.438383
 30
0.0
 11
169.21729
 21
163.436783
 31
0.0
  0
LINE
  5
2CA
330
2A3
100
AcDbEntity
  8
0
  6
CONTINUOUS
 62
     7
100
AcDbLine
 10
169.21729
 20
163.436783
 30
0.0
 11
169.146927
 21
163.433637
 31
0.0
  0
LINE
  5
2CB
330
2A3
100
AcDbEntity
  8
0
  6
CONTINUOUS
 62
     7
100
AcDbLine
 10
169.146927
 20
163.433637
 30
0.0
 11
169.076662
 21
163.428957
 31
0.0
  0
LINE
  5
2CC
330
2A3
100
AcDbEntity
  8
0
  6
CONTINUOUS
 62
     7
100
AcDbLine
 10
169.076662
 20
163.428957
 30
0.0
 11
169.006527
 21
163.422762
 31
0.0
  0
LINE
  5
2CD
330
2A3
100
AcDbEntity
  8
0
  6
CONTINUOUS
 62
     7
100
AcDbLine
 10
169.006527
 20
163.422762
 30
0.0
 11
168.936553
 21
163.415069
 31
0.0
  0
LINE
  5
2CE
330
2A3
100
AcDbEntity
  8
0
  6
CONTINUOUS
 62
     7
100
AcDbLine
 10
168.936553
 20
163.415069
 30
0.0
 11
168.866771
 21
163.405896
 31
0.0
  0
LINE
  5
2CF
330
2A3
100
AcDbEntity
  8
0
  6
CONTINUOUS
 62
     7
100
AcDbLine
 10
168.866771
 20
163.405896
 30
0.0
 11
168.797213
 21
163.395262
 31
0.0
  0
LINE
  5
2D0
330
2A3
100
AcDbEntity
  8
0
  6
CONTINUOUS
 62
     7
100
AcDbLine
 10
168.797213
 20
163.395262
 30
0.0
 11
168.72791
 21
163.383182
 31
0.0
  0
LINE
  5
2D1
330
2A3
100
AcDbEntity
  8
0
  6
CONTINUOUS
 62
     7
100
AcDbLine
 10
168.72791
 20
163.383182
 30
0.0
 11
168.658895
 21
163.369677
 31
0.0
  0
LINE
  5
2D2
330
2A3
100
AcDbEntity
  8
0
  6
CONTINUOUS
 62
     7
100
AcDbLine
 10
168.658895
 20
163.369677
 30
0.0
 11
168.590197
 21
163.354763
 31
0.0
  0
LINE
  5
2D3
330
2A3
100
AcDbEntity
  8
0
  6
CONTINUOUS
 62
     7
100
AcDbLine
 10
168.590197
 20
163.354763
 30
0.0
 11
168.52185
 21
163.338457
 31
0.0
  0
LINE
  5
2D4
330
2A3
100
AcDbEntity
  8
0
  6
CONTINUOUS
 62
     7
100
AcDbLine
 10
168.52185
 20
163.338457
 30
0.0
 11
168.453883
 21
163.320779
 31
0.0
  0
LINE
  5
2D5
330
2A3
100
AcDbEntity
  8
0
  6
CONTINUOUS
 62
     7
100
AcDbLine
 10
168.453883
 20
163.320779
 30
0.0
 11
168.38633
 21
163.301746
 31
0.0
  0
LINE
  5
2D6
330
2A3
100
AcDbEntity
  8
0
  6
CONTINUOUS
 62
     7
100
AcDbLine
 10
168.38633
 20
163.301746
 30
0.0
 11
168.319221
 21
163.281375
 31
0.0
  0
LINE
  5
2D7
330
2A3
100
AcDbEntity
  8
0
  6
CONTINUOUS
 62
     7
100
AcDbLine
 10
168.319221
 20
163.281375
 30
0.0
 11
168.252587
 21
163.259685
 31
0.0
  0
LINE
  5
2D8
330
2A3
100
AcDbEntity
  8
0
  6
CONTINUOUS
 62
     7
100
AcDbLine
 10
168.252587
 20
163.259685
 30
0.0
 11
168.186461
 21
163.236693
 31
0.0
  0
LINE
  5
2D9
330
2A3
100
AcDbEntity
  8
0
  6
CONTINUOUS
 62
     7
100
AcDbLine
 10
168.186461
 20
163.236693
 30
0.0
 11
168.120874
 21
163.212417
 31
0.0
  0
LINE
  5
2DA
330
2A3
100
AcDbEntity
  8
0
  6
CONTINUOUS
 62
     7
100
AcDbLine
 10
168.120874
 20
163.212417
 30
0.0
 11
168.042329
 21
163.181394
 31
0.0
  0
LINE
  5
2DB
330
2A3
100
AcDbEntity
  8
0
  6
CONTINUOUS
 62
     7
100
AcDbLine
 10
168.042329
 20
163.181394
 30
0.0
 11
167.964566
 21
163.148636
 31
0.0
  0
LINE
  5
2DC
330
2A3
100
AcDbEntity
  8
0
  6
CONTINUOUS
 62
     7
100
AcDbLine
 10
167.964566
 20
163.148636
 30
0.0
 11
167.887532
 21
163.114259
 31
0.0
  0
LINE
  5
2DD
330
2A3
100
AcDbEntity
  8
0
  6
CONTINUOUS
 62
     7
100
AcDbLine
 10
167.887532
 20
163.114259
 30
0.0
 11
167.811175
 21
163.078378
 31
0.0
  0
LINE
  5
2DE
330
2A3
100
AcDbEntity
  8
0
  6
CONTINUOUS
 62
     7
100
AcDbLine
 10
167.811175
 20
163.078378
 30
0.0
 11
167.735443
 21
163.04111
 31
0.0
  0
LINE
  5
2DF
330
2A3
100
AcDbEntity
  8
0
  6
CONTINUOUS
 62
     7
100
AcDbLine
 10
167.735443
 20
163.04111
 30
0.0
 11
167.660284
 21
163.002569
 31
0.0
  0
LINE
  5
2E0
330
2A3
100
AcDbEntity
  8
0
  6
CONTINUOUS
 62
     7
100
AcDbLine
 10
167.660284
 20
163.002569
 30
0.0
 11
167.585646
 21
162.962872
 31
0.0
  0
LINE
  5
2E1
330
2A3
100
AcDbEntity
  8
0
  6
CONTINUOUS
 62
     7
100
AcDbLine
 10
167.585646
 20
162.962872
 30
0.0
 11
167.511476
 21
162.922134
 31
0.0
  0
LINE
  5
2E2
330
2A3
100
AcDbEntity
  8
0
  6
CONTINUOUS
 62
     7
100
AcDbLine
 10
167.511476
 20
162.922134
 30
0.0
 11
167.437723
 21
162.880471
 31
0.0
  0
LINE
  5
2E3
330
2A3
100
AcDbEntity
  8
0
  6
CONTINUOUS
 62
     7
100
AcDbLine
 10
167.437723
 20
162.880471
 30
0.0
 11
167.364335
 21
162.837998
 31
0.0
  0
LINE
  5
2E4
330
2A3
100
AcDbEntity
  8
0
  6
CONTINUOUS
 62
     7
100
AcDbLine
 10
167.364335
 20
162.837998
 30
0.0
 11
167.291259
 21
162.794831
 31
0.0
  0
LINE
  5
2E5
330
2A3
100
AcDbEntity
  8
0
  6
CONTINUOUS
 62
     7
100
AcDbLine
 10
167.291259
 20
162.794831
 30
0.0
 11
167.218443
 21
162.751086
 31
0.0
  0
LINE
  5
2E6
330
2A3
100
AcDbEntity
  8
0
  6
CONTINUOUS
 62
     7
100
AcDbLine
 10
167.218443
 20
162.751086
 30
0.0
 11
167.145836
 21
162.706878
 31
0.0
  0
LINE
  5
2E7
330
2A3
100
AcDbEntity
  8
0
  6
CONTINUOUS
 62
     7
100
AcDbLine
 10
167.145836
 20
162.706878
 30
0.0
 11
167.073385
 21
162.662323
 31
0.0
  0
LINE
  5
2E8
330
2A3
100
AcDbEntity
  8
0
  6
CONTINUOUS
 62
     7
100
AcDbLine
 10
167.073385
 20
162.662323
 30
0.0
 11
166.928744
 21
162.572635
 31
0.0
  0
ENDBLK
  5
2A5
330
2A3
100
AcDbEntity
  8
0
100
AcDbBlockEnd
  0
BLOCK
  5
2EB
330
2EA
100
AcDbEntity
  8
0
100
AcDbBlockBegin
  2
BLKF017
 70
     0
 71
     0
 10
0.0
 20
0.0
 30
0.0
  3
BLKF017
  1

  0
LINE
  5
2EE
330
2EA
100
AcDbEntity
  8
0
  6
CONTINUOUS
 62
     7
100
AcDbLine
 10
165.762478
 20
162.572635
 30
0.0
 11
165.743915
 21
162.597546
 31
0.0
  0
LINE
  5
2EF
330
2EA
100
AcDbEntity
  8
0
  6
CONTINUOUS
 62
     7
100
AcDbLine
 10
165.743915
 20
162.597546
 30
0.0
 11
165.725325
 21
162.622436
 31
0.0
  0
LINE
  5
2F0
330
2EA
100
AcDbEntity
  8
0
  6
CONTINUOUS
 62
     7
100
AcDbLine
 10
165.725325
 20
162.622436
 30
0.0
 11
165.70668
 21
162.647283
 31
0.0
  0
LINE
  5
2F1
330
2EA
100
AcDbEntity
  8
0
  6
CONTINUOUS
 62
     7
100
AcDbLine
 10
165.70668
 20
162.647283
 30
0.0
 11
165.687954
 21
162.672067
 31
0.0
  0
LINE
  5
2F2
330
2EA
100
AcDbEntity
  8
0
  6
CONTINUOUS
 62
     7
100
AcDbLine
 10
165.687954
 20
162.672067
 30
0.0
 11
165.669118
 21
162.696767
 31
0.0
  0
LINE
  5
2F3
330
2EA
100
AcDbEntity
  8
0
  6
CONTINUOUS
 62
     7
100
AcDbLine
 10
165.669118
 20
162.696767
 30
0.0
 11
165.650145
 21
162.721362
 31
0.0
  0
LINE
  5
2F4
330
2EA
100
AcDbEntity
  8
0
  6
CONTINUOUS
 62
     7
100
AcDbLine
 10
165.650145
 20
162.721362
 30
0.0
 11
165.631009
 21
162.74583
 31
0.0
  0
LINE
  5
2F5
330
2EA
100
AcDbEntity
  8
0
  6
CONTINUOUS
 62
     7
100
AcDbLine
 10
165.631009
 20
162.74583
 30
0.0
 11
165.611682
 21
162.77015
 31
0.0
  0
LINE
  5
2F6
330
2EA
100
AcDbEntity
  8
0
  6
CONTINUOUS
 62
     7
100
AcDbLine
 10
165.611682
 20
162.77015
 30
0.0
 11
165.593582
 21
162.792537
 31
0.0
  0
LINE
  5
2F7
330
2EA
100
AcDbEntity
  8
0
  6
CONTINUOUS
 62
     7
100
AcDbLine
 10
165.593582
 20
162.792537
 30
0.0
 11
165.57529
 21
162.814772
 31
0.0
  0
LINE
  5
2F8
330
2EA
100
AcDbEntity
  8
0
  6
CONTINUOUS
 62
     7
100
AcDbLine
 10
165.57529
 20
162.814772
 30
0.0
 11
165.556801
 21
162.836848
 31
0.0
  0
LINE
  5
2F9
330
2EA
100
AcDbEntity
  8
0
  6
CONTINUOUS
 62
     7
100
AcDbLine
 10
165.556801
 20
162.836848
 30
0.0
 11
165.538112
 21
162.858757
 31
0.0
  0
LINE
  5
2FA
330
2EA
100
AcDbEntity
  8
0
  6
CONTINUOUS
 62
     7
100
AcDbLine
 10
165.538112
 20
162.858757
 30
0.0
 11
165.519218
 21
162.880492
 31
0.0
  0
LINE
  5
2FB
330
2EA
100
AcDbEntity
  8
0
  6
CONTINUOUS
 62
     7
100
AcDbLine
 10
165.519218
 20
162.880492
 30
0.0
 11
165.500114
 21
162.902045
 31
0.0
  0
LINE
  5
2FC
330
2EA
100
AcDbEntity
  8
0
  6
CONTINUOUS
 62
     7
100
AcDbLine
 10
165.500114
 20
162.902045
 30
0.0
 11
165.480797
 21
162.92341
 31
0.0
  0
LINE
  5
2FD
330
2EA
100
AcDbEntity
  8
0
  6
CONTINUOUS
 62
     7
100
AcDbLine
 10
165.480797
 20
162.92341
 30
0.0
 11
165.471056
 21
162.93402
 31
0.0
  0
LINE
  5
2FE
330
2EA
100
AcDbEntity
  8
0
  6
CONTINUOUS
 62
     7
100
AcDbLine
 10
165.471056
 20
162.93402
 30
0.0
 11
165.461261
 21
162.94458
 31
0.0
  0
LINE
  5
2FF
330
2EA
100
AcDbEntity
  8
0
  6
CONTINUOUS
 62
     7
100
AcDbLine
 10
165.461261
 20
162.94458
 30
0.0
 11
165.45141
 21
162.955088
 31
0.0
  0
LINE
  5
300
330
2EA
100
AcDbEntity
  8
0
  6
CONTINUOUS
 62
     7
100
AcDbLine
 10
165.45141
 20
162.955088
 30
0.0
 11
165.441502
 21
162.965546
 31
0.0
  0
LINE
  5
301
330
2EA
100
AcDbEntity
  8
0
  6
CONTINUOUS
 62
     7
100
AcDbLine
 10
165.441502
 20
162.965546
 30
0.0
 11
165.431538
 21
162.97595
 31
0.0
  0
LINE
  5
302
330
2EA
100
AcDbEntity
  8
0
  6
CONTINUOUS
 62
     7
100
AcDbLine
 10
165.431538
 20
162.97595
 30
0.0
 11
165.421517
 21
162.986301
 31
0.0
  0
LINE
  5
303
330
2EA
100
AcDbEntity
  8
0
  6
CONTINUOUS
 62
     7
100
AcDbLine
 10
165.421517
 20
162.986301
 30
0.0
 11
165.411438
 21
162.996598
 31
0.0
  0
LINE
  5
304
330
2EA
100
AcDbEntity
  8
0
  6
CONTINUOUS
 62
     7
100
AcDbLine
 10
165.411438
 20
162.996598
 30
0.0
 11
165.4013
 21
163.006839
 31
0.0
  0
LINE
  5
305
330
2EA
100
AcDbEntity
  8
0
  6
CONTINUOUS
 62
     7
100
AcDbLine
 10
165.4013
 20
163.006839
 30
0.0
 11
165.391103
 21
163.017024
 31
0.0
  0
LINE
  5
306
330
2EA
100
AcDbEntity
  8
0
  6
CONTINUOUS
 62
     7
100
AcDbLine
 10
165.391103
 20
163.017024
 30
0.0
 11
165.380847
 21
163.027152
 31
0.0
  0
LINE
  5
307
330
2EA
100
AcDbEntity
  8
0
  6
CONTINUOUS
 62
     7
100
AcDbLine
 10
165.380847
 20
163.027152
 30
0.0
 11
165.370531
 21
163.037222
 31
0.0
  0
LINE
  5
308
330
2EA
100
AcDbEntity
  8
0
  6
CONTINUOUS
 62
     7
100
AcDbLine
 10
165.370531
 20
163.037222
 30
0.0
 11
165.360154
 21
163.047233
 31
0.0
  0
LINE
  5
309
330
2EA
100
AcDbEntity
  8
0
  6
CONTINUOUS
 62
     7
100
AcDbLine
 10
165.360154
 20
163.047233
 30
0.0
 11
165.349716
 21
163.057183
 31
0.0
  0
LINE
  5
30A
330
2EA
100
AcDbEntity
  8
0
  6
CONTINUOUS
 62
     7
100
AcDbLine
 10
165.349716
 20
163.057183
 30
0.0
 11
165.339216
 21
163.067074
 31
0.0
  0
LINE
  5
30B
330
2EA
100
AcDbEntity
  8
0
  6
CONTINUOUS
 62
     7
100
AcDbLine
 10
165.339216
 20
163.067074
 30
0.0
 11
165.328654
 21
163.076902
 31
0.0
  0
LINE
  5
30C
330
2EA
100
AcDbEntity
  8
0
  6
CONTINUOUS
 62
     7
100
AcDbLine
 10
165.328654
 20
163.076902
 30
0.0
 11
165.31803
 21
163.086668
 31
0.0
  0
LINE
  5
30D
330
2EA
100
AcDbEntity
  8
0
  6
CONTINUOUS
 62
     7
100
AcDbLine
 10
165.31803
 20
163.086668
 30
0.0
 11
165.307342
 21
163.09637
 31
0.0
  0
LINE
  5
30E
330
2EA
100
AcDbEntity
  8
0
  6
CONTINUOUS
 62
     7
100
AcDbLine
 10
165.307342
 20
163.09637
 30
0.0
 11
165.29659
 21
163.106007
 31
0.0
  0
LINE
  5
30F
330
2EA
100
AcDbEntity
  8
0
  6
CONTINUOUS
 62
     7
100
AcDbLine
 10
165.29659
 20
163.106007
 30
0.0
 11
165.276837
 21
163.123393
 31
0.0
  0
LINE
  5
310
330
2EA
100
AcDbEntity
  8
0
  6
CONTINUOUS
 62
     7
100
AcDbLine
 10
165.276837
 20
163.123393
 30
0.0
 11
165.266879
 21
163.131998
 31
0.0
  0
LINE
  5
311
330
2EA
100
AcDbEntity
  8
0
  6
CONTINUOUS
 62
     7
100
AcDbLine
 10
165.266879
 20
163.131998
 30
0.0
 11
165.256865
 21
163.140541
 31
0.0
  0
LINE
  5
312
330
2EA
100
AcDbEntity
  8
0
  6
CONTINUOUS
 62
     7
100
AcDbLine
 10
165.256865
 20
163.140541
 30
0.0
 11
165.246796
 21
163.14902
 31
0.0
  0
LINE
  5
313
330
2EA
100
AcDbEntity
  8
0
  6
CONTINUOUS
 62
     7
100
AcDbLine
 10
165.246796
 20
163.14902
 30
0.0
 11
165.236669
 21
163.157432
 31
0.0
  0
LINE
  5
314
330
2EA
100
AcDbEntity
  8
0
  6
CONTINUOUS
 62
     7
100
AcDbLine
 10
165.236669
 20
163.157432
 30
0.0
 11
165.226486
 21
163.165775
 31
0.0
  0
LINE
  5
315
330
2EA
100
AcDbEntity
  8
0
  6
CONTINUOUS
 62
     7
100
AcDbLine
 10
165.226486
 20
163.165775
 30
0.0
 11
165.216244
 21
163.174045
 31
0.0
  0
LINE
  5
316
330
2EA
100
AcDbEntity
  8
0
  6
CONTINUOUS
 62
     7
100
AcDbLine
 10
165.216244
 20
163.174045
 30
0.0
 11
165.205944
 21
163.182241
 31
0.0
  0
LINE
  5
317
330
2EA
100
AcDbEntity
  8
0
  6
CONTINUOUS
 62
     7
100
AcDbLine
 10
165.205944
 20
163.182241
 30
0.0
 11
165.195585
 21
163.19036
 31
0.0
  0
LINE
  5
318
330
2EA
100
AcDbEntity
  8
0
  6
CONTINUOUS
 62
     7
100
AcDbLine
 10
165.195585
 20
163.19036
 30
0.0
 11
165.185166
 21
163.198399
 31
0.0
  0
LINE
  5
319
330
2EA
100
AcDbEntity
  8
0
  6
CONTINUOUS
 62
     7
100
AcDbLine
 10
165.185166
 20
163.198399
 30
0.0
 11
165.174687
 21
163.206357
 31
0.0
  0
LINE
  5
31A
330
2EA
100
AcDbEntity
  8
0
  6
CONTINUOUS
 62
     7
100
AcDbLine
 10
165.174687
 20
163.206357
 30
0.0
 11
165.164147
 21
163.214229
 31
0.0
  0
LINE
  5
31B
330
2EA
100
AcDbEntity
  8
0
  6
CONTINUOUS
 62
     7
100
AcDbLine
 10
165.164147
 20
163.214229
 30
0.0
 11
165.153544
 21
163.222015
 31
0.0
  0
LINE
  5
31C
330
2EA
100
AcDbEntity
  8
0
  6
CONTINUOUS
 62
     7
100
AcDbLine
 10
165.153544
 20
163.222015
 30
0.0
 11
165.14288
 21
163.22971
 31
0.0
  0
LINE
  5
31D
330
2EA
100
AcDbEntity
  8
0
  6
CONTINUOUS
 62
     7
100
AcDbLine
 10
165.14288
 20
163.22971
 30
0.0
 11
165.132152
 21
163.237314
 31
0.0
  0
LINE
  5
31E
330
2EA
100
AcDbEntity
  8
0
  6
CONTINUOUS
 62
     7
100
AcDbLine
 10
165.132152
 20
163.237314
 30
0.0
 11
165.121361
 21
163.244822
 31
0.0
  0
LINE
  5
31F
330
2EA
100
AcDbEntity
  8
0
  6
CONTINUOUS
 62
     7
100
AcDbLine
 10
165.121361
 20
163.244822
 30
0.0
 11
165.110506
 21
163.252234
 31
0.0
  0
LINE
  5
320
330
2EA
100
AcDbEntity
  8
0
  6
CONTINUOUS
 62
     7
100
AcDbLine
 10
165.110506
 20
163.252234
 30
0.0
 11
165.099585
 21
163.259545
 31
0.0
  0
LINE
  5
321
330
2EA
100
AcDbEntity
  8
0
  6
CONTINUOUS
 62
     7
100
AcDbLine
 10
165.099585
 20
163.259545
 30
0.0
 11
165.088599
 21
163.266754
 31
0.0
  0
LINE
  5
322
330
2EA
100
AcDbEntity
  8
0
  6
CONTINUOUS
 62
     7
100
AcDbLine
 10
165.088599
 20
163.266754
 30
0.0
 11
165.077547
 21
163.273858
 31
0.0
  0
LINE
  5
323
330
2EA
100
AcDbEntity
  8
0
  6
CONTINUOUS
 62
     7
100
AcDbLine
 10
165.077547
 20
163.273858
 30
0.0
 11
165.066428
 21
163.280855
 31
0.0
  0
LINE
  5
324
330
2EA
100
AcDbEntity
  8
0
  6
CONTINUOUS
 62
     7
100
AcDbLine
 10
165.066428
 20
163.280855
 30
0.0
 11
165.055242
 21
163.287741
 31
0.0
  0
LINE
  5
325
330
2EA
100
AcDbEntity
  8
0
  6
CONTINUOUS
 62
     7
100
AcDbLine
 10
165.055242
 20
163.287741
 30
0.0
 11
165.043988
 21
163.294515
 31
0.0
  0
LINE
  5
326
330
2EA
100
AcDbEntity
  8
0
  6
CONTINUOUS
 62
     7
100
AcDbLine
 10
165.043988
 20
163.294515
 30
0.0
 11
165.032665
 21
163.301174
 31
0.0
  0
LINE
  5
327
330
2EA
100
AcDbEntity
  8
0
  6
CONTINUOUS
 62
     7
100
AcDbLine
 10
165.032665
 20
163.301174
 30
0.0
 11
165.021272
 21
163.307716
 31
0.0
  0
LINE
  5
328
330
2EA
100
AcDbEntity
  8
0
  6
CONTINUOUS
 62
     7
100
AcDbLine
 10
165.021272
 20
163.307716
 30
0.0
 11
165.00981
 21
163.314137
 31
0.0
  0
LINE
  5
329
330
2EA
100
AcDbEntity
  8
0
  6
CONTINUOUS
 62
     7
100
AcDbLine
 10
165.00981
 20
163.314137
 30
0.0
 11
164.998277
 21
163.320435
 31
0.0
  0
LINE
  5
32A
330
2EA
100
AcDbEntity
  8
0
  6
CONTINUOUS
 62
     7
100
AcDbLine
 10
164.998277
 20
163.320435
 30
0.0
 11
164.986673
 21
163.326609
 31
0.0
  0
LINE
  5
32B
330
2EA
100
AcDbEntity
  8
0
  6
CONTINUOUS
 62
     7
100
AcDbLine
 10
164.986673
 20
163.326609
 30
0.0
 11
164.974997
 21
163.332654
 31
0.0
  0
LINE
  5
32C
330
2EA
100
AcDbEntity
  8
0
  6
CONTINUOUS
 62
     7
100
AcDbLine
 10
164.974997
 20
163.332654
 30
0.0
 11
164.963248
 21
163.338569
 31
0.0
  0
LINE
  5
32D
330
2EA
100
AcDbEntity
  8
0
  6
CONTINUOUS
 62
     7
100
AcDbLine
 10
164.963248
 20
163.338569
 30
0.0
 11
164.951426
 21
163.344352
 31
0.0
  0
LINE
  5
32E
330
2EA
100
AcDbEntity
  8
0
  6
CONTINUOUS
 62
     7
100
AcDbLine
 10
164.951426
 20
163.344352
 30
0.0
 11
164.933846
 21
163.352637
 31
0.0
  0
LINE
  5
32F
330
2EA
100
AcDbEntity
  8
0
  6
CONTINUOUS
 62
     7
100
AcDbLine
 10
164.933846
 20
163.352637
 30
0.0
 11
164.916111
 21
163.360615
 31
0.0
  0
LINE
  5
330
330
2EA
100
AcDbEntity
  8
0
  6
CONTINUOUS
 62
     7
100
AcDbLine
 10
164.916111
 20
163.360615
 30
0.0
 11
164.898227
 21
163.368275
 31
0.0
  0
LINE
  5
331
330
2EA
100
AcDbEntity
  8
0
  6
CONTINUOUS
 62
     7
100
AcDbLine
 10
164.898227
 20
163.368275
 30
0.0
 11
164.880201
 21
163.375603
 31
0.0
  0
LINE
  5
332
330
2EA
100
AcDbEntity
  8
0
  6
CONTINUOUS
 62
     7
100
AcDbLine
 10
164.880201
 20
163.375603
 30
0.0
 11
164.862038
 21
163.38259
 31
0.0
  0
LINE
  5
333
330
2EA
100
AcDbEntity
  8
0
  6
CONTINUOUS
 62
     7
100
AcDbLine
 10
164.862038
 20
163.38259
 30
0.0
 11
164.843745
 21
163.389221
 31
0.0
  0
LINE
  5
334
330
2EA
100
AcDbEntity
  8
0
  6
CONTINUOUS
 62
     7
100
AcDbLine
 10
164.843745
 20
163.389221
 30
0.0
 11
164.825328
 21
163.395486
 31
0.0
  0
LINE
  5
335
330
2EA
100
AcDbEntity
  8
0
  6
CONTINUOUS
 62
     7
100
AcDbLine
 10
164.825328
 20
163.395486
 30
0.0
 11
164.806793
 21
163.401372
 31
0.0
  0
LINE
  5
336
330
2EA
100
AcDbEntity
  8
0
  6
CONTINUOUS
 62
     7
100
AcDbLine
 10
164.806793
 20
163.401372
 30
0.0
 11
164.788145
 21
163.406868
 31
0.0
  0
LINE
  5
337
330
2EA
100
AcDbEntity
  8
0
  6
CONTINUOUS
 62
     7
100
AcDbLine
 10
164.788145
 20
163.406868
 30
0.0
 11
164.769392
 21
163.411962
 31
0.0
  0
LINE
  5
338
330
2EA
100
AcDbEntity
  8
0
  6
CONTINUOUS
 62
     7
100
AcDbLine
 10
164.769392
 20
163.411962
 30
0.0
 11
164.750539
 21
163.416641
 31
0.0
  0
LINE
  5
339
330
2EA
100
AcDbEntity
  8
0
  6
CONTINUOUS
 62
     7
100
AcDbLine
 10
164.750539
 20
163.416641
 30
0.0
 11
164.741077
 21
163.418821
 31
0.0
  0
LINE
  5
33A
330
2EA
100
AcDbEntity
  8
0
  6
CONTINUOUS
 62
     7
100
AcDbLine
 10
164.741077
 20
163.418821
 30
0.0
 11
164.731592
 21
163.420893
 31
0.0
  0
LINE
  5
33B
330
2EA
100
AcDbEntity
  8
0
  6
CONTINUOUS
 62
     7
100
AcDbLine
 10
164.731592
 20
163.420893
 30
0.0
 11
164.722085
 21
163.422856
 31
0.0
  0
LINE
  5
33C
330
2EA
100
AcDbEntity
  8
0
  6
CONTINUOUS
 62
     7
100
AcDbLine
 10
164.722085
 20
163.422856
 30
0.0
 11
164.712557
 21
163.424708
 31
0.0
  0
LINE
  5
33D
330
2EA
100
AcDbEntity
  8
0
  6
CONTINUOUS
 62
     7
100
AcDbLine
 10
164.712557
 20
163.424708
 30
0.0
 11
164.703008
 21
163.426447
 31
0.0
  0
LINE
  5
33E
330
2EA
100
AcDbEntity
  8
0
  6
CONTINUOUS
 62
     7
100
AcDbLine
 10
164.703008
 20
163.426447
 30
0.0
 11
164.69344
 21
163.428072
 31
0.0
  0
LINE
  5
33F
330
2EA
100
AcDbEntity
  8
0
  6
CONTINUOUS
 62
     7
100
AcDbLine
 10
164.69344
 20
163.428072
 30
0.0
 11
164.683853
 21
163.429581
 31
0.0
  0
LINE
  5
340
330
2EA
100
AcDbEntity
  8
0
  6
CONTINUOUS
 62
     7
100
AcDbLine
 10
164.683853
 20
163.429581
 30
0.0
 11
164.674248
 21
163.430973
 31
0.0
  0
LINE
  5
341
330
2EA
100
AcDbEntity
  8
0
  6
CONTINUOUS
 62
     7
100
AcDbLine
 10
164.674248
 20
163.430973
 30
0.0
 11
164.664626
 21
163.432247
 31
0.0
  0
LINE
  5
342
330
2EA
100
AcDbEntity
  8
0
  6
CONTINUOUS
 62
     7
100
AcDbLine
 10
164.664626
 20
163.432247
 30
0.0
 11
164.654987
 21
163.433401
 31
0.0
  0
LINE
  5
343
330
2EA
100
AcDbEntity
  8
0
  6
CONTINUOUS
 62
     7
100
AcDbLine
 10
164.654987
 20
163.433401
 30
0.0
 11
164.645279
 21
163.434439
 31
0.0
  0
LINE
  5
344
330
2EA
100
AcDbEntity
  8
0
  6
CONTINUOUS
 62
     7
100
AcDbLine
 10
164.645279
 20
163.434439
 30
0.0
 11
164.635558
 21
163.435354
 31
0.0
  0
LINE
  5
345
330
2EA
100
AcDbEntity
  8
0
  6
CONTINUOUS
 62
     7
100
AcDbLine
 10
164.635558
 20
163.435354
 30
0.0
 11
164.625823
 21
163.436148
 31
0.0
  0
LINE
  5
346
330
2EA
100
AcDbEntity
  8
0
  6
CONTINUOUS
 62
     7
100
AcDbLine
 10
164.625823
 20
163.436148
 30
0.0
 11
164.616077
 21
163.43682
 31
0.0
  0
LINE
  5
347
330
2EA
100
AcDbEntity
  8
0
  6
CONTINUOUS
 62
     7
100
AcDbLine
 10
164.616077
 20
163.43682
 30
0.0
 11
164.606321
 21
163.437372
 31
0.0
  0
LINE
  5
348
330
2EA
100
AcDbEntity
  8
0
  6
CONTINUOUS
 62
     7
100
AcDbLine
 10
164.606321
 20
163.437372
 30
0.0
 11
164.596556
 21
163.437804
 31
0.0
  0
LINE
  5
349
330
2EA
100
AcDbEntity
  8
0
  6
CONTINUOUS
 62
     7
100
AcDbLine
 10
164.596556
 20
163.437804
 30
0.0
 11
164.586785
 21
163.438115
 31
0.0
  0
LINE
  5
34A
330
2EA
100
AcDbEntity
  8
0
  6
CONTINUOUS
 62
     7
100
AcDbLine
 10
164.586785
 20
163.438115
 30
0.0
 11
164.577009
 21
163.438308
 31
0.0
  0
LINE
  5
34B
330
2EA
100
AcDbEntity
  8
0
  6
CONTINUOUS
 62
     7
100
AcDbLine
 10
164.577009
 20
163.438308
 30
0.0
 11
164.567228
 21
163.438382
 31
0.0
  0
LINE
  5
34C
330
2EA
100
AcDbEntity
  8
0
  6
CONTINUOUS
 62
     7
100
AcDbLine
 10
164.567228
 20
163.438382
 30
0.0
 11
164.557446
 21
163.438338
 31
0.0
  0
LINE
  5
34D
330
2EA
100
AcDbEntity
  8
0
  6
CONTINUOUS
 62
     7
100
AcDbLine
 10
164.557446
 20
163.438338
 30
0.0
 11
164.547663
 21
163.438177
 31
0.0
  0
LINE
  5
34E
330
2EA
100
AcDbEntity
  8
0
  6
CONTINUOUS
 62
     7
100
AcDbLine
 10
164.547663
 20
163.438177
 30
0.0
 11
164.53788
 21
163.437898
 31
0.0
  0
LINE
  5
34F
330
2EA
100
AcDbEntity
  8
0
  6
CONTINUOUS
 62
     7
100
AcDbLine
 10
164.53788
 20
163.437898
 30
0.0
 11
164.5281
 21
163.437503
 31
0.0
  0
LINE
  5
350
330
2EA
100
AcDbEntity
  8
0
  6
CONTINUOUS
 62
     7
100
AcDbLine
 10
164.5281
 20
163.437503
 30
0.0
 11
164.518324
 21
163.436992
 31
0.0
  0
LINE
  5
351
330
2EA
100
AcDbEntity
  8
0
  6
CONTINUOUS
 62
     7
100
AcDbLine
 10
164.518324
 20
163.436992
 30
0.0
 11
164.508554
 21
163.436366
 31
0.0
  0
LINE
  5
352
330
2EA
100
AcDbEntity
  8
0
  6
CONTINUOUS
 62
     7
100
AcDbLine
 10
164.508554
 20
163.436366
 30
0.0
 11
164.49879
 21
163.435625
 31
0.0
  0
LINE
  5
353
330
2EA
100
AcDbEntity
  8
0
  6
CONTINUOUS
 62
     7
100
AcDbLine
 10
164.49879
 20
163.435625
 30
0.0
 11
164.489035
 21
163.434769
 31
0.0
  0
LINE
  5
354
330
2EA
100
AcDbEntity
  8
0
  6
CONTINUOUS
 62
     7
100
AcDbLine
 10
164.489035
 20
163.434769
 30
0.0
 11
164.47929
 21
163.4338
 31
0.0
  0
LINE
  5
355
330
2EA
100
AcDbEntity
  8
0
  6
CONTINUOUS
 62
     7
100
AcDbLine
 10
164.47929
 20
163.4338
 30
0.0
 11
164.469556
 21
163.432717
 31
0.0
  0
LINE
  5
356
330
2EA
100
AcDbEntity
  8
0
  6
CONTINUOUS
 62
     7
100
AcDbLine
 10
164.469556
 20
163.432717
 30
0.0
 11
164.459836
 21
163.431522
 31
0.0
  0
LINE
  5
357
330
2EA
100
AcDbEntity
  8
0
  6
CONTINUOUS
 62
     7
100
AcDbLine
 10
164.459836
 20
163.431522
 30
0.0
 11
164.45013
 21
163.430214
 31
0.0
  0
LINE
  5
358
330
2EA
100
AcDbEntity
  8
0
  6
CONTINUOUS
 62
     7
100
AcDbLine
 10
164.45013
 20
163.430214
 30
0.0
 11
164.440441
 21
163.428795
 31
0.0
  0
LINE
  5
359
330
2EA
100
AcDbEntity
  8
0
  6
CONTINUOUS
 62
     7
100
AcDbLine
 10
164.440441
 20
163.428795
 30
0.0
 11
164.430769
 21
163.427264
 31
0.0
  0
LINE
  5
35A
330
2EA
100
AcDbEntity
  8
0
  6
CONTINUOUS
 62
     7
100
AcDbLine
 10
164.430769
 20
163.427264
 30
0.0
 11
164.421117
 21
163.425623
 31
0.0
  0
LINE
  5
35B
330
2EA
100
AcDbEntity
  8
0
  6
CONTINUOUS
 62
     7
100
AcDbLine
 10
164.421117
 20
163.425623
 30
0.0
 11
164.411485
 21
163.423872
 31
0.0
  0
LINE
  5
35C
330
2EA
100
AcDbEntity
  8
0
  6
CONTINUOUS
 62
     7
100
AcDbLine
 10
164.411485
 20
163.423872
 30
0.0
 11
164.401876
 21
163.422011
 31
0.0
  0
LINE
  5
35D
330
2EA
100
AcDbEntity
  8
0
  6
CONTINUOUS
 62
     7
100
AcDbLine
 10
164.401876
 20
163.422011
 30
0.0
 11
164.39229
 21
163.420041
 31
0.0
  0
LINE
  5
35E
330
2EA
100
AcDbEntity
  8
0
  6
CONTINUOUS
 62
     7
100
AcDbLine
 10
164.39229
 20
163.420041
 30
0.0
 11
164.38273
 21
163.417963
 31
0.0
  0
LINE
  5
35F
330
2EA
100
AcDbEntity
  8
0
  6
CONTINUOUS
 62
     7
100
AcDbLine
 10
164.38273
 20
163.417963
 30
0.0
 11
164.373197
 21
163.415777
 31
0.0
  0
LINE
  5
360
330
2EA
100
AcDbEntity
  8
0
  6
CONTINUOUS
 62
     7
100
AcDbLine
 10
164.373197
 20
163.415777
 30
0.0
 11
164.363692
 21
163.413483
 31
0.0
  0
LINE
  5
361
330
2EA
100
AcDbEntity
  8
0
  6
CONTINUOUS
 62
     7
100
AcDbLine
 10
164.363692
 20
163.413483
 30
0.0
 11
164.354217
 21
163.411083
 31
0.0
  0
LINE
  5
362
330
2EA
100
AcDbEntity
  8
0
  6
CONTINUOUS
 62
     7
100
AcDbLine
 10
164.354217
 20
163.411083
 30
0.0
 11
164.344774
 21
163.408576
 31
0.0
  0
LINE
  5
363
330
2EA
100
AcDbEntity
  8
0
  6
CONTINUOUS
 62
     7
100
AcDbLine
 10
164.344774
 20
163.408576
 30
0.0
 11
164.335108
 21
163.40589
 31
0.0
  0
LINE
  5
364
330
2EA
100
AcDbEntity
  8
0
  6
CONTINUOUS
 62
     7
100
AcDbLine
 10
164.335108
 20
163.40589
 30
0.0
 11
164.325476
 21
163.403095
 31
0.0
  0
LINE
  5
365
330
2EA
100
AcDbEntity
  8
0
  6
CONTINUOUS
 62
     7
100
AcDbLine
 10
164.325476
 20
163.403095
 30
0.0
 11
164.31588
 21
163.400191
 31
0.0
  0
LINE
  5
366
330
2EA
100
AcDbEntity
  8
0
  6
CONTINUOUS
 62
     7
100
AcDbLine
 10
164.31588
 20
163.400191
 30
0.0
 11
164.306319
 21
163.397181
 31
0.0
  0
LINE
  5
367
330
2EA
100
AcDbEntity
  8
0
  6
CONTINUOUS
 62
     7
100
AcDbLine
 10
164.306319
 20
163.397181
 30
0.0
 11
164.296794
 21
163.394065
 31
0.0
  0
LINE
  5
368
330
2EA
100
AcDbEntity
  8
0
  6
CONTINUOUS
 62
     7
100
AcDbLine
 10
164.296794
 20
163.394065
 30
0.0
 11
164.287304
 21
163.390846
 31
0.0
  0
LINE
  5
369
330
2EA
100
AcDbEntity
  8
0
  6
CONTINUOUS
 62
     7
100
AcDbLine
 10
164.287304
 20
163.390846
 30
0.0
 11
164.277851
 21
163.387526
 31
0.0
  0
LINE
  5
36A
330
2EA
100
AcDbEntity
  8
0
  6
CONTINUOUS
 62
     7
100
AcDbLine
 10
164.277851
 20
163.387526
 30
0.0
 11
164.268433
 21
163.384106
 31
0.0
  0
LINE
  5
36B
330
2EA
100
AcDbEntity
  8
0
  6
CONTINUOUS
 62
     7
100
AcDbLine
 10
164.268433
 20
163.384106
 30
0.0
 11
164.249707
 21
163.376971
 31
0.0
  0
LINE
  5
36C
330
2EA
100
AcDbEntity
  8
0
  6
CONTINUOUS
 62
     7
100
AcDbLine
 10
164.249707
 20
163.376971
 30
0.0
 11
164.231128
 21
163.369457
 31
0.0
  0
LINE
  5
36D
330
2EA
100
AcDbEntity
  8
0
  6
CONTINUOUS
 62
     7
100
AcDbLine
 10
164.231128
 20
163.369457
 30
0.0
 11
164.212697
 21
163.361576
 31
0.0
  0
LINE
  5
36E
330
2EA
100
AcDbEntity
  8
0
  6
CONTINUOUS
 62
     7
100
AcDbLine
 10
164.212697
 20
163.361576
 30
0.0
 11
164.194416
 21
163.353341
 31
0.0
  0
LINE
  5
36F
330
2EA
100
AcDbEntity
  8
0
  6
CONTINUOUS
 62
     7
100
AcDbLine
 10
164.194416
 20
163.353341
 30
0.0
 11
164.176285
 21
163.344766
 31
0.0
  0
LINE
  5
370
330
2EA
100
AcDbEntity
  8
0
  6
CONTINUOUS
 62
     7
100
AcDbLine
 10
164.176285
 20
163.344766
 30
0.0
 11
164.158306
 21
163.335865
 31
0.0
  0
LINE
  5
371
330
2EA
100
AcDbEntity
  8
0
  6
CONTINUOUS
 62
     7
100
AcDbLine
 10
164.158306
 20
163.335865
 30
0.0
 11
164.140481
 21
163.32665
 31
0.0
  0
LINE
  5
372
330
2EA
100
AcDbEntity
  8
0
  6
CONTINUOUS
 62
     7
100
AcDbLine
 10
164.140481
 20
163.32665
 30
0.0
 11
164.122811
 21
163.317136
 31
0.0
  0
LINE
  5
373
330
2EA
100
AcDbEntity
  8
0
  6
CONTINUOUS
 62
     7
100
AcDbLine
 10
164.122811
 20
163.317136
 30
0.0
 11
164.105298
 21
163.307334
 31
0.0
  0
LINE
  5
374
330
2EA
100
AcDbEntity
  8
0
  6
CONTINUOUS
 62
     7
100
AcDbLine
 10
164.105298
 20
163.307334
 30
0.0
 11
164.087942
 21
163.297259
 31
0.0
  0
LINE
  5
375
330
2EA
100
AcDbEntity
  8
0
  6
CONTINUOUS
 62
     7
100
AcDbLine
 10
164.087942
 20
163.297259
 30
0.0
 11
164.070745
 21
163.286924
 31
0.0
  0
LINE
  5
376
330
2EA
100
AcDbEntity
  8
0
  6
CONTINUOUS
 62
     7
100
AcDbLine
 10
164.070745
 20
163.286924
 30
0.0
 11
164.05371
 21
163.276343
 31
0.0
  0
LINE
  5
377
330
2EA
100
AcDbEntity
  8
0
  6
CONTINUOUS
 62
     7
100
AcDbLine
 10
164.05371
 20
163.276343
 30
0.0
 11
164.034504
 21
163.264006
 31
0.0
  0
LINE
  5
378
330
2EA
100
AcDbEntity
  8
0
  6
CONTINUOUS
 62
     7
100
AcDbLine
 10
164.034504
 20
163.264006
 30
0.0
 11
164.015505
 21
163.251376
 31
0.0
  0
LINE
  5
379
330
2EA
100
AcDbEntity
  8
0
  6
CONTINUOUS
 62
     7
100
AcDbLine
 10
164.015505
 20
163.251376
 30
0.0
 11
163.996709
 21
163.238463
 31
0.0
  0
LINE
  5
37A
330
2EA
100
AcDbEntity
  8
0
  6
CONTINUOUS
 62
     7
100
AcDbLine
 10
163.996709
 20
163.238463
 30
0.0
 11
163.978112
 21
163.225276
 31
0.0
  0
LINE
  5
37B
330
2EA
100
AcDbEntity
  8
0
  6
CONTINUOUS
 62
     7
100
AcDbLine
 10
163.978112
 20
163.225276
 30
0.0
 11
163.959711
 21
163.211826
 31
0.0
  0
LINE
  5
37C
330
2EA
100
AcDbEntity
  8
0
  6
CONTINUOUS
 62
     7
100
AcDbLine
 10
163.959711
 20
163.211826
 30
0.0
 11
163.941502
 21
163.19812
 31
0.0
  0
LINE
  5
37D
330
2EA
100
AcDbEntity
  8
0
  6
CONTINUOUS
 62
     7
100
AcDbLine
 10
163.941502
 20
163.19812
 30
0.0
 11
163.923481
 21
163.18417
 31
0.0
  0
LINE
  5
37E
330
2EA
100
AcDbEntity
  8
0
  6
CONTINUOUS
 62
     7
100
AcDbLine
 10
163.923481
 20
163.18417
 30
0.0
 11
163.905644
 21
163.169984
 31
0.0
  0
LINE
  5
37F
330
2EA
100
AcDbEntity
  8
0
  6
CONTINUOUS
 62
     7
100
AcDbLine
 10
163.905644
 20
163.169984
 30
0.0
 11
163.887988
 21
163.155573
 31
0.0
  0
LINE
  5
380
330
2EA
100
AcDbEntity
  8
0
  6
CONTINUOUS
 62
     7
100
AcDbLine
 10
163.887988
 20
163.155573
 30
0.0
 11
163.87051
 21
163.140946
 31
0.0
  0
LINE
  5
381
330
2EA
100
AcDbEntity
  8
0
  6
CONTINUOUS
 62
     7
100
AcDbLine
 10
163.87051
 20
163.140946
 30
0.0
 11
163.853205
 21
163.126113
 31
0.0
  0
LINE
  5
382
330
2EA
100
AcDbEntity
  8
0
  6
CONTINUOUS
 62
     7
100
AcDbLine
 10
163.853205
 20
163.126113
 30
0.0
 11
163.83607
 21
163.111083
 31
0.0
  0
LINE
  5
383
330
2EA
100
AcDbEntity
  8
0
  6
CONTINUOUS
 62
     7
100
AcDbLine
 10
163.83607
 20
163.111083
 30
0.0
 11
163.819102
 21
163.095866
 31
0.0
  0
LINE
  5
384
330
2EA
100
AcDbEntity
  8
0
  6
CONTINUOUS
 62
     7
100
AcDbLine
 10
163.819102
 20
163.095866
 30
0.0
 11
163.802296
 21
163.080472
 31
0.0
  0
LINE
  5
385
330
2EA
100
AcDbEntity
  8
0
  6
CONTINUOUS
 62
     7
100
AcDbLine
 10
163.802296
 20
163.080472
 30
0.0
 11
163.785649
 21
163.064909
 31
0.0
  0
LINE
  5
386
330
2EA
100
AcDbEntity
  8
0
  6
CONTINUOUS
 62
     7
100
AcDbLine
 10
163.785649
 20
163.064909
 30
0.0
 11
163.769157
 21
163.049189
 31
0.0
  0
LINE
  5
387
330
2EA
100
AcDbEntity
  8
0
  6
CONTINUOUS
 62
     7
100
AcDbLine
 10
163.769157
 20
163.049189
 30
0.0
 11
163.756681
 21
163.037098
 31
0.0
  0
LINE
  5
388
330
2EA
100
AcDbEntity
  8
0
  6
CONTINUOUS
 62
     7
100
AcDbLine
 10
163.756681
 20
163.037098
 30
0.0
 11
163.744291
 21
163.024923
 31
0.0
  0
LINE
  5
389
330
2EA
100
AcDbEntity
  8
0
  6
CONTINUOUS
 62
     7
100
AcDbLine
 10
163.744291
 20
163.024923
 30
0.0
 11
163.731986
 21
163.012665
 31
0.0
  0
LINE
  5
38A
330
2EA
100
AcDbEntity
  8
0
  6
CONTINUOUS
 62
     7
100
AcDbLine
 10
163.731986
 20
163.012665
 30
0.0
 11
163.719765
 21
163.000327
 31
0.0
  0
LINE
  5
38B
330
2EA
100
AcDbEntity
  8
0
  6
CONTINUOUS
 62
     7
100
AcDbLine
 10
163.719765
 20
163.000327
 30
0.0
 11
163.707627
 21
162.98791
 31
0.0
  0
LINE
  5
38C
330
2EA
100
AcDbEntity
  8
0
  6
CONTINUOUS
 62
     7
100
AcDbLine
 10
163.707627
 20
162.98791
 30
0.0
 11
163.695569
 21
162.975417
 31
0.0
  0
LINE
  5
38D
330
2EA
100
AcDbEntity
  8
0
  6
CONTINUOUS
 62
     7
100
AcDbLine
 10
163.695569
 20
162.975417
 30
0.0
 11
163.68359
 21
162.962849
 31
0.0
  0
LINE
  5
38E
330
2EA
100
AcDbEntity
  8
0
  6
CONTINUOUS
 62
     7
100
AcDbLine
 10
163.68359
 20
162.962849
 30
0.0
 11
163.671689
 21
162.950208
 31
0.0
  0
LINE
  5
38F
330
2EA
100
AcDbEntity
  8
0
  6
CONTINUOUS
 62
     7
100
AcDbLine
 10
163.671689
 20
162.950208
 30
0.0
 11
163.659865
 21
162.937496
 31
0.0
  0
LINE
  5
390
330
2EA
100
AcDbEntity
  8
0
  6
CONTINUOUS
 62
     7
100
AcDbLine
 10
163.659865
 20
162.937496
 30
0.0
 11
163.648115
 21
162.924716
 31
0.0
  0
LINE
  5
391
330
2EA
100
AcDbEntity
  8
0
  6
CONTINUOUS
 62
     7
100
AcDbLine
 10
163.648115
 20
162.924716
 30
0.0
 11
163.636438
 21
162.911869
 31
0.0
  0
LINE
  5
392
330
2EA
100
AcDbEntity
  8
0
  6
CONTINUOUS
 62
     7
100
AcDbLine
 10
163.636438
 20
162.911869
 30
0.0
 11
163.624834
 21
162.898956
 31
0.0
  0
LINE
  5
393
330
2EA
100
AcDbEntity
  8
0
  6
CONTINUOUS
 62
     7
100
AcDbLine
 10
163.624834
 20
162.898956
 30
0.0
 11
163.6133
 21
162.885981
 31
0.0
  0
LINE
  5
394
330
2EA
100
AcDbEntity
  8
0
  6
CONTINUOUS
 62
     7
100
AcDbLine
 10
163.6133
 20
162.885981
 30
0.0
 11
163.601834
 21
162.872945
 31
0.0
  0
LINE
  5
395
330
2EA
100
AcDbEntity
  8
0
  6
CONTINUOUS
 62
     7
100
AcDbLine
 10
163.601834
 20
162.872945
 30
0.0
 11
163.590436
 21
162.85985
 31
0.0
  0
LINE
  5
396
330
2EA
100
AcDbEntity
  8
0
  6
CONTINUOUS
 62
     7
100
AcDbLine
 10
163.590436
 20
162.85985
 30
0.0
 11
163.579104
 21
162.846697
 31
0.0
  0
LINE
  5
397
330
2EA
100
AcDbEntity
  8
0
  6
CONTINUOUS
 62
     7
100
AcDbLine
 10
163.579104
 20
162.846697
 30
0.0
 11
163.567141
 21
162.832671
 31
0.0
  0
LINE
  5
398
330
2EA
100
AcDbEntity
  8
0
  6
CONTINUOUS
 62
     7
100
AcDbLine
 10
163.567141
 20
162.832671
 30
0.0
 11
163.555251
 21
162.818583
 31
0.0
  0
LINE
  5
399
330
2EA
100
AcDbEntity
  8
0
  6
CONTINUOUS
 62
     7
100
AcDbLine
 10
163.555251
 20
162.818583
 30
0.0
 11
163.543431
 21
162.804436
 31
0.0
  0
LINE
  5
39A
330
2EA
100
AcDbEntity
  8
0
  6
CONTINUOUS
 62
     7
100
AcDbLine
 10
163.543431
 20
162.804436
 30
0.0
 11
163.531682
 21
162.790229
 31
0.0
  0
LINE
  5
39B
330
2EA
100
AcDbEntity
  8
0
  6
CONTINUOUS
 62
     7
100
AcDbLine
 10
163.531682
 20
162.790229
 30
0.0
 11
163.520003
 21
162.775966
 31
0.0
  0
LINE
  5
39C
330
2EA
100
AcDbEntity
  8
0
  6
CONTINUOUS
 62
     7
100
AcDbLine
 10
163.520003
 20
162.775966
 30
0.0
 11
163.508393
 21
162.761645
 31
0.0
  0
LINE
  5
39D
330
2EA
100
AcDbEntity
  8
0
  6
CONTINUOUS
 62
     7
100
AcDbLine
 10
163.508393
 20
162.761645
 30
0.0
 11
163.496851
 21
162.74727
 31
0.0
  0
LINE
  5
39E
330
2EA
100
AcDbEntity
  8
0
  6
CONTINUOUS
 62
     7
100
AcDbLine
 10
163.496851
 20
162.74727
 30
0.0
 11
163.485376
 21
162.73284
 31
0.0
  0
LINE
  5
39F
330
2EA
100
AcDbEntity
  8
0
  6
CONTINUOUS
 62
     7
100
AcDbLine
 10
163.485376
 20
162.73284
 30
0.0
 11
163.473969
 21
162.718358
 31
0.0
  0
LINE
  5
3A0
330
2EA
100
AcDbEntity
  8
0
  6
CONTINUOUS
 62
     7
100
AcDbLine
 10
163.473969
 20
162.718358
 30
0.0
 11
163.462628
 21
162.703823
 31
0.0
  0
LINE
  5
3A1
330
2EA
100
AcDbEntity
  8
0
  6
CONTINUOUS
 62
     7
100
AcDbLine
 10
163.462628
 20
162.703823
 30
0.0
 11
163.451352
 21
162.689239
 31
0.0
  0
LINE
  5
3A2
330
2EA
100
AcDbEntity
  8
0
  6
CONTINUOUS
 62
     7
100
AcDbLine
 10
163.451352
 20
162.689239
 30
0.0
 11
163.440141
 21
162.674604
 31
0.0
  0
LINE
  5
3A3
330
2EA
100
AcDbEntity
  8
0
  6
CONTINUOUS
 62
     7
100
AcDbLine
 10
163.440141
 20
162.674604
 30
0.0
 11
163.428995
 21
162.659921
 31
0.0
  0
LINE
  5
3A4
330
2EA
100
AcDbEntity
  8
0
  6
CONTINUOUS
 62
     7
100
AcDbLine
 10
163.428995
 20
162.659921
 30
0.0
 11
163.417911
 21
162.645192
 31
0.0
  0
LINE
  5
3A5
330
2EA
100
AcDbEntity
  8
0
  6
CONTINUOUS
 62
     7
100
AcDbLine
 10
163.417911
 20
162.645192
 30
0.0
 11
163.40689
 21
162.630416
 31
0.0
  0
LINE
  5
3A6
330
2EA
100
AcDbEntity
  8
0
  6
CONTINUOUS
 62
     7
100
AcDbLine
 10
163.40689
 20
162.630416
 30
0.0
 11
163.395932
 21
162.615595
 31
0.0
  0
LINE
  5
3A7
330
2EA
100
AcDbEntity
  8
0
  6
CONTINUOUS
 62
     7
100
AcDbLine
 10
163.395932
 20
162.615595
 30
0.0
 11
163.380214
 21
162.594138
 31
0.0
  0
LINE
  5
3A8
330
2EA
100
AcDbEntity
  8
0
  6
CONTINUOUS
 62
     7
100
AcDbLine
 10
163.380214
 20
162.594138
 30
0.0
 11
163.364561
 21
162.572635
 31
0.0
  0
ENDBLK
  5
2EC
330
2EA
100
AcDbEntity
  8
0
100
AcDbBlockEnd
  0
BLOCK
  5
3AC
330
3AB
100
AcDbEntity
  8
0
100
AcDbBlockBegin
  2
BLKF018
 70
     0
 71
     0
 10
0.0
 20
0.0
 30
0.0
  3
BLKF018
  1

  0
LINE
  5
3AF
330
3AB
100
AcDbEntity
  8
0
  6
CONTINUOUS
 62
     7
100
AcDbLine
 10
175.288757
 20
162.572635
 30
0.0
 11
175.211849
 21
162.673521
 31
0.0
  0
LINE
  5
3B0
330
3AB
100
AcDbEntity
  8
0
  6
CONTINUOUS
 62
     7
100
AcDbLine
 10
175.211849
 20
162.673521
 30
0.0
 11
175.173081
 21
162.723604
 31
0.0
  0
LINE
  5
3B1
330
3AB
100
AcDbEntity
  8
0
  6
CONTINUOUS
 62
     7
100
AcDbLine
 10
175.173081
 20
162.723604
 30
0.0
 11
175.133934
 21
162.773255
 31
0.0
  0
LINE
  5
3B2
330
3AB
100
AcDbEntity
  8
0
  6
CONTINUOUS
 62
     7
100
AcDbLine
 10
175.133934
 20
162.773255
 30
0.0
 11
175.094284
 21
162.822332
 31
0.0
  0
LINE
  5
3B3
330
3AB
100
AcDbEntity
  8
0
  6
CONTINUOUS
 62
     7
100
AcDbLine
 10
175.094284
 20
162.822332
 30
0.0
 11
175.054004
 21
162.870689
 31
0.0
  0
LINE
  5
3B4
330
3AB
100
AcDbEntity
  8
0
  6
CONTINUOUS
 62
     7
100
AcDbLine
 10
175.054004
 20
162.870689
 30
0.0
 11
175.012969
 21
162.918183
 31
0.0
  0
LINE
  5
3B5
330
3AB
100
AcDbEntity
  8
0
  6
CONTINUOUS
 62
     7
100
AcDbLine
 10
175.012969
 20
162.918183
 30
0.0
 11
174.971052
 21
162.96467
 31
0.0
  0
LINE
  5
3B6
330
3AB
100
AcDbEntity
  8
0
  6
CONTINUOUS
 62
     7
100
AcDbLine
 10
174.971052
 20
162.96467
 30
0.0
 11
174.928128
 21
163.010007
 31
0.0
  0
LINE
  5
3B7
330
3AB
100
AcDbEntity
  8
0
  6
CONTINUOUS
 62
     7
100
AcDbLine
 10
174.928128
 20
163.010007
 30
0.0
 11
174.88407
 21
163.054049
 31
0.0
  0
LINE
  5
3B8
330
3AB
100
AcDbEntity
  8
0
  6
CONTINUOUS
 62
     7
100
AcDbLine
 10
174.88407
 20
163.054049
 30
0.0
 11
174.838753
 21
163.096653
 31
0.0
  0
LINE
  5
3B9
330
3AB
100
AcDbEntity
  8
0
  6
CONTINUOUS
 62
     7
100
AcDbLine
 10
174.838753
 20
163.096653
 30
0.0
 11
174.792051
 21
163.137675
 31
0.0
  0
LINE
  5
3BA
330
3AB
100
AcDbEntity
  8
0
  6
CONTINUOUS
 62
     7
100
AcDbLine
 10
174.792051
 20
163.137675
 30
0.0
 11
174.768141
 21
163.157547
 31
0.0
  0
LINE
  5
3BB
330
3AB
100
AcDbEntity
  8
0
  6
CONTINUOUS
 62
     7
100
AcDbLine
 10
174.768141
 20
163.157547
 30
0.0
 11
174.743838
 21
163.17697
 31
0.0
  0
LINE
  5
3BC
330
3AB
100
AcDbEntity
  8
0
  6
CONTINUOUS
 62
     7
100
AcDbLine
 10
174.743838
 20
163.17697
 30
0.0
 11
174.719125
 21
163.195926
 31
0.0
  0
LINE
  5
3BD
330
3AB
100
AcDbEntity
  8
0
  6
CONTINUOUS
 62
     7
100
AcDbLine
 10
174.719125
 20
163.195926
 30
0.0
 11
174.693987
 21
163.214396
 31
0.0
  0
LINE
  5
3BE
330
3AB
100
AcDbEntity
  8
0
  6
CONTINUOUS
 62
     7
100
AcDbLine
 10
174.693987
 20
163.214396
 30
0.0
 11
174.668409
 21
163.232363
 31
0.0
  0
LINE
  5
3BF
330
3AB
100
AcDbEntity
  8
0
  6
CONTINUOUS
 62
     7
100
AcDbLine
 10
174.668409
 20
163.232363
 30
0.0
 11
174.642374
 21
163.249808
 31
0.0
  0
LINE
  5
3C0
330
3AB
100
AcDbEntity
  8
0
  6
CONTINUOUS
 62
     7
100
AcDbLine
 10
174.642374
 20
163.249808
 30
0.0
 11
174.615867
 21
163.266714
 31
0.0
  0
LINE
  5
3C1
330
3AB
100
AcDbEntity
  8
0
  6
CONTINUOUS
 62
     7
100
AcDbLine
 10
174.615867
 20
163.266714
 30
0.0
 11
174.588872
 21
163.283063
 31
0.0
  0
LINE
  5
3C2
330
3AB
100
AcDbEntity
  8
0
  6
CONTINUOUS
 62
     7
100
AcDbLine
 10
174.588872
 20
163.283063
 30
0.0
 11
174.557145
 21
163.301185
 31
0.0
  0
LINE
  5
3C3
330
3AB
100
AcDbEntity
  8
0
  6
CONTINUOUS
 62
     7
100
AcDbLine
 10
174.557145
 20
163.301185
 30
0.0
 11
174.5248
 21
163.318476
 31
0.0
  0
LINE
  5
3C4
330
3AB
100
AcDbEntity
  8
0
  6
CONTINUOUS
 62
     7
100
AcDbLine
 10
174.5248
 20
163.318476
 30
0.0
 11
174.491886
 21
163.334873
 31
0.0
  0
LINE
  5
3C5
330
3AB
100
AcDbEntity
  8
0
  6
CONTINUOUS
 62
     7
100
AcDbLine
 10
174.491886
 20
163.334873
 30
0.0
 11
174.458454
 21
163.350309
 31
0.0
  0
LINE
  5
3C6
330
3AB
100
AcDbEntity
  8
0
  6
CONTINUOUS
 62
     7
100
AcDbLine
 10
174.458454
 20
163.350309
 30
0.0
 11
174.424553
 21
163.364719
 31
0.0
  0
LINE
  5
3C7
330
3AB
100
AcDbEntity
  8
0
  6
CONTINUOUS
 62
     7
100
AcDbLine
 10
174.424553
 20
163.364719
 30
0.0
 11
174.390235
 21
163.378037
 31
0.0
  0
LINE
  5
3C8
330
3AB
100
AcDbEntity
  8
0
  6
CONTINUOUS
 62
     7
100
AcDbLine
 10
174.390235
 20
163.378037
 30
0.0
 11
174.355548
 21
163.390198
 31
0.0
  0
LINE
  5
3C9
330
3AB
100
AcDbEntity
  8
0
  6
CONTINUOUS
 62
     7
100
AcDbLine
 10
174.355548
 20
163.390198
 30
0.0
 11
174.320545
 21
163.401137
 31
0.0
  0
LINE
  5
3CA
330
3AB
100
AcDbEntity
  8
0
  6
CONTINUOUS
 62
     7
100
AcDbLine
 10
174.320545
 20
163.401137
 30
0.0
 11
174.285274
 21
163.410788
 31
0.0
  0
LINE
  5
3CB
330
3AB
100
AcDbEntity
  8
0
  6
CONTINUOUS
 62
     7
100
AcDbLine
 10
174.285274
 20
163.410788
 30
0.0
 11
174.249786
 21
163.419085
 31
0.0
  0
LINE
  5
3CC
330
3AB
100
AcDbEntity
  8
0
  6
CONTINUOUS
 62
     7
100
AcDbLine
 10
174.249786
 20
163.419085
 30
0.0
 11
174.214131
 21
163.425964
 31
0.0
  0
LINE
  5
3CD
330
3AB
100
AcDbEntity
  8
0
  6
CONTINUOUS
 62
     7
100
AcDbLine
 10
174.214131
 20
163.425964
 30
0.0
 11
174.17836
 21
163.431358
 31
0.0
  0
LINE
  5
3CE
330
3AB
100
AcDbEntity
  8
0
  6
CONTINUOUS
 62
     7
100
AcDbLine
 10
174.17836
 20
163.431358
 30
0.0
 11
174.142523
 21
163.435203
 31
0.0
  0
LINE
  5
3CF
330
3AB
100
AcDbEntity
  8
0
  6
CONTINUOUS
 62
     7
100
AcDbLine
 10
174.142523
 20
163.435203
 30
0.0
 11
174.106669
 21
163.437432
 31
0.0
  0
LINE
  5
3D0
330
3AB
100
AcDbEntity
  8
0
  6
CONTINUOUS
 62
     7
100
AcDbLine
 10
174.106669
 20
163.437432
 30
0.0
 11
174.07085
 21
163.437981
 31
0.0
  0
LINE
  5
3D1
330
3AB
100
AcDbEntity
  8
0
  6
CONTINUOUS
 62
     7
100
AcDbLine
 10
174.07085
 20
163.437981
 30
0.0
 11
174.035115
 21
163.436783
 31
0.0
  0
LINE
  5
3D2
330
3AB
100
AcDbEntity
  8
0
  6
CONTINUOUS
 62
     7
100
AcDbLine
 10
174.035115
 20
163.436783
 30
0.0
 11
173.99842
 21
163.433678
 31
0.0
  0
LINE
  5
3D3
330
3AB
100
AcDbEntity
  8
0
  6
CONTINUOUS
 62
     7
100
AcDbLine
 10
173.99842
 20
163.433678
 30
0.0
 11
173.9619
 21
163.428731
 31
0.0
  0
LINE
  5
3D4
330
3AB
100
AcDbEntity
  8
0
  6
CONTINUOUS
 62
     7
100
AcDbLine
 10
173.9619
 20
163.428731
 30
0.0
 11
173.925587
 21
163.422025
 31
0.0
  0
LINE
  5
3D5
330
3AB
100
AcDbEntity
  8
0
  6
CONTINUOUS
 62
     7
100
AcDbLine
 10
173.925587
 20
163.422025
 30
0.0
 11
173.889513
 21
163.413643
 31
0.0
  0
LINE
  5
3D6
330
3AB
100
AcDbEntity
  8
0
  6
CONTINUOUS
 62
     7
100
AcDbLine
 10
173.889513
 20
163.413643
 30
0.0
 11
173.853711
 21
163.403666
 31
0.0
  0
LINE
  5
3D7
330
3AB
100
AcDbEntity
  8
0
  6
CONTINUOUS
 62
     7
100
AcDbLine
 10
173.853711
 20
163.403666
 30
0.0
 11
173.818211
 21
163.392179
 31
0.0
  0
LINE
  5
3D8
330
3AB
100
AcDbEntity
  8
0
  6
CONTINUOUS
 62
     7
100
AcDbLine
 10
173.818211
 20
163.392179
 30
0.0
 11
173.783045
 21
163.379264
 31
0.0
  0
LINE
  5
3D9
330
3AB
100
AcDbEntity
  8
0
  6
CONTINUOUS
 62
     7
100
AcDbLine
 10
173.783045
 20
163.379264
 30
0.0
 11
173.748247
 21
163.365004
 31
0.0
  0
LINE
  5
3DA
330
3AB
100
AcDbEntity
  8
0
  6
CONTINUOUS
 62
     7
100
AcDbLine
 10
173.748247
 20
163.365004
 30
0.0
 11
173.713848
 21
163.349481
 31
0.0
  0
LINE
  5
3DB
330
3AB
100
AcDbEntity
  8
0
  6
CONTINUOUS
 62
     7
100
AcDbLine
 10
173.713848
 20
163.349481
 30
0.0
 11
173.679879
 21
163.332778
 31
0.0
  0
LINE
  5
3DC
330
3AB
100
AcDbEntity
  8
0
  6
CONTINUOUS
 62
     7
100
AcDbLine
 10
173.679879
 20
163.332778
 30
0.0
 11
173.646373
 21
163.314978
 31
0.0
  0
LINE
  5
3DD
330
3AB
100
AcDbEntity
  8
0
  6
CONTINUOUS
 62
     7
100
AcDbLine
 10
173.646373
 20
163.314978
 30
0.0
 11
173.613362
 21
163.296163
 31
0.0
  0
LINE
  5
3DE
330
3AB
100
AcDbEntity
  8
0
  6
CONTINUOUS
 62
     7
100
AcDbLine
 10
173.613362
 20
163.296163
 30
0.0
 11
173.580878
 21
163.276417
 31
0.0
  0
LINE
  5
3DF
330
3AB
100
AcDbEntity
  8
0
  6
CONTINUOUS
 62
     7
100
AcDbLine
 10
173.580878
 20
163.276417
 30
0.0
 11
173.548952
 21
163.255822
 31
0.0
  0
LINE
  5
3E0
330
3AB
100
AcDbEntity
  8
0
  6
CONTINUOUS
 62
     7
100
AcDbLine
 10
173.548952
 20
163.255822
 30
0.0
 11
173.517617
 21
163.234461
 31
0.0
  0
LINE
  5
3E1
330
3AB
100
AcDbEntity
  8
0
  6
CONTINUOUS
 62
     7
100
AcDbLine
 10
173.517617
 20
163.234461
 30
0.0
 11
173.486905
 21
163.212417
 31
0.0
  0
LINE
  5
3E2
330
3AB
100
AcDbEntity
  8
0
  6
CONTINUOUS
 62
     7
100
AcDbLine
 10
173.486905
 20
163.212417
 30
0.0
 11
173.442741
 21
163.17877
 31
0.0
  0
LINE
  5
3E3
330
3AB
100
AcDbEntity
  8
0
  6
CONTINUOUS
 62
     7
100
AcDbLine
 10
173.442741
 20
163.17877
 30
0.0
 11
173.399914
 21
163.143897
 31
0.0
  0
LINE
  5
3E4
330
3AB
100
AcDbEntity
  8
0
  6
CONTINUOUS
 62
     7
100
AcDbLine
 10
173.399914
 20
163.143897
 30
0.0
 11
173.358336
 21
163.107878
 31
0.0
  0
LINE
  5
3E5
330
3AB
100
AcDbEntity
  8
0
  6
CONTINUOUS
 62
     7
100
AcDbLine
 10
173.358336
 20
163.107878
 30
0.0
 11
173.317917
 21
163.070796
 31
0.0
  0
LINE
  5
3E6
330
3AB
100
AcDbEntity
  8
0
  6
CONTINUOUS
 62
     7
100
AcDbLine
 10
173.317917
 20
163.070796
 30
0.0
 11
173.278568
 21
163.032732
 31
0.0
  0
LINE
  5
3E7
330
3AB
100
AcDbEntity
  8
0
  6
CONTINUOUS
 62
     7
100
AcDbLine
 10
173.278568
 20
163.032732
 30
0.0
 11
173.240199
 21
162.993768
 31
0.0
  0
LINE
  5
3E8
330
3AB
100
AcDbEntity
  8
0
  6
CONTINUOUS
 62
     7
100
AcDbLine
 10
173.240199
 20
162.993768
 30
0.0
 11
173.202722
 21
162.953986
 31
0.0
  0
LINE
  5
3E9
330
3AB
100
AcDbEntity
  8
0
  6
CONTINUOUS
 62
     7
100
AcDbLine
 10
173.202722
 20
162.953986
 30
0.0
 11
173.166048
 21
162.913468
 31
0.0
  0
LINE
  5
3EA
330
3AB
100
AcDbEntity
  8
0
  6
CONTINUOUS
 62
     7
100
AcDbLine
 10
173.166048
 20
162.913468
 30
0.0
 11
173.130086
 21
162.872295
 31
0.0
  0
LINE
  5
3EB
330
3AB
100
AcDbEntity
  8
0
  6
CONTINUOUS
 62
     7
100
AcDbLine
 10
173.130086
 20
162.872295
 30
0.0
 11
173.094749
 21
162.83055
 31
0.0
  0
LINE
  5
3EC
330
3AB
100
AcDbEntity
  8
0
  6
CONTINUOUS
 62
     7
100
AcDbLine
 10
173.094749
 20
162.83055
 30
0.0
 11
173.059947
 21
162.788314
 31
0.0
  0
LINE
  5
3ED
330
3AB
100
AcDbEntity
  8
0
  6
CONTINUOUS
 62
     7
100
AcDbLine
 10
173.059947
 20
162.788314
 30
0.0
 11
173.025591
 21
162.745669
 31
0.0
  0
LINE
  5
3EE
330
3AB
100
AcDbEntity
  8
0
  6
CONTINUOUS
 62
     7
100
AcDbLine
 10
173.025591
 20
162.745669
 30
0.0
 11
172.991591
 21
162.702697
 31
0.0
  0
LINE
  5
3EF
330
3AB
100
AcDbEntity
  8
0
  6
CONTINUOUS
 62
     7
100
AcDbLine
 10
172.991591
 20
162.702697
 30
0.0
 11
172.957859
 21
162.65948
 31
0.0
  0
LINE
  5
3F0
330
3AB
100
AcDbEntity
  8
0
  6
CONTINUOUS
 62
     7
100
AcDbLine
 10
172.957859
 20
162.65948
 30
0.0
 11
172.89084
 21
162.572635
 31
0.0
  0
ENDBLK
  5
3AD
330
3AB
100
AcDbEntity
  8
0
100
AcDbBlockEnd
  0
BLOCK
  5
40C
330
40B
100
AcDbEntity
  8
0
100
AcDbBlockBegin
  2
BLKF019
 70
     0
 71
     0
 10
0.0
 20
0.0
 30
0.0
  3
BLKF019
  1

  0
LINE
  5
40F
330
40B
100
AcDbEntity
  8
0
  6
CONTINUOUS
 62
     7
100
AcDbLine
 10
166.928744
 20
149.604691
 30
0.0
 11
167.028853
 21
149.567455
 31
0.0
  0
LINE
  5
410
330
40B
100
AcDbEntity
  8
0
  6
CONTINUOUS
 62
     7
100
AcDbLine
 10
167.028853
 20
149.567455
 30
0.0
 11
167.078935
 21
149.548923
 31
0.0
  0
LINE
  5
411
330
40B
100
AcDbEntity
  8
0
  6
CONTINUOUS
 62
     7
100
AcDbLine
 10
167.078935
 20
149.548923
 30
0.0
 11
167.129047
 21
149.530494
 31
0.0
  0
LINE
  5
412
330
40B
100
AcDbEntity
  8
0
  6
CONTINUOUS
 62
     7
100
AcDbLine
 10
167.129047
 20
149.530494
 30
0.0
 11
167.179202
 21
149.512202
 31
0.0
  0
LINE
  5
413
330
40B
100
AcDbEntity
  8
0
  6
CONTINUOUS
 62
     7
100
AcDbLine
 10
167.179202
 20
149.512202
 30
0.0
 11
167.229408
 21
149.494083
 31
0.0
  0
LINE
  5
414
330
40B
100
AcDbEntity
  8
0
  6
CONTINUOUS
 62
     7
100
AcDbLine
 10
167.229408
 20
149.494083
 30
0.0
 11
167.279678
 21
149.476169
 31
0.0
  0
LINE
  5
415
330
40B
100
AcDbEntity
  8
0
  6
CONTINUOUS
 62
     7
100
AcDbLine
 10
167.279678
 20
149.476169
 30
0.0
 11
167.330021
 21
149.458496
 31
0.0
  0
LINE
  5
416
330
40B
100
AcDbEntity
  8
0
  6
CONTINUOUS
 62
     7
100
AcDbLine
 10
167.330021
 20
149.458496
 30
0.0
 11
167.355223
 21
149.449761
 31
0.0
  0
LINE
  5
417
330
40B
100
AcDbEntity
  8
0
  6
CONTINUOUS
 62
     7
100
AcDbLine
 10
167.355223
 20
149.449761
 30
0.0
 11
167.380448
 21
149.441098
 31
0.0
  0
LINE
  5
418
330
40B
100
AcDbEntity
  8
0
  6
CONTINUOUS
 62
     7
100
AcDbLine
 10
167.380448
 20
149.441098
 30
0.0
 11
167.405696
 21
149.432513
 31
0.0
  0
LINE
  5
419
330
40B
100
AcDbEntity
  8
0
  6
CONTINUOUS
 62
     7
100
AcDbLine
 10
167.405696
 20
149.432513
 30
0.0
 11
167.430969
 21
149.42401
 31
0.0
  0
LINE
  5
41A
330
40B
100
AcDbEntity
  8
0
  6
CONTINUOUS
 62
     7
100
AcDbLine
 10
167.430969
 20
149.42401
 30
0.0
 11
167.456268
 21
149.415592
 31
0.0
  0
LINE
  5
41B
330
40B
100
AcDbEntity
  8
0
  6
CONTINUOUS
 62
     7
100
AcDbLine
 10
167.456268
 20
149.415592
 30
0.0
 11
167.481595
 21
149.407265
 31
0.0
  0
LINE
  5
41C
330
40B
100
AcDbEntity
  8
0
  6
CONTINUOUS
 62
     7
100
AcDbLine
 10
167.481595
 20
149.407265
 30
0.0
 11
167.50695
 21
149.399032
 31
0.0
  0
LINE
  5
41D
330
40B
100
AcDbEntity
  8
0
  6
CONTINUOUS
 62
     7
100
AcDbLine
 10
167.50695
 20
149.399032
 30
0.0
 11
167.532336
 21
149.390898
 31
0.0
  0
LINE
  5
41E
330
40B
100
AcDbEntity
  8
0
  6
CONTINUOUS
 62
     7
100
AcDbLine
 10
167.532336
 20
149.390898
 30
0.0
 11
167.557753
 21
149.382867
 31
0.0
  0
LINE
  5
41F
330
40B
100
AcDbEntity
  8
0
  6
CONTINUOUS
 62
     7
100
AcDbLine
 10
167.557753
 20
149.382867
 30
0.0
 11
167.583203
 21
149.374944
 31
0.0
  0
LINE
  5
420
330
40B
100
AcDbEntity
  8
0
  6
CONTINUOUS
 62
     7
100
AcDbLine
 10
167.583203
 20
149.374944
 30
0.0
 11
167.608687
 21
149.367132
 31
0.0
  0
LINE
  5
421
330
40B
100
AcDbEntity
  8
0
  6
CONTINUOUS
 62
     7
100
AcDbLine
 10
167.608687
 20
149.367132
 30
0.0
 11
167.634206
 21
149.359436
 31
0.0
  0
LINE
  5
422
330
40B
100
AcDbEntity
  8
0
  6
CONTINUOUS
 62
     7
100
AcDbLine
 10
167.634206
 20
149.359436
 30
0.0
 11
167.659762
 21
149.351861
 31
0.0
  0
LINE
  5
423
330
40B
100
AcDbEntity
  8
0
  6
CONTINUOUS
 62
     7
100
AcDbLine
 10
167.659762
 20
149.351861
 30
0.0
 11
167.685355
 21
149.34441
 31
0.0
  0
LINE
  5
424
330
40B
100
AcDbEntity
  8
0
  6
CONTINUOUS
 62
     7
100
AcDbLine
 10
167.685355
 20
149.34441
 30
0.0
 11
167.710988
 21
149.337088
 31
0.0
  0
LINE
  5
425
330
40B
100
AcDbEntity
  8
0
  6
CONTINUOUS
 62
     7
100
AcDbLine
 10
167.710988
 20
149.337088
 30
0.0
 11
167.736662
 21
149.329899
 31
0.0
  0
LINE
  5
426
330
40B
100
AcDbEntity
  8
0
  6
CONTINUOUS
 62
     7
100
AcDbLine
 10
167.736662
 20
149.329899
 30
0.0
 11
167.759965
 21
149.323497
 31
0.0
  0
LINE
  5
427
330
40B
100
AcDbEntity
  8
0
  6
CONTINUOUS
 62
     7
100
AcDbLine
 10
167.759965
 20
149.323497
 30
0.0
 11
167.783294
 21
149.31718
 31
0.0
  0
LINE
  5
428
330
40B
100
AcDbEntity
  8
0
  6
CONTINUOUS
 62
     7
100
AcDbLine
 10
167.783294
 20
149.31718
 30
0.0
 11
167.829996
 21
149.304686
 31
0.0
  0
ENDBLK
  5
40D
330
40B
100
AcDbEntity
  8
0
100
AcDbBlockEnd
  0
BLOCK
  5
42B
330
42A
100
AcDbEntity
  8
0
100
AcDbBlockBegin
  2
BLKF020
 70
     0
 71
     0
 10
0.0
 20
0.0
 30
0.0
  3
BLKF020
  1

  0
LINE
  5
42E
330
42A
100
AcDbEntity
  8
0
  6
CONTINUOUS
 62
     7
100
AcDbLine
 10
169.326657
 20
159.804685
 30
0.0
 11
169.202921
 21
159.797976
 31
0.0
  0
LINE
  5
42F
330
42A
100
AcDbEntity
  8
0
  6
CONTINUOUS
 62
     7
100
AcDbLine
 10
169.202921
 20
159.797976
 30
0.0
 11
169.141071
 21
159.794496
 31
0.0
  0
LINE
  5
430
330
42A
100
AcDbEntity
  8
0
  6
CONTINUOUS
 62
     7
100
AcDbLine
 10
169.141071
 20
159.794496
 30
0.0
 11
169.079241
 21
159.790864
 31
0.0
  0
LINE
  5
431
330
42A
100
AcDbEntity
  8
0
  6
CONTINUOUS
 62
     7
100
AcDbLine
 10
169.079241
 20
159.790864
 30
0.0
 11
169.017438
 21
159.787031
 31
0.0
  0
LINE
  5
432
330
42A
100
AcDbEntity
  8
0
  6
CONTINUOUS
 62
     7
100
AcDbLine
 10
169.017438
 20
159.787031
 30
0.0
 11
168.95567
 21
159.782946
 31
0.0
  0
LINE
  5
433
330
42A
100
AcDbEntity
  8
0
  6
CONTINUOUS
 62
     7
100
AcDbLine
 10
168.95567
 20
159.782946
 30
0.0
 11
168.893944
 21
159.778558
 31
0.0
  0
LINE
  5
434
330
42A
100
AcDbEntity
  8
0
  6
CONTINUOUS
 62
     7
100
AcDbLine
 10
168.893944
 20
159.778558
 30
0.0
 11
168.832265
 21
159.773818
 31
0.0
  0
LINE
  5
435
330
42A
100
AcDbEntity
  8
0
  6
CONTINUOUS
 62
     7
100
AcDbLine
 10
168.832265
 20
159.773818
 30
0.0
 11
168.770641
 21
159.768674
 31
0.0
  0
LINE
  5
436
330
42A
100
AcDbEntity
  8
0
  6
CONTINUOUS
 62
     7
100
AcDbLine
 10
168.770641
 20
159.768674
 30
0.0
 11
168.70908
 21
159.763076
 31
0.0
  0
LINE
  5
437
330
42A
100
AcDbEntity
  8
0
  6
CONTINUOUS
 62
     7
100
AcDbLine
 10
168.70908
 20
159.763076
 30
0.0
 11
168.647587
 21
159.756974
 31
0.0
  0
LINE
  5
438
330
42A
100
AcDbEntity
  8
0
  6
CONTINUOUS
 62
     7
100
AcDbLine
 10
168.647587
 20
159.756974
 30
0.0
 11
168.58617
 21
159.750318
 31
0.0
  0
LINE
  5
439
330
42A
100
AcDbEntity
  8
0
  6
CONTINUOUS
 62
     7
100
AcDbLine
 10
168.58617
 20
159.750318
 30
0.0
 11
168.524835
 21
159.743057
 31
0.0
  0
LINE
  5
43A
330
42A
100
AcDbEntity
  8
0
  6
CONTINUOUS
 62
     7
100
AcDbLine
 10
168.524835
 20
159.743057
 30
0.0
 11
168.46359
 21
159.735141
 31
0.0
  0
LINE
  5
43B
330
42A
100
AcDbEntity
  8
0
  6
CONTINUOUS
 62
     7
100
AcDbLine
 10
168.46359
 20
159.735141
 30
0.0
 11
168.402442
 21
159.726519
 31
0.0
  0
LINE
  5
43C
330
42A
100
AcDbEntity
  8
0
  6
CONTINUOUS
 62
     7
100
AcDbLine
 10
168.402442
 20
159.726519
 30
0.0
 11
168.341396
 21
159.717141
 31
0.0
  0
LINE
  5
43D
330
42A
100
AcDbEntity
  8
0
  6
CONTINUOUS
 62
     7
100
AcDbLine
 10
168.341396
 20
159.717141
 30
0.0
 11
168.278704
 21
159.706663
 31
0.0
  0
LINE
  5
43E
330
42A
100
AcDbEntity
  8
0
  6
CONTINUOUS
 62
     7
100
AcDbLine
 10
168.278704
 20
159.706663
 30
0.0
 11
168.216134
 21
159.695353
 31
0.0
  0
LINE
  5
43F
330
42A
100
AcDbEntity
  8
0
  6
CONTINUOUS
 62
     7
100
AcDbLine
 10
168.216134
 20
159.695353
 30
0.0
 11
168.153692
 21
159.683235
 31
0.0
  0
LINE
  5
440
330
42A
100
AcDbEntity
  8
0
  6
CONTINUOUS
 62
     7
100
AcDbLine
 10
168.153692
 20
159.683235
 30
0.0
 11
168.091384
 21
159.670331
 31
0.0
  0
LINE
  5
441
330
42A
100
AcDbEntity
  8
0
  6
CONTINUOUS
 62
     7
100
AcDbLine
 10
168.091384
 20
159.670331
 30
0.0
 11
168.029214
 21
159.656663
 31
0.0
  0
LINE
  5
442
330
42A
100
AcDbEntity
  8
0
  6
CONTINUOUS
 62
     7
100
AcDbLine
 10
168.029214
 20
159.656663
 30
0.0
 11
167.967189
 21
159.642254
 31
0.0
  0
LINE
  5
443
330
42A
100
AcDbEntity
  8
0
  6
CONTINUOUS
 62
     7
100
AcDbLine
 10
167.967189
 20
159.642254
 30
0.0
 11
167.905314
 21
159.627126
 31
0.0
  0
LINE
  5
444
330
42A
100
AcDbEntity
  8
0
  6
CONTINUOUS
 62
     7
100
AcDbLine
 10
167.905314
 20
159.627126
 30
0.0
 11
167.843596
 21
159.611301
 31
0.0
  0
LINE
  5
445
330
42A
100
AcDbEntity
  8
0
  6
CONTINUOUS
 62
     7
100
AcDbLine
 10
167.843596
 20
159.611301
 30
0.0
 11
167.782038
 21
159.594804
 31
0.0
  0
LINE
  5
446
330
42A
100
AcDbEntity
  8
0
  6
CONTINUOUS
 62
     7
100
AcDbLine
 10
167.782038
 20
159.594804
 30
0.0
 11
167.720648
 21
159.577655
 31
0.0
  0
LINE
  5
447
330
42A
100
AcDbEntity
  8
0
  6
CONTINUOUS
 62
     7
100
AcDbLine
 10
167.720648
 20
159.577655
 30
0.0
 11
167.659431
 21
159.559877
 31
0.0
  0
LINE
  5
448
330
42A
100
AcDbEntity
  8
0
  6
CONTINUOUS
 62
     7
100
AcDbLine
 10
167.659431
 20
159.559877
 30
0.0
 11
167.598392
 21
159.541493
 31
0.0
  0
LINE
  5
449
330
42A
100
AcDbEntity
  8
0
  6
CONTINUOUS
 62
     7
100
AcDbLine
 10
167.598392
 20
159.541493
 30
0.0
 11
167.537536
 21
159.522525
 31
0.0
  0
LINE
  5
44A
330
42A
100
AcDbEntity
  8
0
  6
CONTINUOUS
 62
     7
100
AcDbLine
 10
167.537536
 20
159.522525
 30
0.0
 11
167.476871
 21
159.502997
 31
0.0
  0
LINE
  5
44B
330
42A
100
AcDbEntity
  8
0
  6
CONTINUOUS
 62
     7
100
AcDbLine
 10
167.476871
 20
159.502997
 30
0.0
 11
167.416401
 21
159.482929
 31
0.0
  0
LINE
  5
44C
330
42A
100
AcDbEntity
  8
0
  6
CONTINUOUS
 62
     7
100
AcDbLine
 10
167.416401
 20
159.482929
 30
0.0
 11
167.356131
 21
159.462346
 31
0.0
  0
LINE
  5
44D
330
42A
100
AcDbEntity
  8
0
  6
CONTINUOUS
 62
     7
100
AcDbLine
 10
167.356131
 20
159.462346
 30
0.0
 11
167.302346
 21
159.443504
 31
0.0
  0
LINE
  5
44E
330
42A
100
AcDbEntity
  8
0
  6
CONTINUOUS
 62
     7
100
AcDbLine
 10
167.302346
 20
159.443504
 30
0.0
 11
167.248705
 21
159.424317
 31
0.0
  0
LINE
  5
44F
330
42A
100
AcDbEntity
  8
0
  6
CONTINUOUS
 62
     7
100
AcDbLine
 10
167.248705
 20
159.424317
 30
0.0
 11
167.195189
 21
159.404833
 31
0.0
  0
LINE
  5
450
330
42A
100
AcDbEntity
  8
0
  6
CONTINUOUS
 62
     7
100
AcDbLine
 10
167.195189
 20
159.404833
 30
0.0
 11
167.141775
 21
159.385101
 31
0.0
  0
LINE
  5
451
330
42A
100
AcDbEntity
  8
0
  6
CONTINUOUS
 62
     7
100
AcDbLine
 10
167.141775
 20
159.385101
 30
0.0
 11
167.088445
 21
159.365172
 31
0.0
  0
LINE
  5
452
330
42A
100
AcDbEntity
  8
0
  6
CONTINUOUS
 62
     7
100
AcDbLine
 10
167.088445
 20
159.365172
 30
0.0
 11
167.035177
 21
159.345094
 31
0.0
  0
LINE
  5
453
330
42A
100
AcDbEntity
  8
0
  6
CONTINUOUS
 62
     7
100
AcDbLine
 10
167.035177
 20
159.345094
 30
0.0
 11
166.928744
 21
159.304691
 31
0.0
  0
ENDBLK
  5
42C
330
42A
100
AcDbEntity
  8
0
100
AcDbBlockEnd
  0
BLOCK
  5
455
330
454
100
AcDbEntity
  8
0
100
AcDbBlockBegin
  2
BLKF021
 70
     0
 71
     0
 10
0.0
 20
0.0
 30
0.0
  3
BLKF021
  1

  0
LINE
  5
458
330
454
100
AcDbEntity
  8
0
  6
CONTINUOUS
 62
     7
100
AcDbLine
 10
171.724574
 20
159.304691
 30
0.0
 11
171.581703
 21
159.356708
 31
0.0
  0
LINE
  5
459
330
454
100
AcDbEntity
  8
0
  6
CONTINUOUS
 62
     7
100
AcDbLine
 10
171.581703
 20
159.356708
 30
0.0
 11
171.438694
 21
159.40807
 31
0.0
  0
LINE
  5
45A
330
454
100
AcDbEntity
  8
0
  6
CONTINUOUS
 62
     7
100
AcDbLine
 10
171.438694
 20
159.40807
 30
0.0
 11
171.367095
 21
159.433302
 31
0.0
  0
LINE
  5
45B
330
454
100
AcDbEntity
  8
0
  6
CONTINUOUS
 62
     7
100
AcDbLine
 10
171.367095
 20
159.433302
 30
0.0
 11
171.295411
 21
159.458125
 31
0.0
  0
LINE
  5
45C
330
454
100
AcDbEntity
  8
0
  6
CONTINUOUS
 62
     7
100
AcDbLine
 10
171.295411
 20
159.458125
 30
0.0
 11
171.223623
 21
159.482457
 31
0.0
  0
LINE
  5
45D
330
454
100
AcDbEntity
  8
0
  6
CONTINUOUS
 62
     7
100
AcDbLine
 10
171.223623
 20
159.482457
 30
0.0
 11
171.151715
 21
159.506217
 31
0.0
  0
LINE
  5
45E
330
454
100
AcDbEntity
  8
0
  6
CONTINUOUS
 62
     7
100
AcDbLine
 10
171.151715
 20
159.506217
 30
0.0
 11
171.079669
 21
159.529324
 31
0.0
  0
LINE
  5
45F
330
454
100
AcDbEntity
  8
0
  6
CONTINUOUS
 62
     7
100
AcDbLine
 10
171.079669
 20
159.529324
 30
0.0
 11
171.007469
 21
159.551695
 31
0.0
  0
LINE
  5
460
330
454
100
AcDbEntity
  8
0
  6
CONTINUOUS
 62
     7
100
AcDbLine
 10
171.007469
 20
159.551695
 30
0.0
 11
170.935097
 21
159.573249
 31
0.0
  0
LINE
  5
461
330
454
100
AcDbEntity
  8
0
  6
CONTINUOUS
 62
     7
100
AcDbLine
 10
170.935097
 20
159.573249
 30
0.0
 11
170.862536
 21
159.593903
 31
0.0
  0
LINE
  5
462
330
454
100
AcDbEntity
  8
0
  6
CONTINUOUS
 62
     7
100
AcDbLine
 10
170.862536
 20
159.593903
 30
0.0
 11
170.789769
 21
159.613577
 31
0.0
  0
LINE
  5
463
330
454
100
AcDbEntity
  8
0
  6
CONTINUOUS
 62
     7
100
AcDbLine
 10
170.789769
 20
159.613577
 30
0.0
 11
170.716778
 21
159.632188
 31
0.0
  0
LINE
  5
464
330
454
100
AcDbEntity
  8
0
  6
CONTINUOUS
 62
     7
100
AcDbLine
 10
170.716778
 20
159.632188
 30
0.0
 11
170.643547
 21
159.649655
 31
0.0
  0
LINE
  5
465
330
454
100
AcDbEntity
  8
0
  6
CONTINUOUS
 62
     7
100
AcDbLine
 10
170.643547
 20
159.649655
 30
0.0
 11
170.570058
 21
159.665896
 31
0.0
  0
LINE
  5
466
330
454
100
AcDbEntity
  8
0
  6
CONTINUOUS
 62
     7
100
AcDbLine
 10
170.570058
 20
159.665896
 30
0.0
 11
170.49377
 21
159.681346
 31
0.0
  0
LINE
  5
467
330
454
100
AcDbEntity
  8
0
  6
CONTINUOUS
 62
     7
100
AcDbLine
 10
170.49377
 20
159.681346
 30
0.0
 11
170.417206
 21
159.695484
 31
0.0
  0
LINE
  5
468
330
454
100
AcDbEntity
  8
0
  6
CONTINUOUS
 62
     7
100
AcDbLine
 10
170.417206
 20
159.695484
 30
0.0
 11
170.340385
 21
159.708399
 31
0.0
  0
LINE
  5
469
330
454
100
AcDbEntity
  8
0
  6
CONTINUOUS
 62
     7
100
AcDbLine
 10
170.340385
 20
159.708399
 30
0.0
 11
170.263325
 21
159.720177
 31
0.0
  0
LINE
  5
46A
330
454
100
AcDbEntity
  8
0
  6
CONTINUOUS
 62
     7
100
AcDbLine
 10
170.263325
 20
159.720177
 30
0.0
 11
170.186044
 21
159.730906
 31
0.0
  0
LINE
  5
46B
330
454
100
AcDbEntity
  8
0
  6
CONTINUOUS
 62
     7
100
AcDbLine
 10
170.186044
 20
159.730906
 30
0.0
 11
170.108561
 21
159.740673
 31
0.0
  0
LINE
  5
46C
330
454
100
AcDbEntity
  8
0
  6
CONTINUOUS
 62
     7
100
AcDbLine
 10
170.108561
 20
159.740673
 30
0.0
 11
170.030894
 21
159.749566
 31
0.0
  0
LINE
  5
46D
330
454
100
AcDbEntity
  8
0
  6
CONTINUOUS
 62
     7
100
AcDbLine
 10
170.030894
 20
159.749566
 30
0.0
 11
169.953062
 21
159.757672
 31
0.0
  0
LINE
  5
46E
330
454
100
AcDbEntity
  8
0
  6
CONTINUOUS
 62
     7
100
AcDbLine
 10
169.953062
 20
159.757672
 30
0.0
 11
169.875083
 21
159.765078
 31
0.0
  0
LINE
  5
46F
330
454
100
AcDbEntity
  8
0
  6
CONTINUOUS
 62
     7
100
AcDbLine
 10
169.875083
 20
159.765078
 30
0.0
 11
169.796976
 21
159.771873
 31
0.0
  0
LINE
  5
470
330
454
100
AcDbEntity
  8
0
  6
CONTINUOUS
 62
     7
100
AcDbLine
 10
169.796976
 20
159.771873
 30
0.0
 11
169.718758
 21
159.778143
 31
0.0
  0
LINE
  5
471
330
454
100
AcDbEntity
  8
0
  6
CONTINUOUS
 62
     7
100
AcDbLine
 10
169.718758
 20
159.778143
 30
0.0
 11
169.640448
 21
159.783976
 31
0.0
  0
LINE
  5
472
330
454
100
AcDbEntity
  8
0
  6
CONTINUOUS
 62
     7
100
AcDbLine
 10
169.640448
 20
159.783976
 30
0.0
 11
169.483626
 21
159.79468
 31
0.0
  0
LINE
  5
473
330
454
100
AcDbEntity
  8
0
  6
CONTINUOUS
 62
     7
100
AcDbLine
 10
169.483626
 20
159.79468
 30
0.0
 11
169.326657
 21
159.804685
 31
0.0
  0
ENDBLK
  5
456
330
454
100
AcDbEntity
  8
0
100
AcDbBlockEnd
  0
BLOCK
  5
477
330
476
100
AcDbEntity
  8
0
100
AcDbBlockBegin
  2
BLKF022
 70
     0
 71
     0
 10
0.0
 20
0.0
 30
0.0
  3
BLKF022
  1

  0
LINE
  5
47A
330
476
100
AcDbEntity
  8
0
  6
CONTINUOUS
 62
     7
100
AcDbLine
 10
165.762478
 20
159.304691
 30
0.0
 11
165.693097
 21
159.356608
 31
0.0
  0
LINE
  5
47B
330
476
100
AcDbEntity
  8
0
  6
CONTINUOUS
 62
     7
100
AcDbLine
 10
165.693097
 20
159.356608
 30
0.0
 11
165.623451
 21
159.407879
 31
0.0
  0
LINE
  5
47C
330
476
100
AcDbEntity
  8
0
  6
CONTINUOUS
 62
     7
100
AcDbLine
 10
165.623451
 20
159.407879
 30
0.0
 11
165.588446
 21
159.433072
 31
0.0
  0
LINE
  5
47D
330
476
100
AcDbEntity
  8
0
  6
CONTINUOUS
 62
     7
100
AcDbLine
 10
165.588446
 20
159.433072
 30
0.0
 11
165.553276
 21
159.457863
 31
0.0
  0
LINE
  5
47E
330
476
100
AcDbEntity
  8
0
  6
CONTINUOUS
 62
     7
100
AcDbLine
 10
165.553276
 20
159.457863
 30
0.0
 11
165.517908
 21
159.482169
 31
0.0
  0
LINE
  5
47F
330
476
100
AcDbEntity
  8
0
  6
CONTINUOUS
 62
     7
100
AcDbLine
 10
165.517908
 20
159.482169
 30
0.0
 11
165.482309
 21
159.505913
 31
0.0
  0
LINE
  5
480
330
476
100
AcDbEntity
  8
0
  6
CONTINUOUS
 62
     7
100
AcDbLine
 10
165.482309
 20
159.505913
 30
0.0
 11
165.446445
 21
159.529011
 31
0.0
  0
LINE
  5
481
330
476
100
AcDbEntity
  8
0
  6
CONTINUOUS
 62
     7
100
AcDbLine
 10
165.446445
 20
159.529011
 30
0.0
 11
165.410283
 21
159.551385
 31
0.0
  0
LINE
  5
482
330
476
100
AcDbEntity
  8
0
  6
CONTINUOUS
 62
     7
100
AcDbLine
 10
165.410283
 20
159.551385
 30
0.0
 11
165.373792
 21
159.572954
 31
0.0
  0
LINE
  5
483
330
476
100
AcDbEntity
  8
0
  6
CONTINUOUS
 62
     7
100
AcDbLine
 10
165.373792
 20
159.572954
 30
0.0
 11
165.336936
 21
159.593636
 31
0.0
  0
LINE
  5
484
330
476
100
AcDbEntity
  8
0
  6
CONTINUOUS
 62
     7
100
AcDbLine
 10
165.336936
 20
159.593636
 30
0.0
 11
165.299684
 21
159.613352
 31
0.0
  0
LINE
  5
485
330
476
100
AcDbEntity
  8
0
  6
CONTINUOUS
 62
     7
100
AcDbLine
 10
165.299684
 20
159.613352
 30
0.0
 11
165.262003
 21
159.632021
 31
0.0
  0
LINE
  5
486
330
476
100
AcDbEntity
  8
0
  6
CONTINUOUS
 62
     7
100
AcDbLine
 10
165.262003
 20
159.632021
 30
0.0
 11
165.223858
 21
159.649562
 31
0.0
  0
LINE
  5
487
330
476
100
AcDbEntity
  8
0
  6
CONTINUOUS
 62
     7
100
AcDbLine
 10
165.223858
 20
159.649562
 30
0.0
 11
165.185218
 21
159.665896
 31
0.0
  0
LINE
  5
488
330
476
100
AcDbEntity
  8
0
  6
CONTINUOUS
 62
     7
100
AcDbLine
 10
165.185218
 20
159.665896
 30
0.0
 11
165.148603
 21
159.680032
 31
0.0
  0
LINE
  5
489
330
476
100
AcDbEntity
  8
0
  6
CONTINUOUS
 62
     7
100
AcDbLine
 10
165.148603
 20
159.680032
 30
0.0
 11
165.111555
 21
159.693112
 31
0.0
  0
LINE
  5
48A
330
476
100
AcDbEntity
  8
0
  6
CONTINUOUS
 62
     7
100
AcDbLine
 10
165.111555
 20
159.693112
 30
0.0
 11
165.074101
 21
159.705204
 31
0.0
  0
LINE
  5
48B
330
476
100
AcDbEntity
  8
0
  6
CONTINUOUS
 62
     7
100
AcDbLine
 10
165.074101
 20
159.705204
 30
0.0
 11
165.036272
 21
159.716381
 31
0.0
  0
LINE
  5
48C
330
476
100
AcDbEntity
  8
0
  6
CONTINUOUS
 62
     7
100
AcDbLine
 10
165.036272
 20
159.716381
 30
0.0
 11
164.998095
 21
159.726712
 31
0.0
  0
LINE
  5
48D
330
476
100
AcDbEntity
  8
0
  6
CONTINUOUS
 62
     7
100
AcDbLine
 10
164.998095
 20
159.726712
 30
0.0
 11
164.959601
 21
159.736267
 31
0.0
  0
LINE
  5
48E
330
476
100
AcDbEntity
  8
0
  6
CONTINUOUS
 62
     7
100
AcDbLine
 10
164.959601
 20
159.736267
 30
0.0
 11
164.920817
 21
159.745117
 31
0.0
  0
LINE
  5
48F
330
476
100
AcDbEntity
  8
0
  6
CONTINUOUS
 62
     7
100
AcDbLine
 10
164.920817
 20
159.745117
 30
0.0
 11
164.881773
 21
159.753334
 31
0.0
  0
LINE
  5
490
330
476
100
AcDbEntity
  8
0
  6
CONTINUOUS
 62
     7
100
AcDbLine
 10
164.881773
 20
159.753334
 30
0.0
 11
164.842497
 21
159.760986
 31
0.0
  0
LINE
  5
491
330
476
100
AcDbEntity
  8
0
  6
CONTINUOUS
 62
     7
100
AcDbLine
 10
164.842497
 20
159.760986
 30
0.0
 11
164.803019
 21
159.768145
 31
0.0
  0
LINE
  5
492
330
476
100
AcDbEntity
  8
0
  6
CONTINUOUS
 62
     7
100
AcDbLine
 10
164.803019
 20
159.768145
 30
0.0
 11
164.763368
 21
159.774881
 31
0.0
  0
LINE
  5
493
330
476
100
AcDbEntity
  8
0
  6
CONTINUOUS
 62
     7
100
AcDbLine
 10
164.763368
 20
159.774881
 30
0.0
 11
164.723571
 21
159.781265
 31
0.0
  0
LINE
  5
494
330
476
100
AcDbEntity
  8
0
  6
CONTINUOUS
 62
     7
100
AcDbLine
 10
164.723571
 20
159.781265
 30
0.0
 11
164.643661
 21
159.793257
 31
0.0
  0
LINE
  5
495
330
476
100
AcDbEntity
  8
0
  6
CONTINUOUS
 62
     7
100
AcDbLine
 10
164.643661
 20
159.793257
 30
0.0
 11
164.563519
 21
159.804685
 31
0.0
  0
ENDBLK
  5
478
330
476
100
AcDbEntity
  8
0
100
AcDbBlockEnd
  0
BLOCK
  5
498
330
497
100
AcDbEntity
  8
0
100
AcDbBlockBegin
  2
BLKF023
 70
     0
 71
     0
 10
0.0
 20
0.0
 30
0.0
  3
BLKF023
  1

  0
LINE
  5
49B
330
497
100
AcDbEntity
  8
0
  6
CONTINUOUS
 62
     7
100
AcDbLine
 10
174.089798
 20
159.804685
 30
0.0
 11
174.027128
 21
159.797572
 31
0.0
  0
LINE
  5
49C
330
497
100
AcDbEntity
  8
0
  6
CONTINUOUS
 62
     7
100
AcDbLine
 10
174.027128
 20
159.797572
 30
0.0
 11
173.964561
 21
159.790095
 31
0.0
  0
LINE
  5
49D
330
497
100
AcDbEntity
  8
0
  6
CONTINUOUS
 62
     7
100
AcDbLine
 10
173.964561
 20
159.790095
 30
0.0
 11
173.93335
 21
159.786105
 31
0.0
  0
LINE
  5
49E
330
497
100
AcDbEntity
  8
0
  6
CONTINUOUS
 62
     7
100
AcDbLine
 10
173.93335
 20
159.786105
 30
0.0
 11
173.902203
 21
159.781888
 31
0.0
  0
LINE
  5
49F
330
497
100
AcDbEntity
  8
0
  6
CONTINUOUS
 62
     7
100
AcDbLine
 10
173.902203
 20
159.781888
 30
0.0
 11
173.871134
 21
159.777397
 31
0.0
  0
LINE
  5
4A0
330
497
100
AcDbEntity
  8
0
  6
CONTINUOUS
 62
     7
100
AcDbLine
 10
173.871134
 20
159.777397
 30
0.0
 11
173.840156
 21
159.772586
 31
0.0
  0
LINE
  5
4A1
330
497
100
AcDbEntity
  8
0
  6
CONTINUOUS
 62
     7
100
AcDbLine
 10
173.840156
 20
159.772586
 30
0.0
 11
173.809282
 21
159.767411
 31
0.0
  0
LINE
  5
4A2
330
497
100
AcDbEntity
  8
0
  6
CONTINUOUS
 62
     7
100
AcDbLine
 10
173.809282
 20
159.767411
 30
0.0
 11
173.778525
 21
159.761826
 31
0.0
  0
LINE
  5
4A3
330
497
100
AcDbEntity
  8
0
  6
CONTINUOUS
 62
     7
100
AcDbLine
 10
173.778525
 20
159.761826
 30
0.0
 11
173.747898
 21
159.755784
 31
0.0
  0
LINE
  5
4A4
330
497
100
AcDbEntity
  8
0
  6
CONTINUOUS
 62
     7
100
AcDbLine
 10
173.747898
 20
159.755784
 30
0.0
 11
173.717414
 21
159.749241
 31
0.0
  0
LINE
  5
4A5
330
497
100
AcDbEntity
  8
0
  6
CONTINUOUS
 62
     7
100
AcDbLine
 10
173.717414
 20
159.749241
 30
0.0
 11
173.687086
 21
159.742151
 31
0.0
  0
LINE
  5
4A6
330
497
100
AcDbEntity
  8
0
  6
CONTINUOUS
 62
     7
100
AcDbLine
 10
173.687086
 20
159.742151
 30
0.0
 11
173.656926
 21
159.734468
 31
0.0
  0
LINE
  5
4A7
330
497
100
AcDbEntity
  8
0
  6
CONTINUOUS
 62
     7
100
AcDbLine
 10
173.656926
 20
159.734468
 30
0.0
 11
173.626949
 21
159.726146
 31
0.0
  0
LINE
  5
4A8
330
497
100
AcDbEntity
  8
0
  6
CONTINUOUS
 62
     7
100
AcDbLine
 10
173.626949
 20
159.726146
 30
0.0
 11
173.597166
 21
159.717141
 31
0.0
  0
LINE
  5
4A9
330
497
100
AcDbEntity
  8
0
  6
CONTINUOUS
 62
     7
100
AcDbLine
 10
173.597166
 20
159.717141
 30
0.0
 11
173.564394
 21
159.706321
 31
0.0
  0
LINE
  5
4AA
330
497
100
AcDbEntity
  8
0
  6
CONTINUOUS
 62
     7
100
AcDbLine
 10
173.564394
 20
159.706321
 30
0.0
 11
173.531878
 21
159.694642
 31
0.0
  0
LINE
  5
4AB
330
497
100
AcDbEntity
  8
0
  6
CONTINUOUS
 62
     7
100
AcDbLine
 10
173.531878
 20
159.694642
 30
0.0
 11
173.499621
 21
159.682144
 31
0.0
  0
LINE
  5
4AC
330
497
100
AcDbEntity
  8
0
  6
CONTINUOUS
 62
     7
100
AcDbLine
 10
173.499621
 20
159.682144
 30
0.0
 11
173.467625
 21
159.668863
 31
0.0
  0
LINE
  5
4AD
330
497
100
AcDbEntity
  8
0
  6
CONTINUOUS
 62
     7
100
AcDbLine
 10
173.467625
 20
159.668863
 30
0.0
 11
173.43589
 21
159.654838
 31
0.0
  0
LINE
  5
4AE
330
497
100
AcDbEntity
  8
0
  6
CONTINUOUS
 62
     7
100
AcDbLine
 10
173.43589
 20
159.654838
 30
0.0
 11
173.404418
 21
159.640107
 31
0.0
  0
LINE
  5
4AF
330
497
100
AcDbEntity
  8
0
  6
CONTINUOUS
 62
     7
100
AcDbLine
 10
173.404418
 20
159.640107
 30
0.0
 11
173.373211
 21
159.624708
 31
0.0
  0
LINE
  5
4B0
330
497
100
AcDbEntity
  8
0
  6
CONTINUOUS
 62
     7
100
AcDbLine
 10
173.373211
 20
159.624708
 30
0.0
 11
173.342271
 21
159.608679
 31
0.0
  0
LINE
  5
4B1
330
497
100
AcDbEntity
  8
0
  6
CONTINUOUS
 62
     7
100
AcDbLine
 10
173.342271
 20
159.608679
 30
0.0
 11
173.311599
 21
159.592059
 31
0.0
  0
LINE
  5
4B2
330
497
100
AcDbEntity
  8
0
  6
CONTINUOUS
 62
     7
100
AcDbLine
 10
173.311599
 20
159.592059
 30
0.0
 11
173.281197
 21
159.574885
 31
0.0
  0
LINE
  5
4B3
330
497
100
AcDbEntity
  8
0
  6
CONTINUOUS
 62
     7
100
AcDbLine
 10
173.281197
 20
159.574885
 30
0.0
 11
173.251065
 21
159.557195
 31
0.0
  0
LINE
  5
4B4
330
497
100
AcDbEntity
  8
0
  6
CONTINUOUS
 62
     7
100
AcDbLine
 10
173.251065
 20
159.557195
 30
0.0
 11
173.221207
 21
159.539028
 31
0.0
  0
LINE
  5
4B5
330
497
100
AcDbEntity
  8
0
  6
CONTINUOUS
 62
     7
100
AcDbLine
 10
173.221207
 20
159.539028
 30
0.0
 11
173.191623
 21
159.520421
 31
0.0
  0
LINE
  5
4B6
330
497
100
AcDbEntity
  8
0
  6
CONTINUOUS
 62
     7
100
AcDbLine
 10
173.191623
 20
159.520421
 30
0.0
 11
173.162315
 21
159.501413
 31
0.0
  0
LINE
  5
4B7
330
497
100
AcDbEntity
  8
0
  6
CONTINUOUS
 62
     7
100
AcDbLine
 10
173.162315
 20
159.501413
 30
0.0
 11
173.133285
 21
159.482042
 31
0.0
  0
LINE
  5
4B8
330
497
100
AcDbEntity
  8
0
  6
CONTINUOUS
 62
     7
100
AcDbLine
 10
173.133285
 20
159.482042
 30
0.0
 11
173.104534
 21
159.462346
 31
0.0
  0
LINE
  5
4B9
330
497
100
AcDbEntity
  8
0
  6
CONTINUOUS
 62
     7
100
AcDbLine
 10
173.104534
 20
159.462346
 30
0.0
 11
173.077259
 21
159.443215
 31
0.0
  0
LINE
  5
4BA
330
497
100
AcDbEntity
  8
0
  6
CONTINUOUS
 62
     7
100
AcDbLine
 10
173.077259
 20
159.443215
 30
0.0
 11
173.050209
 21
159.423854
 31
0.0
  0
LINE
  5
4BB
330
497
100
AcDbEntity
  8
0
  6
CONTINUOUS
 62
     7
100
AcDbLine
 10
173.050209
 20
159.423854
 30
0.0
 11
173.023352
 21
159.404295
 31
0.0
  0
LINE
  5
4BC
330
497
100
AcDbEntity
  8
0
  6
CONTINUOUS
 62
     7
100
AcDbLine
 10
173.023352
 20
159.404295
 30
0.0
 11
172.996657
 21
159.384572
 31
0.0
  0
LINE
  5
4BD
330
497
100
AcDbEntity
  8
0
  6
CONTINUOUS
 62
     7
100
AcDbLine
 10
172.996657
 20
159.384572
 30
0.0
 11
172.94362
 21
159.344763
 31
0.0
  0
LINE
  5
4BE
330
497
100
AcDbEntity
  8
0
  6
CONTINUOUS
 62
     7
100
AcDbLine
 10
172.94362
 20
159.344763
 30
0.0
 11
172.89084
 21
159.304691
 31
0.0
  0
ENDBLK
  5
499
330
497
100
AcDbEntity
  8
0
100
AcDbBlockEnd
  0
BLOCK
  5
4C4
330
4C3
100
AcDbEntity
  8
0
100
AcDbBlockBegin
  2
BLKF024
 70
     0
 71
     0
 10
0.0
 20
0.0
 30
0.0
  3
BLKF024
  1

  0
LINE
  5
4C7
330
4C3
100
AcDbEntity
  8
0
  6
CONTINUOUS
 62
     7
100
AcDbLine
 10
172.89084
 20
149.604691
 30
0.0
 11
172.939898
 21
149.56798
 31
0.0
  0
LINE
  5
4C8
330
4C3
100
AcDbEntity
  8
0
  6
CONTINUOUS
 62
     7
100
AcDbLine
 10
172.939898
 20
149.56798
 30
0.0
 11
172.96447
 21
149.549695
 31
0.0
  0
LINE
  5
4C9
330
4C3
100
AcDbEntity
  8
0
  6
CONTINUOUS
 62
     7
100
AcDbLine
 10
172.96447
 20
149.549695
 30
0.0
 11
172.989094
 21
149.531494
 31
0.0
  0
LINE
  5
4CA
330
4C3
100
AcDbEntity
  8
0
  6
CONTINUOUS
 62
     7
100
AcDbLine
 10
172.989094
 20
149.531494
 30
0.0
 11
173.013785
 21
149.513406
 31
0.0
  0
LINE
  5
4CB
330
4C3
100
AcDbEntity
  8
0
  6
CONTINUOUS
 62
     7
100
AcDbLine
 10
173.013785
 20
149.513406
 30
0.0
 11
173.038563
 21
149.495458
 31
0.0
  0
LINE
  5
4CC
330
4C3
100
AcDbEntity
  8
0
  6
CONTINUOUS
 62
     7
100
AcDbLine
 10
173.038563
 20
149.495458
 30
0.0
 11
173.063442
 21
149.477679
 31
0.0
  0
LINE
  5
4CD
330
4C3
100
AcDbEntity
  8
0
  6
CONTINUOUS
 62
     7
100
AcDbLine
 10
173.063442
 20
149.477679
 30
0.0
 11
173.088442
 21
149.460096
 31
0.0
  0
LINE
  5
4CE
330
4C3
100
AcDbEntity
  8
0
  6
CONTINUOUS
 62
     7
100
AcDbLine
 10
173.088442
 20
149.460096
 30
0.0
 11
173.100992
 21
149.451388
 31
0.0
  0
LINE
  5
4CF
330
4C3
100
AcDbEntity
  8
0
  6
CONTINUOUS
 62
     7
100
AcDbLine
 10
173.100992
 20
149.451388
 30
0.0
 11
173.113578
 21
149.442739
 31
0.0
  0
LINE
  5
4D0
330
4C3
100
AcDbEntity
  8
0
  6
CONTINUOUS
 62
     7
100
AcDbLine
 10
173.113578
 20
149.442739
 30
0.0
 11
173.126203
 21
149.434154
 31
0.0
  0
LINE
  5
4D1
330
4C3
100
AcDbEntity
  8
0
  6
CONTINUOUS
 62
     7
100
AcDbLine
 10
173.126203
 20
149.434154
 30
0.0
 11
173.138868
 21
149.425635
 31
0.0
  0
LINE
  5
4D2
330
4C3
100
AcDbEntity
  8
0
  6
CONTINUOUS
 62
     7
100
AcDbLine
 10
173.138868
 20
149.425635
 30
0.0
 11
173.151577
 21
149.417186
 31
0.0
  0
LINE
  5
4D3
330
4C3
100
AcDbEntity
  8
0
  6
CONTINUOUS
 62
     7
100
AcDbLine
 10
173.151577
 20
149.417186
 30
0.0
 11
173.16433
 21
149.408812
 31
0.0
  0
LINE
  5
4D4
330
4C3
100
AcDbEntity
  8
0
  6
CONTINUOUS
 62
     7
100
AcDbLine
 10
173.16433
 20
149.408812
 30
0.0
 11
173.17713
 21
149.400515
 31
0.0
  0
LINE
  5
4D5
330
4C3
100
AcDbEntity
  8
0
  6
CONTINUOUS
 62
     7
100
AcDbLine
 10
173.17713
 20
149.400515
 30
0.0
 11
173.189979
 21
149.392298
 31
0.0
  0
LINE
  5
4D6
330
4C3
100
AcDbEntity
  8
0
  6
CONTINUOUS
 62
     7
100
AcDbLine
 10
173.189979
 20
149.392298
 30
0.0
 11
173.202879
 21
149.384166
 31
0.0
  0
LINE
  5
4D7
330
4C3
100
AcDbEntity
  8
0
  6
CONTINUOUS
 62
     7
100
AcDbLine
 10
173.202879
 20
149.384166
 30
0.0
 11
173.215833
 21
149.376122
 31
0.0
  0
LINE
  5
4D8
330
4C3
100
AcDbEntity
  8
0
  6
CONTINUOUS
 62
     7
100
AcDbLine
 10
173.215833
 20
149.376122
 30
0.0
 11
173.228843
 21
149.368169
 31
0.0
  0
LINE
  5
4D9
330
4C3
100
AcDbEntity
  8
0
  6
CONTINUOUS
 62
     7
100
AcDbLine
 10
173.228843
 20
149.368169
 30
0.0
 11
173.24191
 21
149.360311
 31
0.0
  0
LINE
  5
4DA
330
4C3
100
AcDbEntity
  8
0
  6
CONTINUOUS
 62
     7
100
AcDbLine
 10
173.24191
 20
149.360311
 30
0.0
 11
173.255037
 21
149.352552
 31
0.0
  0
LINE
  5
4DB
330
4C3
100
AcDbEntity
  8
0
  6
CONTINUOUS
 62
     7
100
AcDbLine
 10
173.255037
 20
149.352552
 30
0.0
 11
173.268226
 21
149.344894
 31
0.0
  0
LINE
  5
4DC
330
4C3
100
AcDbEntity
  8
0
  6
CONTINUOUS
 62
     7
100
AcDbLine
 10
173.268226
 20
149.344894
 30
0.0
 11
173.28148
 21
149.337342
 31
0.0
  0
LINE
  5
4DD
330
4C3
100
AcDbEntity
  8
0
  6
CONTINUOUS
 62
     7
100
AcDbLine
 10
173.28148
 20
149.337342
 30
0.0
 11
173.294799
 21
149.329899
 31
0.0
  0
LINE
  5
4DE
330
4C3
100
AcDbEntity
  8
0
  6
CONTINUOUS
 62
     7
100
AcDbLine
 10
173.294799
 20
149.329899
 30
0.0
 11
173.318081
 21
149.317208
 31
0.0
  0
LINE
  5
4DF
330
4C3
100
AcDbEntity
  8
0
  6
CONTINUOUS
 62
     7
100
AcDbLine
 10
173.318081
 20
149.317208
 30
0.0
 11
173.341466
 21
149.304686
 31
0.0
  0
ENDBLK
  5
4C5
330
4C3
100
AcDbEntity
  8
0
100
AcDbBlockEnd
  0
BLOCK
  5
4E6
330
4E5
100
AcDbEntity
  8
0
100
AcDbBlockBegin
  2
BLKF025
 70
     0
 71
     0
 10
0.0
 20
0.0
 30
0.0
  3
BLKF025
  1

  0
LINE
  5
4E9
330
4E5
100
AcDbEntity
  8
0
  6
CONTINUOUS
 62
     7
100
AcDbLine
 10
164.563519
 20
159.804685
 30
0.0
 11
164.500849
 21
159.797572
 31
0.0
  0
LINE
  5
4EA
330
4E5
100
AcDbEntity
  8
0
  6
CONTINUOUS
 62
     7
100
AcDbLine
 10
164.500849
 20
159.797572
 30
0.0
 11
164.438283
 21
159.790095
 31
0.0
  0
LINE
  5
4EB
330
4E5
100
AcDbEntity
  8
0
  6
CONTINUOUS
 62
     7
100
AcDbLine
 10
164.438283
 20
159.790095
 30
0.0
 11
164.407071
 21
159.786105
 31
0.0
  0
LINE
  5
4EC
330
4E5
100
AcDbEntity
  8
0
  6
CONTINUOUS
 62
     7
100
AcDbLine
 10
164.407071
 20
159.786105
 30
0.0
 11
164.375924
 21
159.781888
 31
0.0
  0
LINE
  5
4ED
330
4E5
100
AcDbEntity
  8
0
  6
CONTINUOUS
 62
     7
100
AcDbLine
 10
164.375924
 20
159.781888
 30
0.0
 11
164.344855
 21
159.777397
 31
0.0
  0
LINE
  5
4EE
330
4E5
100
AcDbEntity
  8
0
  6
CONTINUOUS
 62
     7
100
AcDbLine
 10
164.344855
 20
159.777397
 30
0.0
 11
164.313877
 21
159.772586
 31
0.0
  0
LINE
  5
4EF
330
4E5
100
AcDbEntity
  8
0
  6
CONTINUOUS
 62
     7
100
AcDbLine
 10
164.313877
 20
159.772586
 30
0.0
 11
164.283003
 21
159.767411
 31
0.0
  0
LINE
  5
4F0
330
4E5
100
AcDbEntity
  8
0
  6
CONTINUOUS
 62
     7
100
AcDbLine
 10
164.283003
 20
159.767411
 30
0.0
 11
164.252246
 21
159.761826
 31
0.0
  0
LINE
  5
4F1
330
4E5
100
AcDbEntity
  8
0
  6
CONTINUOUS
 62
     7
100
AcDbLine
 10
164.252246
 20
159.761826
 30
0.0
 11
164.221619
 21
159.755784
 31
0.0
  0
LINE
  5
4F2
330
4E5
100
AcDbEntity
  8
0
  6
CONTINUOUS
 62
     7
100
AcDbLine
 10
164.221619
 20
159.755784
 30
0.0
 11
164.191135
 21
159.749241
 31
0.0
  0
LINE
  5
4F3
330
4E5
100
AcDbEntity
  8
0
  6
CONTINUOUS
 62
     7
100
AcDbLine
 10
164.191135
 20
159.749241
 30
0.0
 11
164.160807
 21
159.742151
 31
0.0
  0
LINE
  5
4F4
330
4E5
100
AcDbEntity
  8
0
  6
CONTINUOUS
 62
     7
100
AcDbLine
 10
164.160807
 20
159.742151
 30
0.0
 11
164.130647
 21
159.734468
 31
0.0
  0
LINE
  5
4F5
330
4E5
100
AcDbEntity
  8
0
  6
CONTINUOUS
 62
     7
100
AcDbLine
 10
164.130647
 20
159.734468
 30
0.0
 11
164.10067
 21
159.726146
 31
0.0
  0
LINE
  5
4F6
330
4E5
100
AcDbEntity
  8
0
  6
CONTINUOUS
 62
     7
100
AcDbLine
 10
164.10067
 20
159.726146
 30
0.0
 11
164.070887
 21
159.717141
 31
0.0
  0
LINE
  5
4F7
330
4E5
100
AcDbEntity
  8
0
  6
CONTINUOUS
 62
     7
100
AcDbLine
 10
164.070887
 20
159.717141
 30
0.0
 11
164.038115
 21
159.706321
 31
0.0
  0
LINE
  5
4F8
330
4E5
100
AcDbEntity
  8
0
  6
CONTINUOUS
 62
     7
100
AcDbLine
 10
164.038115
 20
159.706321
 30
0.0
 11
164.005599
 21
159.694642
 31
0.0
  0
LINE
  5
4F9
330
4E5
100
AcDbEntity
  8
0
  6
CONTINUOUS
 62
     7
100
AcDbLine
 10
164.005599
 20
159.694642
 30
0.0
 11
163.973342
 21
159.682144
 31
0.0
  0
LINE
  5
4FA
330
4E5
100
AcDbEntity
  8
0
  6
CONTINUOUS
 62
     7
100
AcDbLine
 10
163.973342
 20
159.682144
 30
0.0
 11
163.941346
 21
159.668863
 31
0.0
  0
LINE
  5
4FB
330
4E5
100
AcDbEntity
  8
0
  6
CONTINUOUS
 62
     7
100
AcDbLine
 10
163.941346
 20
159.668863
 30
0.0
 11
163.909611
 21
159.654838
 31
0.0
  0
LINE
  5
4FC
330
4E5
100
AcDbEntity
  8
0
  6
CONTINUOUS
 62
     7
100
AcDbLine
 10
163.909611
 20
159.654838
 30
0.0
 11
163.878139
 21
159.640107
 31
0.0
  0
LINE
  5
4FD
330
4E5
100
AcDbEntity
  8
0
  6
CONTINUOUS
 62
     7
100
AcDbLine
 10
163.878139
 20
159.640107
 30
0.0
 11
163.846933
 21
159.624708
 31
0.0
  0
LINE
  5
4FE
330
4E5
100
AcDbEntity
  8
0
  6
CONTINUOUS
 62
     7
100
AcDbLine
 10
163.846933
 20
159.624708
 30
0.0
 11
163.815992
 21
159.608679
 31
0.0
  0
LINE
  5
4FF
330
4E5
100
AcDbEntity
  8
0
  6
CONTINUOUS
 62
     7
100
AcDbLine
 10
163.815992
 20
159.608679
 30
0.0
 11
163.78532
 21
159.592059
 31
0.0
  0
LINE
  5
500
330
4E5
100
AcDbEntity
  8
0
  6
CONTINUOUS
 62
     7
100
AcDbLine
 10
163.78532
 20
159.592059
 30
0.0
 11
163.754918
 21
159.574885
 31
0.0
  0
LINE
  5
501
330
4E5
100
AcDbEntity
  8
0
  6
CONTINUOUS
 62
     7
100
AcDbLine
 10
163.754918
 20
159.574885
 30
0.0
 11
163.724787
 21
159.557195
 31
0.0
  0
LINE
  5
502
330
4E5
100
AcDbEntity
  8
0
  6
CONTINUOUS
 62
     7
100
AcDbLine
 10
163.724787
 20
159.557195
 30
0.0
 11
163.694928
 21
159.539028
 31
0.0
  0
LINE
  5
503
330
4E5
100
AcDbEntity
  8
0
  6
CONTINUOUS
 62
     7
100
AcDbLine
 10
163.694928
 20
159.539028
 30
0.0
 11
163.665344
 21
159.520421
 31
0.0
  0
LINE
  5
504
330
4E5
100
AcDbEntity
  8
0
  6
CONTINUOUS
 62
     7
100
AcDbLine
 10
163.665344
 20
159.520421
 30
0.0
 11
163.636036
 21
159.501413
 31
0.0
  0
LINE
  5
505
330
4E5
100
AcDbEntity
  8
0
  6
CONTINUOUS
 62
     7
100
AcDbLine
 10
163.636036
 20
159.501413
 30
0.0
 11
163.607006
 21
159.482042
 31
0.0
  0
LINE
  5
506
330
4E5
100
AcDbEntity
  8
0
  6
CONTINUOUS
 62
     7
100
AcDbLine
 10
163.607006
 20
159.482042
 30
0.0
 11
163.578255
 21
159.462346
 31
0.0
  0
LINE
  5
507
330
4E5
100
AcDbEntity
  8
0
  6
CONTINUOUS
 62
     7
100
AcDbLine
 10
163.578255
 20
159.462346
 30
0.0
 11
163.55098
 21
159.443215
 31
0.0
  0
LINE
  5
508
330
4E5
100
AcDbEntity
  8
0
  6
CONTINUOUS
 62
     7
100
AcDbLine
 10
163.55098
 20
159.443215
 30
0.0
 11
163.52393
 21
159.423854
 31
0.0
  0
LINE
  5
509
330
4E5
100
AcDbEntity
  8
0
  6
CONTINUOUS
 62
     7
100
AcDbLine
 10
163.52393
 20
159.423854
 30
0.0
 11
163.497074
 21
159.404295
 31
0.0
  0
LINE
  5
50A
330
4E5
100
AcDbEntity
  8
0
  6
CONTINUOUS
 62
     7
100
AcDbLine
 10
163.497074
 20
159.404295
 30
0.0
 11
163.470378
 21
159.384572
 31
0.0
  0
LINE
  5
50B
330
4E5
100
AcDbEntity
  8
0
  6
CONTINUOUS
 62
     7
100
AcDbLine
 10
163.470378
 20
159.384572
 30
0.0
 11
163.417341
 21
159.344763
 31
0.0
  0
LINE
  5
50C
330
4E5
100
AcDbEntity
  8
0
  6
CONTINUOUS
 62
     7
100
AcDbLine
 10
163.417341
 20
159.344763
 30
0.0
 11
163.364561
 21
159.304691
 31
0.0
  0
ENDBLK
  5
4E7
330
4E5
100
AcDbEntity
  8
0
100
AcDbBlockEnd
  0
BLOCK
  5
50F
330
50E
100
AcDbEntity
  8
0
100
AcDbBlockBegin
  2
BLKF026
 70
     0
 71
     0
 10
0.0
 20
0.0
 30
0.0
  3
BLKF026
  1

  0
LINE
  5
512
330
50E
100
AcDbEntity
  8
0
  6
CONTINUOUS
 62
     7
100
AcDbLine
 10
175.288757
 20
159.304691
 30
0.0
 11
175.219376
 21
159.356608
 31
0.0
  0
LINE
  5
513
330
50E
100
AcDbEntity
  8
0
  6
CONTINUOUS
 62
     7
100
AcDbLine
 10
175.219376
 20
159.356608
 30
0.0
 11
175.14973
 21
159.407879
 31
0.0
  0
LINE
  5
514
330
50E
100
AcDbEntity
  8
0
  6
CONTINUOUS
 62
     7
100
AcDbLine
 10
175.14973
 20
159.407879
 30
0.0
 11
175.114725
 21
159.433072
 31
0.0
  0
LINE
  5
515
330
50E
100
AcDbEntity
  8
0
  6
CONTINUOUS
 62
     7
100
AcDbLine
 10
175.114725
 20
159.433072
 30
0.0
 11
175.079555
 21
159.457863
 31
0.0
  0
LINE
  5
516
330
50E
100
AcDbEntity
  8
0
  6
CONTINUOUS
 62
     7
100
AcDbLine
 10
175.079555
 20
159.457863
 30
0.0
 11
175.044187
 21
159.482169
 31
0.0
  0
LINE
  5
517
330
50E
100
AcDbEntity
  8
0
  6
CONTINUOUS
 62
     7
100
AcDbLine
 10
175.044187
 20
159.482169
 30
0.0
 11
175.008588
 21
159.505913
 31
0.0
  0
LINE
  5
518
330
50E
100
AcDbEntity
  8
0
  6
CONTINUOUS
 62
     7
100
AcDbLine
 10
175.008588
 20
159.505913
 30
0.0
 11
174.972724
 21
159.529011
 31
0.0
  0
LINE
  5
519
330
50E
100
AcDbEntity
  8
0
  6
CONTINUOUS
 62
     7
100
AcDbLine
 10
174.972724
 20
159.529011
 30
0.0
 11
174.936562
 21
159.551385
 31
0.0
  0
LINE
  5
51A
330
50E
100
AcDbEntity
  8
0
  6
CONTINUOUS
 62
     7
100
AcDbLine
 10
174.936562
 20
159.551385
 30
0.0
 11
174.90007
 21
159.572954
 31
0.0
  0
LINE
  5
51B
330
50E
100
AcDbEntity
  8
0
  6
CONTINUOUS
 62
     7
100
AcDbLine
 10
174.90007
 20
159.572954
 30
0.0
 11
174.863215
 21
159.593636
 31
0.0
  0
LINE
  5
51C
330
50E
100
AcDbEntity
  8
0
  6
CONTINUOUS
 62
     7
100
AcDbLine
 10
174.863215
 20
159.593636
 30
0.0
 11
174.825963
 21
159.613352
 31
0.0
  0
LINE
  5
51D
330
50E
100
AcDbEntity
  8
0
  6
CONTINUOUS
 62
     7
100
AcDbLine
 10
174.825963
 20
159.613352
 30
0.0
 11
174.788281
 21
159.632021
 31
0.0
  0
LINE
  5
51E
330
50E
100
AcDbEntity
  8
0
  6
CONTINUOUS
 62
     7
100
AcDbLine
 10
174.788281
 20
159.632021
 30
0.0
 11
174.750137
 21
159.649562
 31
0.0
  0
LINE
  5
51F
330
50E
100
AcDbEntity
  8
0
  6
CONTINUOUS
 62
     7
100
AcDbLine
 10
174.750137
 20
159.649562
 30
0.0
 11
174.711497
 21
159.665896
 31
0.0
  0
LINE
  5
520
330
50E
100
AcDbEntity
  8
0
  6
CONTINUOUS
 62
     7
100
AcDbLine
 10
174.711497
 20
159.665896
 30
0.0
 11
174.674882
 21
159.680032
 31
0.0
  0
LINE
  5
521
330
50E
100
AcDbEntity
  8
0
  6
CONTINUOUS
 62
     7
100
AcDbLine
 10
174.674882
 20
159.680032
 30
0.0
 11
174.637834
 21
159.693112
 31
0.0
  0
LINE
  5
522
330
50E
100
AcDbEntity
  8
0
  6
CONTINUOUS
 62
     7
100
AcDbLine
 10
174.637834
 20
159.693112
 30
0.0
 11
174.60038
 21
159.705204
 31
0.0
  0
LINE
  5
523
330
50E
100
AcDbEntity
  8
0
  6
CONTINUOUS
 62
     7
100
AcDbLine
 10
174.60038
 20
159.705204
 30
0.0
 11
174.562551
 21
159.716381
 31
0.0
  0
LINE
  5
524
330
50E
100
AcDbEntity
  8
0
  6
CONTINUOUS
 62
     7
100
AcDbLine
 10
174.562551
 20
159.716381
 30
0.0
 11
174.524374
 21
159.726712
 31
0.0
  0
LINE
  5
525
330
50E
100
AcDbEntity
  8
0
  6
CONTINUOUS
 62
     7
100
AcDbLine
 10
174.524374
 20
159.726712
 30
0.0
 11
174.485879
 21
159.736267
 31
0.0
  0
LINE
  5
526
330
50E
100
AcDbEntity
  8
0
  6
CONTINUOUS
 62
     7
100
AcDbLine
 10
174.485879
 20
159.736267
 30
0.0
 11
174.447096
 21
159.745117
 31
0.0
  0
LINE
  5
527
330
50E
100
AcDbEntity
  8
0
  6
CONTINUOUS
 62
     7
100
AcDbLine
 10
174.447096
 20
159.745117
 30
0.0
 11
174.408051
 21
159.753334
 31
0.0
  0
LINE
  5
528
330
50E
100
AcDbEntity
  8
0
  6
CONTINUOUS
 62
     7
100
AcDbLine
 10
174.408051
 20
159.753334
 30
0.0
 11
174.368776
 21
159.760986
 31
0.0
  0
LINE
  5
529
330
50E
100
AcDbEntity
  8
0
  6
CONTINUOUS
 62
     7
100
AcDbLine
 10
174.368776
 20
159.760986
 30
0.0
 11
174.329298
 21
159.768145
 31
0.0
  0
LINE
  5
52A
330
50E
100
AcDbEntity
  8
0
  6
CONTINUOUS
 62
     7
100
AcDbLine
 10
174.329298
 20
159.768145
 30
0.0
 11
174.289646
 21
159.774881
 31
0.0
  0
LINE
  5
52B
330
50E
100
AcDbEntity
  8
0
  6
CONTINUOUS
 62
     7
100
AcDbLine
 10
174.289646
 20
159.774881
 30
0.0
 11
174.24985
 21
159.781265
 31
0.0
  0
LINE
  5
52C
330
50E
100
AcDbEntity
  8
0
  6
CONTINUOUS
 62
     7
100
AcDbLine
 10
174.24985
 20
159.781265
 30
0.0
 11
174.16994
 21
159.793257
 31
0.0
  0
LINE
  5
52D
330
50E
100
AcDbEntity
  8
0
  6
CONTINUOUS
 62
     7
100
AcDbLine
 10
174.16994
 20
159.793257
 30
0.0
 11
174.089798
 21
159.804685
 31
0.0
  0
ENDBLK
  5
510
330
50E
100
AcDbEntity
  8
0
100
AcDbBlockEnd
  0
BLOCK
  5
53A
330
539
100
AcDbEntity
  8
0
100
AcDbBlockBegin
  2
BLKF027
 70
     0
 71
     0
 10
0.0
 20
0.0
 30
0.0
  3
BLKF027
  1

  0
LINE
  5
53D
330
539
100
AcDbEntity
  8
CSLAYER3
  6
CONTINUOUS
 62
     3
100
AcDbLine
 10
111.005156
 20
163.471394
 30
0.0
 11
113.005156
 21
162.935496
 31
0.0
  0
LINE
  5
53E
330
539
100
AcDbEntity
  8
CSLAYER3
  6
CONTINUOUS
 62
     3
100
AcDbLine
 10
113.005156
 20
162.935496
 30
0.0
 11
111.005156
 21
162.399598
 31
0.0
  0
LINE
  5
53F
330
539
100
AcDbEntity
  8
CSLAYER3
  6
CONTINUOUS
 62
     3
100
AcDbLine
 10
113.005156
 20
162.935496
 30
0.0
 11
111.005156
 21
162.935496
 31
0.0
  0
LINE
  5
540
330
539
100
AcDbEntity
  8
CSLAYER3
  6
CONTINUOUS
 62
     3
100
AcDbLine
 10
74.405156
 20
162.399598
 30
0.0
 11
72.405156
 21
162.935496
 31
0.0
  0
LINE
  5
541
330
539
100
AcDbEntity
  8
CSLAYER3
  6
CONTINUOUS
 62
     3
100
AcDbLine
 10
72.405156
 20
162.935496
 30
0.0
 11
74.405156
 21
163.471394
 31
0.0
  0
LINE
  5
542
330
539
100
AcDbEntity
  8
CSLAYER3
  6
CONTINUOUS
 62
     3
100
AcDbLine
 10
72.405156
 20
162.935496
 30
0.0
 11
74.405156
 21
162.935496
 31
0.0
  0
LINE
  5
543
330
539
100
AcDbEntity
  8
CSLAYER3
  6
CONTINUOUS
 62
     3
100
AcDbLine
 10
113.005156
 20
153.81469
 30
0.0
 11
113.005156
 21
163.735496
 31
0.0
  0
LINE
  5
544
330
539
100
AcDbEntity
  8
CSLAYER3
  6
CONTINUOUS
 62
     3
100
AcDbLine
 10
72.405156
 20
144.73734
 30
0.0
 11
72.405156
 21
163.735496
 31
0.0
  0
LINE
  5
545
330
539
100
AcDbEntity
  8
CSLAYER3
  6
CONTINUOUS
 62
     3
100
AcDbLine
 10
113.005156
 20
162.935496
 30
0.0
 11
72.405156
 21
162.935496
 31
0.0
  0
TEXT
  5
546
330
539
100
AcDbEntity
  8
CSLAYER3
 62
     3
100
AcDbText
 10
75.111908
 20
163.426407
 30
0.0
 40
3.0
  1
(
 41
1.336364
  7
ED_VECTOR
 72
     5
 11
77.211908
 21
163.426407
 31
0.0
100
AcDbText
  0
TEXT
  5
547
330
539
100
AcDbEntity
  8
CSLAYER3
 62
     3
100
AcDbText
 10
76.17411
 20
163.426407
 30
0.0
 40
3.0
  1
40.6
 41
0.877612
  7
ED_VECTOR
 72
     5
 11
84.57411
 21
163.426407
 31
0.0
100
AcDbText
  0
TEXT
  5
548
330
539
100
AcDbEntity
  8
CSLAYER3
 62
     3
100
AcDbText
 10
82.119873
 20
163.426407
 30
0.0
 40
3.0
  1
)工具入れ込み長さ
 41
0.853548
  7
ED_VECTOR
 72
     5
 11
101.019872
 21
163.426407
 31
0.0
100
AcDbText
  0
ENDBLK
  5
53B
330
539
100
AcDbEntity
  8
0
100
AcDbBlockEnd
  0
BLOCK
  5
54A
330
549
100
AcDbEntity
  8
0
100
AcDbBlockBegin
  2
BLKF028
 70
     0
 71
     0
 10
0.0
 20
0.0
 30
0.0
  3
BLKF028
  1

  0
LINE
  5
54D
330
549
100
AcDbEntity
  8
CSLAYER3
  6
CONTINUOUS
 62
     3
100
AcDbLine
 10
109.926659
 20
121.283914
 30
0.0
 11
111.926659
 21
120.748016
 31
0.0
  0
LINE
  5
54E
330
549
100
AcDbEntity
  8
CSLAYER3
  6
CONTINUOUS
 62
     3
100
AcDbLine
 10
111.926659
 20
120.748016
 30
0.0
 11
109.926659
 21
120.212118
 31
0.0
  0
LINE
  5
54F
330
549
100
AcDbEntity
  8
CSLAYER3
  6
CONTINUOUS
 62
     3
100
AcDbLine
 10
111.926659
 20
120.748016
 30
0.0
 11
109.926659
 21
120.748016
 31
0.0
  0
LINE
  5
550
330
549
100
AcDbEntity
  8
CSLAYER3
  6
CONTINUOUS
 62
     3
100
AcDbLine
 10
88.926659
 20
120.212118
 30
0.0
 11
86.926659
 21
120.748016
 31
0.0
  0
LINE
  5
551
330
549
100
AcDbEntity
  8
CSLAYER3
  6
CONTINUOUS
 62
     3
100
AcDbLine
 10
86.926659
 20
120.748016
 30
0.0
 11
88.926659
 21
121.283914
 31
0.0
  0
LINE
  5
552
330
549
100
AcDbEntity
  8
CSLAYER3
  6
CONTINUOUS
 62
     3
100
AcDbLine
 10
86.926659
 20
120.748016
 30
0.0
 11
88.926659
 21
120.748016
 31
0.0
  0
LINE
  5
553
330
549
100
AcDbEntity
  8
CSLAYER3
  6
CONTINUOUS
 62
     3
100
AcDbLine
 10
111.926659
 20
128.79469
 30
0.0
 11
111.926659
 21
119.948016
 31
0.0
  0
LINE
  5
554
330
549
100
AcDbEntity
  8
CSLAYER3
  6
CONTINUOUS
 62
     3
100
AcDbLine
 10
86.926659
 20
130.59469
 30
0.0
 11
86.926659
 21
119.948016
 31
0.0
  0
LINE
  5
555
330
549
100
AcDbEntity
  8
CSLAYER3
  6
CONTINUOUS
 62
     3
100
AcDbLine
 10
111.926659
 20
120.748016
 30
0.0
 11
86.926659
 21
120.748016
 31
0.0
  0
TEXT
  5
556
330
549
100
AcDbEntity
  8
CSLAYER3
 62
     3
100
AcDbText
 10
97.681625
 20
121.238922
 30
0.0
 40
3.0
  1
25
 41
0.794595
  7
ED_VECTOR
 72
     5
 11
101.881625
 21
121.238922
 31
0.0
100
AcDbText
  0
ENDBLK
  5
54B
330
549
100
AcDbEntity
  8
0
100
AcDbBlockEnd
  0
BLOCK
  5
558
330
557
100
AcDbEntity
  8
0
100
AcDbBlockBegin
  2
BLKF029
 70
     0
 71
     0
 10
0.0
 20
0.0
 30
0.0
  3
BLKF029
  1

  0
LINE
  5
55B
330
557
100
AcDbEntity
  8
CSLAYER3
  6
CONTINUOUS
 62
     3
100
AcDbLine
 10
113.926659
 20
120.212118
 30
0.0
 11
111.926659
 21
120.748016
 31
0.0
  0
LINE
  5
55C
330
557
100
AcDbEntity
  8
CSLAYER3
  6
CONTINUOUS
 62
     3
100
AcDbLine
 10
111.926659
 20
120.748016
 30
0.0
 11
113.926659
 21
121.283914
 31
0.0
  0
LINE
  5
55D
330
557
100
AcDbEntity
  8
CSLAYER3
  6
CONTINUOUS
 62
     3
100
AcDbLine
 10
111.926659
 20
120.748016
 30
0.0
 11
113.926659
 21
120.748016
 31
0.0
  0
LINE
  5
55E
330
557
100
AcDbEntity
  8
CSLAYER3
  6
CONTINUOUS
 62
     3
100
AcDbLine
 10
149.026659
 20
121.283914
 30
0.0
 11
151.026659
 21
120.748016
 31
0.0
  0
LINE
  5
55F
330
557
100
AcDbEntity
  8
CSLAYER3
  6
CONTINUOUS
 62
     3
100
AcDbLine
 10
151.026659
 20
120.748016
 30
0.0
 11
149.026659
 21
120.212118
 31
0.0
  0
LINE
  5
560
330
557
100
AcDbEntity
  8
CSLAYER3
  6
CONTINUOUS
 62
     3
100
AcDbLine
 10
151.026659
 20
120.748016
 30
0.0
 11
149.026659
 21
120.748016
 31
0.0
  0
LINE
  5
561
330
557
100
AcDbEntity
  8
CSLAYER3
  6
CONTINUOUS
 62
     3
100
AcDbLine
 10
111.926659
 20
128.79469
 30
0.0
 11
111.926659
 21
119.948016
 31
0.0
  0
LINE
  5
562
330
557
100
AcDbEntity
  8
CSLAYER3
  6
CONTINUOUS
 62
     3
100
AcDbLine
 10
151.026659
 20
128.79469
 30
0.0
 11
151.026659
 21
119.948016
 31
0.0
  0
LINE
  5
563
330
557
100
AcDbEntity
  8
CSLAYER3
  6
CONTINUOUS
 62
     3
100
AcDbLine
 10
111.926659
 20
120.748016
 30
0.0
 11
151.026659
 21
120.748016
 31
0.0
  0
TEXT
  5
564
330
557
100
AcDbEntity
  8
CSLAYER3
 62
     3
100
AcDbText
 10
115.520966
 20
121.238922
 30
0.0
 40
3.0
  1
39.1
 41
0.963934
  7
ED_VECTOR
 72
     5
 11
123.920965
 21
121.238922
 31
0.0
100
AcDbText
  0
TEXT
  5
565
330
557
100
AcDbEntity
  8
CSLAYER3
 62
     3
100
AcDbText
 10
121.466728
 20
121.238922
 30
0.0
 40
3.0
  1
（クランフﾟ推奨範囲）
 41
0.829231
  7
ED_VECTOR
 72
     5
 11
144.566727
 21
121.238922
 31
0.0
100
AcDbText
  0
ENDBLK
  5
559
330
557
100
AcDbEntity
  8
0
100
AcDbBlockEnd
  0
BLOCK
  5
567
330
566
100
AcDbEntity
  8
0
100
AcDbBlockBegin
  2
BLKF030
 70
     0
 71
     0
 10
0.0
 20
0.0
 30
0.0
  3
BLKF030
  1

  0
ARC
  5
56A
330
566
100
AcDbEntity
  8
CSLAYER3
  6
CONTINUOUS
 62
     3
100
AcDbCircle
 10
195.194548
 20
209.285018
 30
0.0
 40
3.902017793632659
100
AcDbArc
 50
243.434949
 51
296.565051
  0
ARC
  5
56B
330
566
100
AcDbEntity
  8
CSLAYER3
  6
CONTINUOUS
 62
     3
100
AcDbCircle
 10
195.194548
 20
210.714982
 30
0.0
 40
3.902017793632647
100
AcDbArc
 50
63.434949
 51
116.565051
  0
LINE
  5
56C
330
566
100
AcDbEntity
  8
CSLAYER3
  6
CONTINUOUS
 62
     3
100
AcDbLine
 10
197.475481
 20
151.30469
 30
0.0
 11
196.939583
 21
149.30469
 31
0.0
  0
LINE
  5
56D
330
566
100
AcDbEntity
  8
CSLAYER3
  6
CONTINUOUS
 62
     3
100
AcDbLine
 10
196.939583
 20
149.30469
 30
0.0
 11
196.403685
 21
151.30469
 31
0.0
  0
LINE
  5
56E
330
566
100
AcDbEntity
  8
CSLAYER3
  6
CONTINUOUS
 62
     3
100
AcDbLine
 10
196.939583
 20
149.30469
 30
0.0
 11
196.939583
 21
151.30469
 31
0.0
  0
LINE
  5
56F
330
566
100
AcDbEntity
  8
CSLAYER3
  6
CONTINUOUS
 62
     3
100
AcDbLine
 10
196.403685
 20
268.69531
 30
0.0
 11
196.939583
 21
270.69531
 31
0.0
  0
LINE
  5
570
330
566
100
AcDbEntity
  8
CSLAYER3
  6
CONTINUOUS
 62
     3
100
AcDbLine
 10
196.939583
 20
270.69531
 30
0.0
 11
197.475481
 21
268.69531
 31
0.0
  0
LINE
  5
571
330
566
100
AcDbEntity
  8
CSLAYER3
  6
CONTINUOUS
 62
     3
100
AcDbLine
 10
196.939583
 20
270.69531
 30
0.0
 11
196.939583
 21
268.69531
 31
0.0
  0
LINE
  5
572
330
566
100
AcDbEntity
  8
CSLAYER3
  6
CONTINUOUS
 62
     3
100
AcDbLine
 10
173.351467
 20
149.30469
 30
0.0
 11
197.739583
 21
149.30469
 31
0.0
  0
LINE
  5
573
330
566
100
AcDbEntity
  8
CSLAYER3
  6
CONTINUOUS
 62
     3
100
AcDbLine
 10
175.336659
 20
270.69531
 30
0.0
 11
197.739583
 21
270.69531
 31
0.0
  0
LINE
  5
574
330
566
100
AcDbEntity
  8
CSLAYER3
  6
CONTINUOUS
 62
     3
100
AcDbLine
 10
196.939583
 20
149.30469
 30
0.0
 11
196.939583
 21
270.69531
 31
0.0
  0
TEXT
  5
575
330
566
100
AcDbEntity
  8
CSLAYER3
 62
     3
100
AcDbText
 10
196.448669
 20
207.382446
 30
0.0
 40
3.0
  1
500
 50
90.0
 41
0.773684
  7
ED_VECTOR
 72
     5
 11
196.448669
 21
213.682446
 31
0.0
100
AcDbText
  0
ENDBLK
  5
568
330
566
100
AcDbEntity
  8
0
100
AcDbBlockEnd
  0
BLOCK
  5
577
330
576
100
AcDbEntity
  8
0
100
AcDbBlockBegin
  2
BLKF031
 70
     0
 71
     0
 10
0.0
 20
0.0
 30
0.0
  3
BLKF031
  1

  0
LINE
  5
57A
330
576
100
AcDbEntity
  8
CSLAYER3
  6
CONTINUOUS
 62
     3
100
AcDbLine
 10
53.941054
 20
130.80469
 30
0.0
 11
53.405156
 21
128.80469
 31
0.0
  0
LINE
  5
57B
330
576
100
AcDbEntity
  8
CSLAYER3
  6
CONTINUOUS
 62
     3
100
AcDbLine
 10
53.405156
 20
128.80469
 30
0.0
 11
52.869258
 21
130.80469
 31
0.0
  0
LINE
  5
57C
330
576
100
AcDbEntity
  8
CSLAYER3
  6
CONTINUOUS
 62
     3
100
AcDbLine
 10
53.405156
 20
128.80469
 30
0.0
 11
53.405156
 21
130.80469
 31
0.0
  0
LINE
  5
57D
330
576
100
AcDbEntity
  8
CSLAYER3
  6
CONTINUOUS
 62
     3
100
AcDbLine
 10
52.869258
 20
151.80469
 30
0.0
 11
53.405156
 21
153.80469
 31
0.0
  0
LINE
  5
57E
330
576
100
AcDbEntity
  8
CSLAYER3
  6
CONTINUOUS
 62
     3
100
AcDbLine
 10
53.405156
 20
153.80469
 30
0.0
 11
53.941054
 21
151.80469
 31
0.0
  0
LINE
  5
57F
330
576
100
AcDbEntity
  8
CSLAYER3
  6
CONTINUOUS
 62
     3
100
AcDbLine
 10
53.405156
 20
153.80469
 30
0.0
 11
53.405156
 21
151.80469
 31
0.0
  0
LINE
  5
580
330
576
100
AcDbEntity
  8
CSLAYER3
  6
CONTINUOUS
 62
     3
100
AcDbLine
 10
94.016659
 20
128.80469
 30
0.0
 11
52.605156
 21
128.80469
 31
0.0
  0
LINE
  5
581
330
576
100
AcDbEntity
  8
CSLAYER3
  6
CONTINUOUS
 62
     3
100
AcDbLine
 10
94.016659
 20
153.80469
 30
0.0
 11
52.605156
 21
153.80469
 31
0.0
  0
LINE
  5
582
330
576
100
AcDbEntity
  8
CSLAYER3
  6
CONTINUOUS
 62
     3
100
AcDbLine
 10
53.405156
 20
128.80469
 30
0.0
 11
53.405156
 21
153.80469
 31
0.0
  0
TEXT
  5
583
330
576
100
AcDbEntity
  8
CSLAYER3
 62
     3
100
AcDbText
 10
52.914246
 20
134.401688
 30
0.0
 40
3.0
  1
%%c
 50
90.0
 41
0.864706
  7
ED_VECTOR
 72
     5
 11
52.914246
 21
136.501688
 31
0.0
100
AcDbText
  0
TEXT
  5
584
330
576
100
AcDbEntity
  8
CSLAYER3
 62
     3
100
AcDbText
 10
52.914246
 20
137.717255
 30
0.0
 40
3.0
  1
25
 50
90.0
 41
0.794595
  7
ED_VECTOR
 72
     5
 11
52.914246
 21
141.917254
 31
0.0
100
AcDbText
  0
TEXT
  5
585
330
576
100
AcDbEntity
  8
CSLAYER3
 62
     3
100
AcDbText
 10
52.913795
 20
142.057083
 30
0.0
 40
2.4
  1
-
 50
90.0
 41
0.668182
  7
ED_VECTOR
 72
     5
 11
52.913795
 21
143.737083
 31
0.0
100
AcDbText
  0
TEXT
  5
586
330
576
100
AcDbEntity
  8
CSLAYER3
 62
     3
100
AcDbText
 10
52.913795
 20
143.45311
 30
0.0
 40
2.4
  1
0.01
 50
90.0
 41
0.963934
  7
ED_VECTOR
 72
     5
 11
52.913795
 21
150.17311
 31
0.0
100
AcDbText
  0
TEXT
  5
587
330
576
100
AcDbEntity
  8
CSLAYER3
 62
     3
100
AcDbText
 10
50.121738
 20
143.45311
 30
0.0
 40
2.4
  1
0
 50
90.0
 41
0.864706
  7
ED_VECTOR
 72
     5
 11
50.121738
 21
145.13311
 31
0.0
100
AcDbText
  0
ENDBLK
  5
578
330
576
100
AcDbEntity
  8
0
100
AcDbBlockEnd
  0
BLOCK
  5
589
330
588
100
AcDbEntity
  8
0
100
AcDbBlockBegin
  2
BLKF032
 70
     0
 71
     0
 10
0.0
 20
0.0
 30
0.0
  3
BLKF032
  1

  0
ARC
  5
58C
330
588
100
AcDbEntity
  8
CSLAYER3
  6
CONTINUOUS
 62
     3
100
AcDbCircle
 10
123.200925
 20
103.918645
 30
0.0
 40
3.902017793632657
100
AcDbArc
 50
153.434949
 51
206.565051
  0
ARC
  5
58D
330
588
100
AcDbEntity
  8
CSLAYER3
  6
CONTINUOUS
 62
     3
100
AcDbCircle
 10
124.63089
 20
103.918645
 30
0.0
 40
3.902017793632644
100
AcDbArc
 50
-26.565051
 51
26.565051
  0
LINE
  5
58E
330
588
100
AcDbEntity
  8
CSLAYER3
  6
CONTINUOUS
 62
     3
100
AcDbLine
 10
74.405156
 20
101.637711
 30
0.0
 11
72.405156
 21
102.173609
 31
0.0
  0
LINE
  5
58F
330
588
100
AcDbEntity
  8
CSLAYER3
  6
CONTINUOUS
 62
     3
100
AcDbLine
 10
72.405156
 20
102.173609
 30
0.0
 11
74.405156
 21
102.709507
 31
0.0
  0
LINE
  5
590
330
588
100
AcDbEntity
  8
CSLAYER3
  6
CONTINUOUS
 62
     3
100
AcDbLine
 10
72.405156
 20
102.173609
 30
0.0
 11
74.405156
 21
102.173609
 31
0.0
  0
LINE
  5
591
330
588
100
AcDbEntity
  8
CSLAYER3
  6
CONTINUOUS
 62
     3
100
AcDbLine
 10
173.426659
 20
102.709507
 30
0.0
 11
175.426659
 21
102.173609
 31
0.0
  0
LINE
  5
592
330
588
100
AcDbEntity
  8
CSLAYER3
  6
CONTINUOUS
 62
     3
100
AcDbLine
 10
175.426659
 20
102.173609
 30
0.0
 11
173.426659
 21
101.637711
 31
0.0
  0
LINE
  5
593
330
588
100
AcDbEntity
  8
CSLAYER3
  6
CONTINUOUS
 62
     3
100
AcDbLine
 10
175.426659
 20
102.173609
 30
0.0
 11
173.426659
 21
102.173609
 31
0.0
  0
LINE
  5
594
330
588
100
AcDbEntity
  8
CSLAYER3
  6
CONTINUOUS
 62
     3
100
AcDbLine
 10
72.405156
 20
137.872041
 30
0.0
 11
72.405156
 21
101.373609
 31
0.0
  0
LINE
  5
595
330
588
100
AcDbEntity
  8
CSLAYER3
  6
CONTINUOUS
 62
     3
100
AcDbLine
 10
175.426659
 20
130.64469
 30
0.0
 11
175.426659
 21
101.373609
 31
0.0
  0
LINE
  5
596
330
588
100
AcDbEntity
  8
CSLAYER3
  6
CONTINUOUS
 62
     3
100
AcDbLine
 10
72.405156
 20
102.173609
 30
0.0
 11
175.426659
 21
102.173609
 31
0.0
  0
TEXT
  5
597
330
588
100
AcDbEntity
  8
CSLAYER3
 62
     3
100
AcDbText
 10
121.298355
 20
102.66452
 30
0.0
 40
3.0
  1
103
 41
0.773684
  7
ED_VECTOR
 72
     5
 11
127.598355
 21
102.66452
 31
0.0
100
AcDbText
  0
ENDBLK
  5
58A
330
588
100
AcDbEntity
  8
0
100
AcDbBlockEnd
  0
BLOCK
  5
599
330
598
100
AcDbEntity
  8
0
100
AcDbBlockBegin
  2
BLKF033
 70
     0
 71
     0
 10
0.0
 20
0.0
 30
0.0
  3
BLKF033
  1

  0
ARC
  5
59C
330
598
100
AcDbEntity
  8
CSLAYER3
  6
CONTINUOUS
 62
     3
100
AcDbCircle
 10
78.595595
 20
113.425774
 30
0.0
 40
3.902017793632645
100
AcDbArc
 50
153.434949
 51
206.565051
  0
ARC
  5
59D
330
598
100
AcDbEntity
  8
CSLAYER3
  6
CONTINUOUS
 62
     3
100
AcDbCircle
 10
80.736219
 20
113.425774
 30
0.0
 40
3.902017793632645
100
AcDbArc
 50
-26.565051
 51
26.565051
  0
LINE
  5
59E
330
598
100
AcDbEntity
  8
CSLAYER3
  6
CONTINUOUS
 62
     3
100
AcDbLine
 10
74.405156
 20
111.14484
 30
0.0
 11
72.405156
 21
111.680738
 31
0.0
  0
LINE
  5
59F
330
598
100
AcDbEntity
  8
CSLAYER3
  6
CONTINUOUS
 62
     3
100
AcDbLine
 10
72.405156
 20
111.680738
 30
0.0
 11
74.405156
 21
112.216636
 31
0.0
  0
LINE
  5
5A0
330
598
100
AcDbEntity
  8
CSLAYER3
  6
CONTINUOUS
 62
     3
100
AcDbLine
 10
72.405156
 20
111.680738
 30
0.0
 11
74.405156
 21
111.680738
 31
0.0
  0
LINE
  5
5A1
330
598
100
AcDbEntity
  8
CSLAYER3
  6
CONTINUOUS
 62
     3
100
AcDbLine
 10
84.926659
 20
112.216636
 30
0.0
 11
86.926659
 21
111.680738
 31
0.0
  0
LINE
  5
5A2
330
598
100
AcDbEntity
  8
CSLAYER3
  6
CONTINUOUS
 62
     3
100
AcDbLine
 10
86.926659
 20
111.680738
 30
0.0
 11
84.926659
 21
111.14484
 31
0.0
  0
LINE
  5
5A3
330
598
100
AcDbEntity
  8
CSLAYER3
  6
CONTINUOUS
 62
     3
100
AcDbLine
 10
86.926659
 20
111.680738
 30
0.0
 11
84.926659
 21
111.680738
 31
0.0
  0
LINE
  5
5A4
330
598
100
AcDbEntity
  8
CSLAYER3
  6
CONTINUOUS
 62
     3
100
AcDbLine
 10
72.405156
 20
137.872041
 30
0.0
 11
72.405156
 21
110.880738
 31
0.0
  0
LINE
  5
5A5
330
598
100
AcDbEntity
  8
CSLAYER3
  6
CONTINUOUS
 62
     3
100
AcDbLine
 10
86.926659
 20
130.59469
 30
0.0
 11
86.926659
 21
110.880738
 31
0.0
  0
LINE
  5
5A6
330
598
100
AcDbEntity
  8
CSLAYER3
  6
CONTINUOUS
 62
     3
100
AcDbLine
 10
72.405156
 20
111.680738
 30
0.0
 11
86.926659
 21
111.680738
 31
0.0
  0
TEXT
  5
5A7
330
598
100
AcDbEntity
  8
CSLAYER3
 62
     3
100
AcDbText
 10
76.693024
 20
112.171646
 30
0.0
 40
3.0
  1
14.5
 41
0.877612
  7
ED_VECTOR
 72
     5
 11
85.093023
 21
112.171646
 31
0.0
100
AcDbText
  0
ENDBLK
  5
59A
330
598
100
AcDbEntity
  8
0
100
AcDbBlockEnd
  0
BLOCK
  5
5A9
330
5A8
100
AcDbEntity
  8
0
100
AcDbBlockBegin
  2
BLKF034
 70
     0
 71
     0
 10
0.0
 20
0.0
 30
0.0
  3
BLKF034
  1

  0
LINE
  5
5AC
330
5A8
100
AcDbEntity
  8
CSLAYER3
  6
CONTINUOUS
 62
     3
100
AcDbLine
 10
74.405156
 20
120.212118
 30
0.0
 11
72.405156
 21
120.748016
 31
0.0
  0
LINE
  5
5AD
330
5A8
100
AcDbEntity
  8
CSLAYER3
  6
CONTINUOUS
 62
     3
100
AcDbLine
 10
72.405156
 20
120.748016
 30
0.0
 11
74.405156
 21
121.283914
 31
0.0
  0
LINE
  5
5AE
330
5A8
100
AcDbEntity
  8
CSLAYER3
  6
CONTINUOUS
 62
     3
100
AcDbLine
 10
72.405156
 20
120.748016
 30
0.0
 11
74.405156
 21
120.748016
 31
0.0
  0
LINE
  5
5AF
330
5A8
100
AcDbEntity
  8
CSLAYER3
  6
CONTINUOUS
 62
     3
100
AcDbLine
 10
81.905156
 20
121.283914
 30
0.0
 11
83.905156
 21
120.748016
 31
0.0
  0
LINE
  5
5B0
330
5A8
100
AcDbEntity
  8
CSLAYER3
  6
CONTINUOUS
 62
     3
100
AcDbLine
 10
83.905156
 20
120.748016
 30
0.0
 11
81.905156
 21
120.212118
 31
0.0
  0
LINE
  5
5B1
330
5A8
100
AcDbEntity
  8
CSLAYER3
  6
CONTINUOUS
 62
     3
100
AcDbLine
 10
83.905156
 20
120.748016
 30
0.0
 11
81.905156
 21
120.748016
 31
0.0
  0
LINE
  5
5B2
330
5A8
100
AcDbEntity
  8
CSLAYER3
  6
CONTINUOUS
 62
     3
100
AcDbLine
 10
72.405156
 20
137.872041
 30
0.0
 11
72.405156
 21
119.948016
 31
0.0
  0
LINE
  5
5B3
330
5A8
100
AcDbEntity
  8
CSLAYER3
  6
CONTINUOUS
 62
     3
100
AcDbLine
 10
83.905156
 20
136.19469
 30
0.0
 11
83.905156
 21
119.948016
 31
0.0
  0
LINE
  5
5B4
330
5A8
100
AcDbEntity
  8
CSLAYER3
  6
CONTINUOUS
 62
     3
100
AcDbLine
 10
72.405156
 20
120.748016
 30
0.0
 11
83.905156
 21
120.748016
 31
0.0
  0
TEXT
  5
5B5
330
5A8
100
AcDbEntity
  8
CSLAYER3
 62
     3
100
AcDbText
 10
75.182274
 20
121.238922
 30
0.0
 40
3.0
  1
11.5
 41
0.877612
  7
ED_VECTOR
 72
     5
 11
83.582273
 21
121.238922
 31
0.0
100
AcDbText
  0
ENDBLK
  5
5AA
330
5A8
100
AcDbEntity
  8
0
100
AcDbBlockEnd
  0
BLOCK
  5
5B7
330
5B6
100
AcDbEntity
  8
0
100
AcDbBlockBegin
  2
BLKF035
 70
     0
 71
     0
 10
0.0
 20
0.0
 30
0.0
  3
BLKF035
  1

  0
LINE
  5
5BA
330
5B6
100
AcDbEntity
  8
CSLAYER3
  6
CONTINUOUS
 62
     3
100
AcDbLine
 10
88.926659
 20
111.14484
 30
0.0
 11
86.926659
 21
111.680738
 31
0.0
  0
LINE
  5
5BB
330
5B6
100
AcDbEntity
  8
CSLAYER3
  6
CONTINUOUS
 62
     3
100
AcDbLine
 10
86.926659
 20
111.680738
 30
0.0
 11
88.926659
 21
112.216636
 31
0.0
  0
LINE
  5
5BC
330
5B6
100
AcDbEntity
  8
CSLAYER3
  6
CONTINUOUS
 62
     3
100
AcDbLine
 10
86.926659
 20
111.680738
 30
0.0
 11
88.926659
 21
111.680738
 31
0.0
  0
LINE
  5
5BD
330
5B6
100
AcDbEntity
  8
CSLAYER3
  6
CONTINUOUS
 62
     3
100
AcDbLine
 10
173.426659
 20
112.216636
 30
0.0
 11
175.426659
 21
111.680738
 31
0.0
  0
LINE
  5
5BE
330
5B6
100
AcDbEntity
  8
CSLAYER3
  6
CONTINUOUS
 62
     3
100
AcDbLine
 10
175.426659
 20
111.680738
 30
0.0
 11
173.426659
 21
111.14484
 31
0.0
  0
LINE
  5
5BF
330
5B6
100
AcDbEntity
  8
CSLAYER3
  6
CONTINUOUS
 62
     3
100
AcDbLine
 10
175.426659
 20
111.680738
 30
0.0
 11
173.426659
 21
111.680738
 31
0.0
  0
LINE
  5
5C0
330
5B6
100
AcDbEntity
  8
CSLAYER3
  6
CONTINUOUS
 62
     3
100
AcDbLine
 10
86.926659
 20
130.59469
 30
0.0
 11
86.926659
 21
110.880738
 31
0.0
  0
LINE
  5
5C1
330
5B6
100
AcDbEntity
  8
CSLAYER3
  6
CONTINUOUS
 62
     3
100
AcDbLine
 10
175.426659
 20
130.64469
 30
0.0
 11
175.426659
 21
110.880738
 31
0.0
  0
LINE
  5
5C2
330
5B6
100
AcDbEntity
  8
CSLAYER3
  6
CONTINUOUS
 62
     3
100
AcDbLine
 10
86.926659
 20
111.680738
 30
0.0
 11
175.426659
 21
111.680738
 31
0.0
  0
TEXT
  5
5C3
330
5B6
100
AcDbEntity
  8
CSLAYER3
 62
     3
100
AcDbText
 10
128.203781
 20
112.171646
 30
0.0
 40
3.0
  1
88.5
 41
0.877612
  7
ED_VECTOR
 72
     5
 11
136.603781
 21
112.171646
 31
0.0
100
AcDbText
  0
ENDBLK
  5
5B8
330
5B6
100
AcDbEntity
  8
0
100
AcDbBlockEnd
  0
BLOCK
  5
5C5
330
5C4
100
AcDbEntity
  8
0
100
AcDbBlockBegin
  2
BLKF036
 70
     0
 71
     0
 10
0.0
 20
0.0
 30
0.0
  3
BLKF036
  1

  0
LINE
  5
5C8
330
5C4
100
AcDbEntity
  8
CSLAYER3
  6
CONTINUOUS
 62
     3
100
AcDbLine
 10
62.924089
 20
145.20469
 30
0.0
 11
63.459987
 21
147.20469
 31
0.0
  0
LINE
  5
5C9
330
5C4
100
AcDbEntity
  8
CSLAYER3
  6
CONTINUOUS
 62
     3
100
AcDbLine
 10
63.459987
 20
147.20469
 30
0.0
 11
63.995885
 21
145.20469
 31
0.0
  0
LINE
  5
5CA
330
5C4
100
AcDbEntity
  8
CSLAYER3
  6
CONTINUOUS
 62
     3
100
AcDbLine
 10
63.459987
 20
147.20469
 30
0.0
 11
63.459987
 21
145.20469
 31
0.0
  0
LINE
  5
5CB
330
5C4
100
AcDbEntity
  8
CSLAYER3
  6
CONTINUOUS
 62
     3
100
AcDbLine
 10
63.995885
 20
137.40469
 30
0.0
 11
63.459987
 21
135.40469
 31
0.0
  0
LINE
  5
5CC
330
5C4
100
AcDbEntity
  8
CSLAYER3
  6
CONTINUOUS
 62
     3
100
AcDbLine
 10
63.459987
 20
135.40469
 30
0.0
 11
62.924089
 21
137.40469
 31
0.0
  0
LINE
  5
5CD
330
5C4
100
AcDbEntity
  8
CSLAYER3
  6
CONTINUOUS
 62
     3
100
AcDbLine
 10
63.459987
 20
135.40469
 30
0.0
 11
63.459987
 21
137.40469
 31
0.0
  0
LINE
  5
5CE
330
5C4
100
AcDbEntity
  8
CSLAYER3
  6
CONTINUOUS
 62
     3
100
AcDbLine
 10
79.545559
 20
147.20469
 30
0.0
 11
62.659987
 21
147.20469
 31
0.0
  0
LINE
  5
5CF
330
5C4
100
AcDbEntity
  8
CSLAYER3
  6
CONTINUOUS
 62
     3
100
AcDbLine
 10
79.545559
 20
135.40469
 30
0.0
 11
62.659987
 21
135.40469
 31
0.0
  0
LINE
  5
5D0
330
5C4
100
AcDbEntity
  8
CSLAYER3
  6
CONTINUOUS
 62
     3
100
AcDbLine
 10
63.459987
 20
147.20469
 30
0.0
 11
63.459987
 21
135.40469
 31
0.0
  0
TEXT
  5
5D1
330
5C4
100
AcDbEntity
  8
CSLAYER3
 62
     3
100
AcDbText
 10
62.969078
 20
136.674026
 30
0.0
 40
3.0
  1
%%c
 50
90.0
 41
0.864706
  7
ED_VECTOR
 72
     5
 11
62.969078
 21
138.774026
 31
0.0
100
AcDbText
  0
TEXT
  5
5D2
330
5C4
100
AcDbEntity
  8
CSLAYER3
 62
     3
100
AcDbText
 10
62.969078
 20
139.989594
 30
0.0
 40
3.0
  1
11.8
 50
90.0
 41
0.877612
  7
ED_VECTOR
 72
     5
 11
62.969078
 21
148.389593
 31
0.0
100
AcDbText
  0
ENDBLK
  5
5C6
330
5C4
100
AcDbEntity
  8
0
100
AcDbBlockEnd
  0
BLOCK
  5
61B
330
61A
100
AcDbEntity
  8
0
100
AcDbBlockBegin
  2
BLKF037
 70
     0
 71
     0
 10
0.0
 20
0.0
 30
0.0
  3
BLKF037
  1

  0
LINE
  5
61E
330
61A
100
AcDbEntity
  8
0
  6
CONTINUOUS
 62
     7
100
AcDbLine
 10
245.644096
 20
156.843894
 30
0.0
 11
245.789667
 21
156.741955
 31
0.0
  0
LINE
  5
61F
330
61A
100
AcDbEntity
  8
0
  6
CONTINUOUS
 62
     7
100
AcDbLine
 10
245.789667
 20
156.741955
 30
0.0
 11
246.213443
 21
156.445228
 31
0.0
  0
LINE
  5
620
330
61A
100
AcDbEntity
  8
0
  6
CONTINUOUS
 62
     7
100
AcDbLine
 10
246.213443
 20
156.445228
 30
0.0
 11
246.877773
 21
155.980059
 31
0.0
  0
LINE
  5
621
330
61A
100
AcDbEntity
  8
0
  6
CONTINUOUS
 62
     7
100
AcDbLine
 10
246.877773
 20
155.980059
 30
0.0
 11
247.723625
 21
155.387782
 31
0.0
  0
LINE
  5
622
330
61A
100
AcDbEntity
  8
0
  6
CONTINUOUS
 62
     7
100
AcDbLine
 10
247.723625
 20
155.387782
 30
0.0
 11
248.675843
 21
154.72103
 31
0.0
  0
LINE
  5
623
330
61A
100
AcDbEntity
  8
0
  6
CONTINUOUS
 62
     7
100
AcDbLine
 10
248.675843
 20
154.72103
 30
0.0
 11
249.649818
 21
154.039048
 31
0.0
  0
LINE
  5
624
330
61A
100
AcDbEntity
  8
0
  6
CONTINUOUS
 62
     7
100
AcDbLine
 10
249.649818
 20
154.039048
 30
0.0
 11
250.559009
 21
153.402426
 31
0.0
  0
LINE
  5
625
330
61A
100
AcDbEntity
  8
0
  6
CONTINUOUS
 62
     7
100
AcDbLine
 10
250.559009
 20
153.402426
 30
0.0
 11
251.322628
 21
152.867742
 31
0.0
  0
LINE
  5
626
330
61A
100
AcDbEntity
  8
0
  6
CONTINUOUS
 62
     7
100
AcDbLine
 10
251.322628
 20
152.867742
 30
0.0
 11
251.872827
 21
152.482488
 31
0.0
  0
LINE
  5
627
330
61A
100
AcDbEntity
  8
0
  6
CONTINUOUS
 62
     7
100
AcDbLine
 10
251.872827
 20
152.482488
 30
0.0
 11
252.160716
 21
152.280905
 31
0.0
  0
LINE
  5
628
330
61A
100
AcDbEntity
  8
0
  6
CONTINUOUS
 62
     7
100
AcDbLine
 10
252.160716
 20
152.280905
 30
0.0
 11
252.197313
 21
152.255275
 31
0.0
  0
ENDBLK
  5
61C
330
61A
100
AcDbEntity
  8
0
100
AcDbBlockEnd
  0
BLOCK
  5
62A
330
629
100
AcDbEntity
  8
0
100
AcDbBlockBegin
  2
BLKF038
 70
     0
 71
     0
 10
0.0
 20
0.0
 30
0.0
  3
BLKF038
  1

  0
LINE
  5
62D
330
629
100
AcDbEntity
  8
0
  6
CONTINUOUS
 62
     7
100
AcDbLine
 10
247.035125
 20
144.882911
 30
0.0
 11
246.998528
 21
144.908541
 31
0.0
  0
LINE
  5
62E
330
629
100
AcDbEntity
  8
0
  6
CONTINUOUS
 62
     7
100
AcDbLine
 10
246.998528
 20
144.908541
 30
0.0
 11
246.710639
 21
145.110109
 31
0.0
  0
LINE
  5
62F
330
629
100
AcDbEntity
  8
0
  6
CONTINUOUS
 62
     7
100
AcDbLine
 10
246.710639
 20
145.110109
 30
0.0
 11
246.16044
 21
145.495363
 31
0.0
  0
LINE
  5
630
330
629
100
AcDbEntity
  8
0
  6
CONTINUOUS
 62
     7
100
AcDbLine
 10
246.16044
 20
145.495363
 30
0.0
 11
245.396821
 21
146.030062
 31
0.0
  0
LINE
  5
631
330
629
100
AcDbEntity
  8
0
  6
CONTINUOUS
 62
     7
100
AcDbLine
 10
245.396821
 20
146.030062
 30
0.0
 11
244.48763
 21
146.666684
 31
0.0
  0
LINE
  5
632
330
629
100
AcDbEntity
  8
0
  6
CONTINUOUS
 62
     7
100
AcDbLine
 10
244.48763
 20
146.666684
 30
0.0
 11
243.513655
 21
147.348665
 31
0.0
  0
LINE
  5
633
330
629
100
AcDbEntity
  8
0
  6
CONTINUOUS
 62
     7
100
AcDbLine
 10
243.513655
 20
147.348665
 30
0.0
 11
242.561437
 21
148.015418
 31
0.0
  0
LINE
  5
634
330
629
100
AcDbEntity
  8
0
  6
CONTINUOUS
 62
     7
100
AcDbLine
 10
242.561437
 20
148.015418
 30
0.0
 11
241.715585
 21
148.607694
 31
0.0
  0
LINE
  5
635
330
629
100
AcDbEntity
  8
0
  6
CONTINUOUS
 62
     7
100
AcDbLine
 10
241.715585
 20
148.607694
 30
0.0
 11
241.051256
 21
149.072864
 31
0.0
  0
LINE
  5
636
330
629
100
AcDbEntity
  8
0
  6
CONTINUOUS
 62
     7
100
AcDbLine
 10
241.051256
 20
149.072864
 30
0.0
 11
240.627479
 21
149.369591
 31
0.0
  0
LINE
  5
637
330
629
100
AcDbEntity
  8
0
  6
CONTINUOUS
 62
     7
100
AcDbLine
 10
240.627479
 20
149.369591
 30
0.0
 11
240.481908
 21
149.471515
 31
0.0
  0
ENDBLK
  5
62B
330
629
100
AcDbEntity
  8
0
100
AcDbBlockEnd
  0
BLOCK
  5
639
330
638
100
AcDbEntity
  8
0
100
AcDbBlockBegin
  2
BLKF039
 70
     0
 71
     0
 10
0.0
 20
0.0
 30
0.0
  3
BLKF039
  1

  0
LINE
  5
63C
330
638
100
AcDbEntity
  8
0
  6
CONTINUOUS
 62
     7
100
AcDbLine
 10
246.0292
 20
157.306694
 30
0.0
 11
246.172951
 21
157.206052
 31
0.0
  0
LINE
  5
63D
330
638
100
AcDbEntity
  8
0
  6
CONTINUOUS
 62
     7
100
AcDbLine
 10
246.172951
 20
157.206052
 30
0.0
 11
246.591431
 21
156.91302
 31
0.0
  0
LINE
  5
63E
330
638
100
AcDbEntity
  8
0
  6
CONTINUOUS
 62
     7
100
AcDbLine
 10
246.591431
 20
156.91302
 30
0.0
 11
247.247455
 21
156.453662
 31
0.0
  0
LINE
  5
63F
330
638
100
AcDbEntity
  8
0
  6
CONTINUOUS
 62
     7
100
AcDbLine
 10
247.247455
 20
156.453662
 30
0.0
 11
248.082735
 21
155.868807
 31
0.0
  0
LINE
  5
640
330
638
100
AcDbEntity
  8
0
  6
CONTINUOUS
 62
     7
100
AcDbLine
 10
248.082735
 20
155.868807
 30
0.0
 11
249.02305
 21
155.210384
 31
0.0
  0
LINE
  5
641
330
638
100
AcDbEntity
  8
0
  6
CONTINUOUS
 62
     7
100
AcDbLine
 10
249.02305
 20
155.210384
 30
0.0
 11
249.984851
 21
154.536926
 31
0.0
  0
LINE
  5
642
330
638
100
AcDbEntity
  8
0
  6
CONTINUOUS
 62
     7
100
AcDbLine
 10
249.984851
 20
154.536926
 30
0.0
 11
250.882676
 21
153.908261
 31
0.0
  0
LINE
  5
643
330
638
100
AcDbEntity
  8
0
  6
CONTINUOUS
 62
     7
100
AcDbLine
 10
250.882676
 20
153.908261
 30
0.0
 11
251.63675
 21
153.380253
 31
0.0
  0
LINE
  5
644
330
638
100
AcDbEntity
  8
0
  6
CONTINUOUS
 62
     7
100
AcDbLine
 10
251.63675
 20
153.380253
 30
0.0
 11
252.180071
 21
152.999811
 31
0.0
  0
LINE
  5
645
330
638
100
AcDbEntity
  8
0
  6
CONTINUOUS
 62
     7
100
AcDbLine
 10
252.180071
 20
152.999811
 30
0.0
 11
252.464362
 21
152.800747
 31
0.0
  0
LINE
  5
646
330
638
100
AcDbEntity
  8
0
  6
CONTINUOUS
 62
     7
100
AcDbLine
 10
252.464362
 20
152.800747
 30
0.0
 11
252.500501
 21
152.775445
 31
0.0
  0
ENDBLK
  5
63A
330
638
100
AcDbEntity
  8
0
100
AcDbBlockEnd
  0
BLOCK
  5
648
330
647
100
AcDbEntity
  8
0
100
AcDbBlockBegin
  2
BLKF040
 70
     0
 71
     0
 10
0.0
 20
0.0
 30
0.0
  3
BLKF040
  1

  0
LINE
  5
64B
330
647
100
AcDbEntity
  8
0
  6
CONTINUOUS
 62
     7
100
AcDbLine
 10
247.299141
 20
158.248641
 30
0.0
 11
247.452265
 21
158.141427
 31
0.0
  0
LINE
  5
64C
330
647
100
AcDbEntity
  8
0
  6
CONTINUOUS
 62
     7
100
AcDbLine
 10
247.452265
 20
158.141427
 30
0.0
 11
247.895046
 21
157.831379
 31
0.0
  0
LINE
  5
64D
330
647
100
AcDbEntity
  8
0
  6
CONTINUOUS
 62
     7
100
AcDbLine
 10
247.895046
 20
157.831379
 30
0.0
 11
248.579499
 21
157.352128
 31
0.0
  0
LINE
  5
64E
330
647
100
AcDbEntity
  8
0
  6
CONTINUOUS
 62
     7
100
AcDbLine
 10
248.579499
 20
157.352128
 30
0.0
 11
249.431455
 21
156.755575
 31
0.0
  0
LINE
  5
64F
330
647
100
AcDbEntity
  8
0
  6
CONTINUOUS
 62
     7
100
AcDbLine
 10
249.431455
 20
156.755575
 30
0.0
 11
250.35859
 21
156.106391
 31
0.0
  0
LINE
  5
650
330
647
100
AcDbEntity
  8
0
  6
CONTINUOUS
 62
     7
100
AcDbLine
 10
250.35859
 20
156.106391
 30
0.0
 11
251.260437
 21
155.474909
 31
0.0
  0
LINE
  5
651
330
647
100
AcDbEntity
  8
0
  6
CONTINUOUS
 62
     7
100
AcDbLine
 10
251.260437
 20
155.474909
 30
0.0
 11
252.039263
 21
154.929571
 31
0.0
  0
LINE
  5
652
330
647
100
AcDbEntity
  8
0
  6
CONTINUOUS
 62
     7
100
AcDbLine
 10
252.039263
 20
154.929571
 30
0.0
 11
252.610675
 21
154.52946
 31
0.0
  0
LINE
  5
653
330
647
100
AcDbEntity
  8
0
  6
CONTINUOUS
 62
     7
100
AcDbLine
 10
252.610675
 20
154.52946
 30
0.0
 11
252.912745
 21
154.317953
 31
0.0
  0
LINE
  5
654
330
647
100
AcDbEntity
  8
0
  6
CONTINUOUS
 62
     7
100
AcDbLine
 10
252.912745
 20
154.317953
 30
0.0
 11
252.951289
 21
154.290967
 31
0.0
  0
ENDBLK
  5
649
330
647
100
AcDbEntity
  8
0
100
AcDbBlockEnd
  0
BLOCK
  5
659
330
658
100
AcDbEntity
  8
0
100
AcDbBlockBegin
  2
BLKF041
 70
     0
 71
     0
 10
0.0
 20
0.0
 30
0.0
  3
BLKF041
  1

  0
LINE
  5
65C
330
658
100
AcDbEntity
  8
0
  6
CONTINUOUS
 62
     7
100
AcDbLine
 10
239.92075
 20
163.459041
 30
0.0
 11
239.92075
 21
163.474136
 31
0.0
  0
LINE
  5
65D
330
658
100
AcDbEntity
  8
0
  6
CONTINUOUS
 62
     7
100
AcDbLine
 10
239.92075
 20
163.474136
 30
0.0
 11
239.92075
 21
163.249769
 31
0.0
  0
LINE
  5
65E
330
658
100
AcDbEntity
  8
0
  6
CONTINUOUS
 62
     7
100
AcDbLine
 10
239.92075
 20
163.249769
 30
0.0
 11
239.92075
 21
162.609988
 31
0.0
  0
ENDBLK
  5
65A
330
658
100
AcDbEntity
  8
0
100
AcDbBlockEnd
  0
BLOCK
  5
661
330
660
100
AcDbEntity
  8
0
100
AcDbBlockBegin
  2
BLKF042
 70
     0
 71
     0
 10
0.0
 20
0.0
 30
0.0
  3
BLKF042
  1

  0
LINE
  5
664
330
660
100
AcDbEntity
  8
0
  6
CONTINUOUS
 62
     7
100
AcDbLine
 10
239.247406
 20
162.609988
 30
0.0
 11
239.220269
 21
162.631506
 31
0.0
  0
LINE
  5
665
330
660
100
AcDbEntity
  8
0
  6
CONTINUOUS
 62
     7
100
AcDbLine
 10
239.220269
 20
162.631506
 30
0.0
 11
239.193072
 21
162.652948
 31
0.0
  0
LINE
  5
666
330
660
100
AcDbEntity
  8
0
  6
CONTINUOUS
 62
     7
100
AcDbLine
 10
239.193072
 20
162.652948
 30
0.0
 11
239.173905
 21
162.667923
 31
0.0
  0
LINE
  5
667
330
660
100
AcDbEntity
  8
0
  6
CONTINUOUS
 62
     7
100
AcDbLine
 10
239.173905
 20
162.667923
 30
0.0
 11
239.154678
 21
162.682821
 31
0.0
  0
LINE
  5
668
330
660
100
AcDbEntity
  8
0
  6
CONTINUOUS
 62
     7
100
AcDbLine
 10
239.154678
 20
162.682821
 30
0.0
 11
239.13539
 21
162.69764
 31
0.0
  0
LINE
  5
669
330
660
100
AcDbEntity
  8
0
  6
CONTINUOUS
 62
     7
100
AcDbLine
 10
239.13539
 20
162.69764
 30
0.0
 11
239.116041
 21
162.712377
 31
0.0
  0
LINE
  5
66A
330
660
100
AcDbEntity
  8
0
  6
CONTINUOUS
 62
     7
100
AcDbLine
 10
239.116041
 20
162.712377
 30
0.0
 11
239.09663
 21
162.727033
 31
0.0
  0
LINE
  5
66B
330
660
100
AcDbEntity
  8
0
  6
CONTINUOUS
 62
     7
100
AcDbLine
 10
239.09663
 20
162.727033
 30
0.0
 11
239.077157
 21
162.741605
 31
0.0
  0
LINE
  5
66C
330
660
100
AcDbEntity
  8
0
  6
CONTINUOUS
 62
     7
100
AcDbLine
 10
239.077157
 20
162.741605
 30
0.0
 11
239.05762
 21
162.756092
 31
0.0
  0
LINE
  5
66D
330
660
100
AcDbEntity
  8
0
  6
CONTINUOUS
 62
     7
100
AcDbLine
 10
239.05762
 20
162.756092
 30
0.0
 11
239.038019
 21
162.770493
 31
0.0
  0
LINE
  5
66E
330
660
100
AcDbEntity
  8
0
  6
CONTINUOUS
 62
     7
100
AcDbLine
 10
239.038019
 20
162.770493
 30
0.0
 11
239.018353
 21
162.784806
 31
0.0
  0
LINE
  5
66F
330
660
100
AcDbEntity
  8
0
  6
CONTINUOUS
 62
     7
100
AcDbLine
 10
239.018353
 20
162.784806
 30
0.0
 11
238.998622
 21
162.799029
 31
0.0
  0
LINE
  5
670
330
660
100
AcDbEntity
  8
0
  6
CONTINUOUS
 62
     7
100
AcDbLine
 10
238.998622
 20
162.799029
 30
0.0
 11
238.978825
 21
162.813163
 31
0.0
  0
LINE
  5
671
330
660
100
AcDbEntity
  8
0
  6
CONTINUOUS
 62
     7
100
AcDbLine
 10
238.978825
 20
162.813163
 30
0.0
 11
238.958961
 21
162.827204
 31
0.0
  0
LINE
  5
672
330
660
100
AcDbEntity
  8
0
  6
CONTINUOUS
 62
     7
100
AcDbLine
 10
238.958961
 20
162.827204
 30
0.0
 11
238.93903
 21
162.841151
 31
0.0
  0
LINE
  5
673
330
660
100
AcDbEntity
  8
0
  6
CONTINUOUS
 62
     7
100
AcDbLine
 10
238.93903
 20
162.841151
 30
0.0
 11
238.91903
 21
162.855004
 31
0.0
  0
LINE
  5
674
330
660
100
AcDbEntity
  8
0
  6
CONTINUOUS
 62
     7
100
AcDbLine
 10
238.91903
 20
162.855004
 30
0.0
 11
238.898962
 21
162.868761
 31
0.0
  0
LINE
  5
675
330
660
100
AcDbEntity
  8
0
  6
CONTINUOUS
 62
     7
100
AcDbLine
 10
238.898962
 20
162.868761
 30
0.0
 11
238.878824
 21
162.88242
 31
0.0
  0
LINE
  5
676
330
660
100
AcDbEntity
  8
0
  6
CONTINUOUS
 62
     7
100
AcDbLine
 10
238.878824
 20
162.88242
 30
0.0
 11
238.858617
 21
162.89598
 31
0.0
  0
LINE
  5
677
330
660
100
AcDbEntity
  8
0
  6
CONTINUOUS
 62
     7
100
AcDbLine
 10
238.858617
 20
162.89598
 30
0.0
 11
238.838338
 21
162.90944
 31
0.0
  0
LINE
  5
678
330
660
100
AcDbEntity
  8
0
  6
CONTINUOUS
 62
     7
100
AcDbLine
 10
238.838338
 20
162.90944
 30
0.0
 11
238.817988
 21
162.922798
 31
0.0
  0
LINE
  5
679
330
660
100
AcDbEntity
  8
0
  6
CONTINUOUS
 62
     7
100
AcDbLine
 10
238.817988
 20
162.922798
 30
0.0
 11
238.797566
 21
162.936052
 31
0.0
  0
LINE
  5
67A
330
660
100
AcDbEntity
  8
0
  6
CONTINUOUS
 62
     7
100
AcDbLine
 10
238.797566
 20
162.936052
 30
0.0
 11
238.77707
 21
162.949202
 31
0.0
  0
LINE
  5
67B
330
660
100
AcDbEntity
  8
0
  6
CONTINUOUS
 62
     7
100
AcDbLine
 10
238.77707
 20
162.949202
 30
0.0
 11
238.756502
 21
162.962246
 31
0.0
  0
LINE
  5
67C
330
660
100
AcDbEntity
  8
0
  6
CONTINUOUS
 62
     7
100
AcDbLine
 10
238.756502
 20
162.962246
 30
0.0
 11
238.735859
 21
162.975183
 31
0.0
  0
LINE
  5
67D
330
660
100
AcDbEntity
  8
0
  6
CONTINUOUS
 62
     7
100
AcDbLine
 10
238.735859
 20
162.975183
 30
0.0
 11
238.715141
 21
162.98801
 31
0.0
  0
LINE
  5
67E
330
660
100
AcDbEntity
  8
0
  6
CONTINUOUS
 62
     7
100
AcDbLine
 10
238.715141
 20
162.98801
 30
0.0
 11
238.694348
 21
163.000727
 31
0.0
  0
LINE
  5
67F
330
660
100
AcDbEntity
  8
0
  6
CONTINUOUS
 62
     7
100
AcDbLine
 10
238.694348
 20
163.000727
 30
0.0
 11
238.673478
 21
163.013333
 31
0.0
  0
LINE
  5
680
330
660
100
AcDbEntity
  8
0
  6
CONTINUOUS
 62
     7
100
AcDbLine
 10
238.673478
 20
163.013333
 30
0.0
 11
238.652532
 21
163.025825
 31
0.0
  0
LINE
  5
681
330
660
100
AcDbEntity
  8
0
  6
CONTINUOUS
 62
     7
100
AcDbLine
 10
238.652532
 20
163.025825
 30
0.0
 11
238.631508
 21
163.038203
 31
0.0
  0
LINE
  5
682
330
660
100
AcDbEntity
  8
0
  6
CONTINUOUS
 62
     7
100
AcDbLine
 10
238.631508
 20
163.038203
 30
0.0
 11
238.610405
 21
163.050465
 31
0.0
  0
LINE
  5
683
330
660
100
AcDbEntity
  8
0
  6
CONTINUOUS
 62
     7
100
AcDbLine
 10
238.610405
 20
163.050465
 30
0.0
 11
238.589224
 21
163.06261
 31
0.0
  0
LINE
  5
684
330
660
100
AcDbEntity
  8
0
  6
CONTINUOUS
 62
     7
100
AcDbLine
 10
238.589224
 20
163.06261
 30
0.0
 11
238.567963
 21
163.074636
 31
0.0
  0
LINE
  5
685
330
660
100
AcDbEntity
  8
0
  6
CONTINUOUS
 62
     7
100
AcDbLine
 10
238.567963
 20
163.074636
 30
0.0
 11
238.546622
 21
163.086542
 31
0.0
  0
LINE
  5
686
330
660
100
AcDbEntity
  8
0
  6
CONTINUOUS
 62
     7
100
AcDbLine
 10
238.546622
 20
163.086542
 30
0.0
 11
238.517436
 21
163.102555
 31
0.0
  0
LINE
  5
687
330
660
100
AcDbEntity
  8
0
  6
CONTINUOUS
 62
     7
100
AcDbLine
 10
238.517436
 20
163.102555
 30
0.0
 11
238.488102
 21
163.118336
 31
0.0
  0
LINE
  5
688
330
660
100
AcDbEntity
  8
0
  6
CONTINUOUS
 62
     7
100
AcDbLine
 10
238.488102
 20
163.118336
 30
0.0
 11
238.458622
 21
163.133876
 31
0.0
  0
LINE
  5
689
330
660
100
AcDbEntity
  8
0
  6
CONTINUOUS
 62
     7
100
AcDbLine
 10
238.458622
 20
163.133876
 30
0.0
 11
238.428998
 21
163.149168
 31
0.0
  0
LINE
  5
68A
330
660
100
AcDbEntity
  8
0
  6
CONTINUOUS
 62
     7
100
AcDbLine
 10
238.428998
 20
163.149168
 30
0.0
 11
238.399232
 21
163.164205
 31
0.0
  0
LINE
  5
68B
330
660
100
AcDbEntity
  8
0
  6
CONTINUOUS
 62
     7
100
AcDbLine
 10
238.399232
 20
163.164205
 30
0.0
 11
238.369327
 21
163.178978
 31
0.0
  0
LINE
  5
68C
330
660
100
AcDbEntity
  8
0
  6
CONTINUOUS
 62
     7
100
AcDbLine
 10
238.369327
 20
163.178978
 30
0.0
 11
238.339284
 21
163.193481
 31
0.0
  0
LINE
  5
68D
330
660
100
AcDbEntity
  8
0
  6
CONTINUOUS
 62
     7
100
AcDbLine
 10
238.339284
 20
163.193481
 30
0.0
 11
238.309105
 21
163.207705
 31
0.0
  0
LINE
  5
68E
330
660
100
AcDbEntity
  8
0
  6
CONTINUOUS
 62
     7
100
AcDbLine
 10
238.309105
 20
163.207705
 30
0.0
 11
238.278793
 21
163.221644
 31
0.0
  0
LINE
  5
68F
330
660
100
AcDbEntity
  8
0
  6
CONTINUOUS
 62
     7
100
AcDbLine
 10
238.278793
 20
163.221644
 30
0.0
 11
238.24835
 21
163.235289
 31
0.0
  0
LINE
  5
690
330
660
100
AcDbEntity
  8
0
  6
CONTINUOUS
 62
     7
100
AcDbLine
 10
238.24835
 20
163.235289
 30
0.0
 11
238.23308
 21
163.241999
 31
0.0
  0
LINE
  5
691
330
660
100
AcDbEntity
  8
0
  6
CONTINUOUS
 62
     7
100
AcDbLine
 10
238.23308
 20
163.241999
 30
0.0
 11
238.217778
 21
163.248633
 31
0.0
  0
LINE
  5
692
330
660
100
AcDbEntity
  8
0
  6
CONTINUOUS
 62
     7
100
AcDbLine
 10
238.217778
 20
163.248633
 30
0.0
 11
238.202444
 21
163.25519
 31
0.0
  0
LINE
  5
693
330
660
100
AcDbEntity
  8
0
  6
CONTINUOUS
 62
     7
100
AcDbLine
 10
238.202444
 20
163.25519
 30
0.0
 11
238.187078
 21
163.261669
 31
0.0
  0
LINE
  5
694
330
660
100
AcDbEntity
  8
0
  6
CONTINUOUS
 62
     7
100
AcDbLine
 10
238.187078
 20
163.261669
 30
0.0
 11
238.171682
 21
163.268069
 31
0.0
  0
LINE
  5
695
330
660
100
AcDbEntity
  8
0
  6
CONTINUOUS
 62
     7
100
AcDbLine
 10
238.171682
 20
163.268069
 30
0.0
 11
238.156254
 21
163.274388
 31
0.0
  0
LINE
  5
696
330
660
100
AcDbEntity
  8
0
  6
CONTINUOUS
 62
     7
100
AcDbLine
 10
238.156254
 20
163.274388
 30
0.0
 11
238.140796
 21
163.280627
 31
0.0
  0
LINE
  5
697
330
660
100
AcDbEntity
  8
0
  6
CONTINUOUS
 62
     7
100
AcDbLine
 10
238.140796
 20
163.280627
 30
0.0
 11
238.125307
 21
163.286784
 31
0.0
  0
LINE
  5
698
330
660
100
AcDbEntity
  8
0
  6
CONTINUOUS
 62
     7
100
AcDbLine
 10
238.125307
 20
163.286784
 30
0.0
 11
238.109788
 21
163.292858
 31
0.0
  0
LINE
  5
699
330
660
100
AcDbEntity
  8
0
  6
CONTINUOUS
 62
     7
100
AcDbLine
 10
238.109788
 20
163.292858
 30
0.0
 11
238.094238
 21
163.298849
 31
0.0
  0
LINE
  5
69A
330
660
100
AcDbEntity
  8
0
  6
CONTINUOUS
 62
     7
100
AcDbLine
 10
238.094238
 20
163.298849
 30
0.0
 11
238.07866
 21
163.304754
 31
0.0
  0
LINE
  5
69B
330
660
100
AcDbEntity
  8
0
  6
CONTINUOUS
 62
     7
100
AcDbLine
 10
238.07866
 20
163.304754
 30
0.0
 11
238.063052
 21
163.310574
 31
0.0
  0
LINE
  5
69C
330
660
100
AcDbEntity
  8
0
  6
CONTINUOUS
 62
     7
100
AcDbLine
 10
238.063052
 20
163.310574
 30
0.0
 11
238.047414
 21
163.316308
 31
0.0
  0
LINE
  5
69D
330
660
100
AcDbEntity
  8
0
  6
CONTINUOUS
 62
     7
100
AcDbLine
 10
238.047414
 20
163.316308
 30
0.0
 11
238.031748
 21
163.321954
 31
0.0
  0
LINE
  5
69E
330
660
100
AcDbEntity
  8
0
  6
CONTINUOUS
 62
     7
100
AcDbLine
 10
238.031748
 20
163.321954
 30
0.0
 11
238.016053
 21
163.327511
 31
0.0
  0
LINE
  5
69F
330
660
100
AcDbEntity
  8
0
  6
CONTINUOUS
 62
     7
100
AcDbLine
 10
238.016053
 20
163.327511
 30
0.0
 11
238.00033
 21
163.332979
 31
0.0
  0
LINE
  5
6A0
330
660
100
AcDbEntity
  8
0
  6
CONTINUOUS
 62
     7
100
AcDbLine
 10
238.00033
 20
163.332979
 30
0.0
 11
237.984579
 21
163.338357
 31
0.0
  0
LINE
  5
6A1
330
660
100
AcDbEntity
  8
0
  6
CONTINUOUS
 62
     7
100
AcDbLine
 10
237.984579
 20
163.338357
 30
0.0
 11
237.9688
 21
163.343643
 31
0.0
  0
LINE
  5
6A2
330
660
100
AcDbEntity
  8
0
  6
CONTINUOUS
 62
     7
100
AcDbLine
 10
237.9688
 20
163.343643
 30
0.0
 11
237.952993
 21
163.348837
 31
0.0
  0
LINE
  5
6A3
330
660
100
AcDbEntity
  8
0
  6
CONTINUOUS
 62
     7
100
AcDbLine
 10
237.952993
 20
163.348837
 30
0.0
 11
237.937159
 21
163.353937
 31
0.0
  0
LINE
  5
6A4
330
660
100
AcDbEntity
  8
0
  6
CONTINUOUS
 62
     7
100
AcDbLine
 10
237.937159
 20
163.353937
 30
0.0
 11
237.921298
 21
163.358944
 31
0.0
  0
LINE
  5
6A5
330
660
100
AcDbEntity
  8
0
  6
CONTINUOUS
 62
     7
100
AcDbLine
 10
237.921298
 20
163.358944
 30
0.0
 11
237.90541
 21
163.363855
 31
0.0
  0
LINE
  5
6A6
330
660
100
AcDbEntity
  8
0
  6
CONTINUOUS
 62
     7
100
AcDbLine
 10
237.90541
 20
163.363855
 30
0.0
 11
237.889495
 21
163.368671
 31
0.0
  0
LINE
  5
6A7
330
660
100
AcDbEntity
  8
0
  6
CONTINUOUS
 62
     7
100
AcDbLine
 10
237.889495
 20
163.368671
 30
0.0
 11
237.873554
 21
163.373389
 31
0.0
  0
LINE
  5
6A8
330
660
100
AcDbEntity
  8
0
  6
CONTINUOUS
 62
     7
100
AcDbLine
 10
237.873554
 20
163.373389
 30
0.0
 11
237.857588
 21
163.37801
 31
0.0
  0
LINE
  5
6A9
330
660
100
AcDbEntity
  8
0
  6
CONTINUOUS
 62
     7
100
AcDbLine
 10
237.857588
 20
163.37801
 30
0.0
 11
237.841595
 21
163.382531
 31
0.0
  0
LINE
  5
6AA
330
660
100
AcDbEntity
  8
0
  6
CONTINUOUS
 62
     7
100
AcDbLine
 10
237.841595
 20
163.382531
 30
0.0
 11
237.825577
 21
163.386953
 31
0.0
  0
LINE
  5
6AB
330
660
100
AcDbEntity
  8
0
  6
CONTINUOUS
 62
     7
100
AcDbLine
 10
237.825577
 20
163.386953
 30
0.0
 11
237.809534
 21
163.391274
 31
0.0
  0
LINE
  5
6AC
330
660
100
AcDbEntity
  8
0
  6
CONTINUOUS
 62
     7
100
AcDbLine
 10
237.809534
 20
163.391274
 30
0.0
 11
237.793466
 21
163.395493
 31
0.0
  0
LINE
  5
6AD
330
660
100
AcDbEntity
  8
0
  6
CONTINUOUS
 62
     7
100
AcDbLine
 10
237.793466
 20
163.395493
 30
0.0
 11
237.777373
 21
163.399609
 31
0.0
  0
LINE
  5
6AE
330
660
100
AcDbEntity
  8
0
  6
CONTINUOUS
 62
     7
100
AcDbLine
 10
237.777373
 20
163.399609
 30
0.0
 11
237.761255
 21
163.403622
 31
0.0
  0
LINE
  5
6AF
330
660
100
AcDbEntity
  8
0
  6
CONTINUOUS
 62
     7
100
AcDbLine
 10
237.761255
 20
163.403622
 30
0.0
 11
237.745114
 21
163.40753
 31
0.0
  0
LINE
  5
6B0
330
660
100
AcDbEntity
  8
0
  6
CONTINUOUS
 62
     7
100
AcDbLine
 10
237.745114
 20
163.40753
 30
0.0
 11
237.728948
 21
163.411333
 31
0.0
  0
LINE
  5
6B1
330
660
100
AcDbEntity
  8
0
  6
CONTINUOUS
 62
     7
100
AcDbLine
 10
237.728948
 20
163.411333
 30
0.0
 11
237.712759
 21
163.415029
 31
0.0
  0
LINE
  5
6B2
330
660
100
AcDbEntity
  8
0
  6
CONTINUOUS
 62
     7
100
AcDbLine
 10
237.712759
 20
163.415029
 30
0.0
 11
237.696547
 21
163.418618
 31
0.0
  0
LINE
  5
6B3
330
660
100
AcDbEntity
  8
0
  6
CONTINUOUS
 62
     7
100
AcDbLine
 10
237.696547
 20
163.418618
 30
0.0
 11
237.680311
 21
163.422099
 31
0.0
  0
LINE
  5
6B4
330
660
100
AcDbEntity
  8
0
  6
CONTINUOUS
 62
     7
100
AcDbLine
 10
237.680311
 20
163.422099
 30
0.0
 11
237.664053
 21
163.42547
 31
0.0
  0
LINE
  5
6B5
330
660
100
AcDbEntity
  8
0
  6
CONTINUOUS
 62
     7
100
AcDbLine
 10
237.664053
 20
163.42547
 30
0.0
 11
237.647771
 21
163.428731
 31
0.0
  0
LINE
  5
6B6
330
660
100
AcDbEntity
  8
0
  6
CONTINUOUS
 62
     7
100
AcDbLine
 10
237.647771
 20
163.428731
 30
0.0
 11
237.631468
 21
163.43188
 31
0.0
  0
LINE
  5
6B7
330
660
100
AcDbEntity
  8
0
  6
CONTINUOUS
 62
     7
100
AcDbLine
 10
237.631468
 20
163.43188
 30
0.0
 11
237.615142
 21
163.434918
 31
0.0
  0
LINE
  5
6B8
330
660
100
AcDbEntity
  8
0
  6
CONTINUOUS
 62
     7
100
AcDbLine
 10
237.615142
 20
163.434918
 30
0.0
 11
237.598795
 21
163.437842
 31
0.0
  0
LINE
  5
6B9
330
660
100
AcDbEntity
  8
0
  6
CONTINUOUS
 62
     7
100
AcDbLine
 10
237.598795
 20
163.437842
 30
0.0
 11
237.582426
 21
163.440653
 31
0.0
  0
LINE
  5
6BA
330
660
100
AcDbEntity
  8
0
  6
CONTINUOUS
 62
     7
100
AcDbLine
 10
237.582426
 20
163.440653
 30
0.0
 11
237.566036
 21
163.443348
 31
0.0
  0
LINE
  5
6BB
330
660
100
AcDbEntity
  8
0
  6
CONTINUOUS
 62
     7
100
AcDbLine
 10
237.566036
 20
163.443348
 30
0.0
 11
237.549625
 21
163.445928
 31
0.0
  0
LINE
  5
6BC
330
660
100
AcDbEntity
  8
0
  6
CONTINUOUS
 62
     7
100
AcDbLine
 10
237.549625
 20
163.445928
 30
0.0
 11
237.533302
 21
163.448375
 31
0.0
  0
LINE
  5
6BD
330
660
100
AcDbEntity
  8
0
  6
CONTINUOUS
 62
     7
100
AcDbLine
 10
237.533302
 20
163.448375
 30
0.0
 11
237.516961
 21
163.450706
 31
0.0
  0
LINE
  5
6BE
330
660
100
AcDbEntity
  8
0
  6
CONTINUOUS
 62
     7
100
AcDbLine
 10
237.516961
 20
163.450706
 30
0.0
 11
237.5006
 21
163.452923
 31
0.0
  0
LINE
  5
6BF
330
660
100
AcDbEntity
  8
0
  6
CONTINUOUS
 62
     7
100
AcDbLine
 10
237.5006
 20
163.452923
 30
0.0
 11
237.484221
 21
163.455026
 31
0.0
  0
LINE
  5
6C0
330
660
100
AcDbEntity
  8
0
  6
CONTINUOUS
 62
     7
100
AcDbLine
 10
237.484221
 20
163.455026
 30
0.0
 11
237.467825
 21
163.457014
 31
0.0
  0
LINE
  5
6C1
330
660
100
AcDbEntity
  8
0
  6
CONTINUOUS
 62
     7
100
AcDbLine
 10
237.467825
 20
163.457014
 30
0.0
 11
237.451412
 21
163.458888
 31
0.0
  0
LINE
  5
6C2
330
660
100
AcDbEntity
  8
0
  6
CONTINUOUS
 62
     7
100
AcDbLine
 10
237.451412
 20
163.458888
 30
0.0
 11
237.434984
 21
163.460649
 31
0.0
  0
LINE
  5
6C3
330
660
100
AcDbEntity
  8
0
  6
CONTINUOUS
 62
     7
100
AcDbLine
 10
237.434984
 20
163.460649
 30
0.0
 11
237.418541
 21
163.462296
 31
0.0
  0
LINE
  5
6C4
330
660
100
AcDbEntity
  8
0
  6
CONTINUOUS
 62
     7
100
AcDbLine
 10
237.418541
 20
163.462296
 30
0.0
 11
237.402084
 21
163.463829
 31
0.0
  0
LINE
  5
6C5
330
660
100
AcDbEntity
  8
0
  6
CONTINUOUS
 62
     7
100
AcDbLine
 10
237.402084
 20
163.463829
 30
0.0
 11
237.385614
 21
163.46525
 31
0.0
  0
LINE
  5
6C6
330
660
100
AcDbEntity
  8
0
  6
CONTINUOUS
 62
     7
100
AcDbLine
 10
237.385614
 20
163.46525
 30
0.0
 11
237.369131
 21
163.466559
 31
0.0
  0
LINE
  5
6C7
330
660
100
AcDbEntity
  8
0
  6
CONTINUOUS
 62
     7
100
AcDbLine
 10
237.369131
 20
163.466559
 30
0.0
 11
237.352636
 21
163.467755
 31
0.0
  0
LINE
  5
6C8
330
660
100
AcDbEntity
  8
0
  6
CONTINUOUS
 62
     7
100
AcDbLine
 10
237.352636
 20
163.467755
 30
0.0
 11
237.336131
 21
163.468838
 31
0.0
  0
LINE
  5
6C9
330
660
100
AcDbEntity
  8
0
  6
CONTINUOUS
 62
     7
100
AcDbLine
 10
237.336131
 20
163.468838
 30
0.0
 11
237.319616
 21
163.46981
 31
0.0
  0
LINE
  5
6CA
330
660
100
AcDbEntity
  8
0
  6
CONTINUOUS
 62
     7
100
AcDbLine
 10
237.319616
 20
163.46981
 30
0.0
 11
237.303091
 21
163.470671
 31
0.0
  0
LINE
  5
6CB
330
660
100
AcDbEntity
  8
0
  6
CONTINUOUS
 62
     7
100
AcDbLine
 10
237.303091
 20
163.470671
 30
0.0
 11
237.286558
 21
163.47142
 31
0.0
  0
LINE
  5
6CC
330
660
100
AcDbEntity
  8
0
  6
CONTINUOUS
 62
     7
100
AcDbLine
 10
237.286558
 20
163.47142
 30
0.0
 11
237.270018
 21
163.472058
 31
0.0
  0
LINE
  5
6CD
330
660
100
AcDbEntity
  8
0
  6
CONTINUOUS
 62
     7
100
AcDbLine
 10
237.270018
 20
163.472058
 30
0.0
 11
237.25347
 21
163.472585
 31
0.0
  0
LINE
  5
6CE
330
660
100
AcDbEntity
  8
0
  6
CONTINUOUS
 62
     7
100
AcDbLine
 10
237.25347
 20
163.472585
 30
0.0
 11
237.236917
 21
163.473002
 31
0.0
  0
LINE
  5
6CF
330
660
100
AcDbEntity
  8
0
  6
CONTINUOUS
 62
     7
100
AcDbLine
 10
237.236917
 20
163.473002
 30
0.0
 11
237.220358
 21
163.473308
 31
0.0
  0
LINE
  5
6D0
330
660
100
AcDbEntity
  8
0
  6
CONTINUOUS
 62
     7
100
AcDbLine
 10
237.220358
 20
163.473308
 30
0.0
 11
237.203795
 21
163.473505
 31
0.0
  0
LINE
  5
6D1
330
660
100
AcDbEntity
  8
0
  6
CONTINUOUS
 62
     7
100
AcDbLine
 10
237.203795
 20
163.473505
 30
0.0
 11
237.187229
 21
163.473591
 31
0.0
  0
LINE
  5
6D2
330
660
100
AcDbEntity
  8
0
  6
CONTINUOUS
 62
     7
100
AcDbLine
 10
237.187229
 20
163.473591
 30
0.0
 11
237.17066
 21
163.473569
 31
0.0
  0
LINE
  5
6D3
330
660
100
AcDbEntity
  8
0
  6
CONTINUOUS
 62
     7
100
AcDbLine
 10
237.17066
 20
163.473569
 30
0.0
 11
237.154088
 21
163.473437
 31
0.0
  0
LINE
  5
6D4
330
660
100
AcDbEntity
  8
0
  6
CONTINUOUS
 62
     7
100
AcDbLine
 10
237.154088
 20
163.473437
 30
0.0
 11
237.137516
 21
163.473196
 31
0.0
  0
LINE
  5
6D5
330
660
100
AcDbEntity
  8
0
  6
CONTINUOUS
 62
     7
100
AcDbLine
 10
237.137516
 20
163.473196
 30
0.0
 11
237.120943
 21
163.472847
 31
0.0
  0
LINE
  5
6D6
330
660
100
AcDbEntity
  8
0
  6
CONTINUOUS
 62
     7
100
AcDbLine
 10
237.120943
 20
163.472847
 30
0.0
 11
237.104371
 21
163.472389
 31
0.0
  0
LINE
  5
6D7
330
660
100
AcDbEntity
  8
0
  6
CONTINUOUS
 62
     7
100
AcDbLine
 10
237.104371
 20
163.472389
 30
0.0
 11
237.0878
 21
163.471823
 31
0.0
  0
LINE
  5
6D8
330
660
100
AcDbEntity
  8
0
  6
CONTINUOUS
 62
     7
100
AcDbLine
 10
237.0878
 20
163.471823
 30
0.0
 11
237.071231
 21
163.471149
 31
0.0
  0
LINE
  5
6D9
330
660
100
AcDbEntity
  8
0
  6
CONTINUOUS
 62
     7
100
AcDbLine
 10
237.071231
 20
163.471149
 30
0.0
 11
237.054665
 21
163.470368
 31
0.0
  0
LINE
  5
6DA
330
660
100
AcDbEntity
  8
0
  6
CONTINUOUS
 62
     7
100
AcDbLine
 10
237.054665
 20
163.470368
 30
0.0
 11
237.038102
 21
163.469479
 31
0.0
  0
LINE
  5
6DB
330
660
100
AcDbEntity
  8
0
  6
CONTINUOUS
 62
     7
100
AcDbLine
 10
237.038102
 20
163.469479
 30
0.0
 11
237.021544
 21
163.468484
 31
0.0
  0
LINE
  5
6DC
330
660
100
AcDbEntity
  8
0
  6
CONTINUOUS
 62
     7
100
AcDbLine
 10
237.021544
 20
163.468484
 30
0.0
 11
237.004991
 21
163.467381
 31
0.0
  0
LINE
  5
6DD
330
660
100
AcDbEntity
  8
0
  6
CONTINUOUS
 62
     7
100
AcDbLine
 10
237.004991
 20
163.467381
 30
0.0
 11
236.988445
 21
163.466172
 31
0.0
  0
LINE
  5
6DE
330
660
100
AcDbEntity
  8
0
  6
CONTINUOUS
 62
     7
100
AcDbLine
 10
236.988445
 20
163.466172
 30
0.0
 11
236.971905
 21
163.464857
 31
0.0
  0
LINE
  5
6DF
330
660
100
AcDbEntity
  8
0
  6
CONTINUOUS
 62
     7
100
AcDbLine
 10
236.971905
 20
163.464857
 30
0.0
 11
236.955373
 21
163.463436
 31
0.0
  0
LINE
  5
6E0
330
660
100
AcDbEntity
  8
0
  6
CONTINUOUS
 62
     7
100
AcDbLine
 10
236.955373
 20
163.463436
 30
0.0
 11
236.938849
 21
163.461909
 31
0.0
  0
LINE
  5
6E1
330
660
100
AcDbEntity
  8
0
  6
CONTINUOUS
 62
     7
100
AcDbLine
 10
236.938849
 20
163.461909
 30
0.0
 11
236.922335
 21
163.460277
 31
0.0
  0
LINE
  5
6E2
330
660
100
AcDbEntity
  8
0
  6
CONTINUOUS
 62
     7
100
AcDbLine
 10
236.922335
 20
163.460277
 30
0.0
 11
236.905831
 21
163.458539
 31
0.0
  0
LINE
  5
6E3
330
660
100
AcDbEntity
  8
0
  6
CONTINUOUS
 62
     7
100
AcDbLine
 10
236.905831
 20
163.458539
 30
0.0
 11
236.889338
 21
163.456697
 31
0.0
  0
LINE
  5
6E4
330
660
100
AcDbEntity
  8
0
  6
CONTINUOUS
 62
     7
100
AcDbLine
 10
236.889338
 20
163.456697
 30
0.0
 11
236.872856
 21
163.45475
 31
0.0
  0
LINE
  5
6E5
330
660
100
AcDbEntity
  8
0
  6
CONTINUOUS
 62
     7
100
AcDbLine
 10
236.872856
 20
163.45475
 30
0.0
 11
236.856387
 21
163.452699
 31
0.0
  0
LINE
  5
6E6
330
660
100
AcDbEntity
  8
0
  6
CONTINUOUS
 62
     7
100
AcDbLine
 10
236.856387
 20
163.452699
 30
0.0
 11
236.839932
 21
163.450543
 31
0.0
  0
LINE
  5
6E7
330
660
100
AcDbEntity
  8
0
  6
CONTINUOUS
 62
     7
100
AcDbLine
 10
236.839932
 20
163.450543
 30
0.0
 11
236.82349
 21
163.448284
 31
0.0
  0
LINE
  5
6E8
330
660
100
AcDbEntity
  8
0
  6
CONTINUOUS
 62
     7
100
AcDbLine
 10
236.82349
 20
163.448284
 30
0.0
 11
236.807064
 21
163.445921
 31
0.0
  0
LINE
  5
6E9
330
660
100
AcDbEntity
  8
0
  6
CONTINUOUS
 62
     7
100
AcDbLine
 10
236.807064
 20
163.445921
 30
0.0
 11
236.790653
 21
163.443455
 31
0.0
  0
LINE
  5
6EA
330
660
100
AcDbEntity
  8
0
  6
CONTINUOUS
 62
     7
100
AcDbLine
 10
236.790653
 20
163.443455
 30
0.0
 11
236.774259
 21
163.440886
 31
0.0
  0
LINE
  5
6EB
330
660
100
AcDbEntity
  8
0
  6
CONTINUOUS
 62
     7
100
AcDbLine
 10
236.774259
 20
163.440886
 30
0.0
 11
236.757882
 21
163.438214
 31
0.0
  0
LINE
  5
6EC
330
660
100
AcDbEntity
  8
0
  6
CONTINUOUS
 62
     7
100
AcDbLine
 10
236.757882
 20
163.438214
 30
0.0
 11
236.741523
 21
163.435439
 31
0.0
  0
LINE
  5
6ED
330
660
100
AcDbEntity
  8
0
  6
CONTINUOUS
 62
     7
100
AcDbLine
 10
236.741523
 20
163.435439
 30
0.0
 11
236.725183
 21
163.432563
 31
0.0
  0
LINE
  5
6EE
330
660
100
AcDbEntity
  8
0
  6
CONTINUOUS
 62
     7
100
AcDbLine
 10
236.725183
 20
163.432563
 30
0.0
 11
236.708863
 21
163.429584
 31
0.0
  0
LINE
  5
6EF
330
660
100
AcDbEntity
  8
0
  6
CONTINUOUS
 62
     7
100
AcDbLine
 10
236.708863
 20
163.429584
 30
0.0
 11
236.692564
 21
163.426504
 31
0.0
  0
LINE
  5
6F0
330
660
100
AcDbEntity
  8
0
  6
CONTINUOUS
 62
     7
100
AcDbLine
 10
236.692564
 20
163.426504
 30
0.0
 11
236.676286
 21
163.423322
 31
0.0
  0
LINE
  5
6F1
330
660
100
AcDbEntity
  8
0
  6
CONTINUOUS
 62
     7
100
AcDbLine
 10
236.676286
 20
163.423322
 30
0.0
 11
236.660031
 21
163.420039
 31
0.0
  0
LINE
  5
6F2
330
660
100
AcDbEntity
  8
0
  6
CONTINUOUS
 62
     7
100
AcDbLine
 10
236.660031
 20
163.420039
 30
0.0
 11
236.643798
 21
163.416655
 31
0.0
  0
LINE
  5
6F3
330
660
100
AcDbEntity
  8
0
  6
CONTINUOUS
 62
     7
100
AcDbLine
 10
236.643798
 20
163.416655
 30
0.0
 11
236.627589
 21
163.41317
 31
0.0
  0
LINE
  5
6F4
330
660
100
AcDbEntity
  8
0
  6
CONTINUOUS
 62
     7
100
AcDbLine
 10
236.627589
 20
163.41317
 30
0.0
 11
236.611405
 21
163.409586
 31
0.0
  0
LINE
  5
6F5
330
660
100
AcDbEntity
  8
0
  6
CONTINUOUS
 62
     7
100
AcDbLine
 10
236.611405
 20
163.409586
 30
0.0
 11
236.595246
 21
163.405901
 31
0.0
  0
LINE
  5
6F6
330
660
100
AcDbEntity
  8
0
  6
CONTINUOUS
 62
     7
100
AcDbLine
 10
236.595246
 20
163.405901
 30
0.0
 11
236.579113
 21
163.402116
 31
0.0
  0
LINE
  5
6F7
330
660
100
AcDbEntity
  8
0
  6
CONTINUOUS
 62
     7
100
AcDbLine
 10
236.579113
 20
163.402116
 30
0.0
 11
236.563007
 21
163.398231
 31
0.0
  0
LINE
  5
6F8
330
660
100
AcDbEntity
  8
0
  6
CONTINUOUS
 62
     7
100
AcDbLine
 10
236.563007
 20
163.398231
 30
0.0
 11
236.54693
 21
163.394248
 31
0.0
  0
LINE
  5
6F9
330
660
100
AcDbEntity
  8
0
  6
CONTINUOUS
 62
     7
100
AcDbLine
 10
236.54693
 20
163.394248
 30
0.0
 11
236.530881
 21
163.390165
 31
0.0
  0
LINE
  5
6FA
330
660
100
AcDbEntity
  8
0
  6
CONTINUOUS
 62
     7
100
AcDbLine
 10
236.530881
 20
163.390165
 30
0.0
 11
236.514861
 21
163.385984
 31
0.0
  0
LINE
  5
6FB
330
660
100
AcDbEntity
  8
0
  6
CONTINUOUS
 62
     7
100
AcDbLine
 10
236.514861
 20
163.385984
 30
0.0
 11
236.498871
 21
163.381704
 31
0.0
  0
LINE
  5
6FC
330
660
100
AcDbEntity
  8
0
  6
CONTINUOUS
 62
     7
100
AcDbLine
 10
236.498871
 20
163.381704
 30
0.0
 11
236.479477
 21
163.376369
 31
0.0
  0
LINE
  5
6FD
330
660
100
AcDbEntity
  8
0
  6
CONTINUOUS
 62
     7
100
AcDbLine
 10
236.479477
 20
163.376369
 30
0.0
 11
236.460128
 21
163.370891
 31
0.0
  0
LINE
  5
6FE
330
660
100
AcDbEntity
  8
0
  6
CONTINUOUS
 62
     7
100
AcDbLine
 10
236.460128
 20
163.370891
 30
0.0
 11
236.440826
 21
163.36527
 31
0.0
  0
LINE
  5
6FF
330
660
100
AcDbEntity
  8
0
  6
CONTINUOUS
 62
     7
100
AcDbLine
 10
236.440826
 20
163.36527
 30
0.0
 11
236.421569
 21
163.359508
 31
0.0
  0
LINE
  5
700
330
660
100
AcDbEntity
  8
0
  6
CONTINUOUS
 62
     7
100
AcDbLine
 10
236.421569
 20
163.359508
 30
0.0
 11
236.402359
 21
163.353606
 31
0.0
  0
LINE
  5
701
330
660
100
AcDbEntity
  8
0
  6
CONTINUOUS
 62
     7
100
AcDbLine
 10
236.402359
 20
163.353606
 30
0.0
 11
236.383196
 21
163.347567
 31
0.0
  0
LINE
  5
702
330
660
100
AcDbEntity
  8
0
  6
CONTINUOUS
 62
     7
100
AcDbLine
 10
236.383196
 20
163.347567
 30
0.0
 11
236.364079
 21
163.34139
 31
0.0
  0
LINE
  5
703
330
660
100
AcDbEntity
  8
0
  6
CONTINUOUS
 62
     7
100
AcDbLine
 10
236.364079
 20
163.34139
 30
0.0
 11
236.345009
 21
163.335077
 31
0.0
  0
LINE
  5
704
330
660
100
AcDbEntity
  8
0
  6
CONTINUOUS
 62
     7
100
AcDbLine
 10
236.345009
 20
163.335077
 30
0.0
 11
236.325986
 21
163.328631
 31
0.0
  0
LINE
  5
705
330
660
100
AcDbEntity
  8
0
  6
CONTINUOUS
 62
     7
100
AcDbLine
 10
236.325986
 20
163.328631
 30
0.0
 11
236.30701
 21
163.322052
 31
0.0
  0
LINE
  5
706
330
660
100
AcDbEntity
  8
0
  6
CONTINUOUS
 62
     7
100
AcDbLine
 10
236.30701
 20
163.322052
 30
0.0
 11
236.28808
 21
163.315341
 31
0.0
  0
LINE
  5
707
330
660
100
AcDbEntity
  8
0
  6
CONTINUOUS
 62
     7
100
AcDbLine
 10
236.28808
 20
163.315341
 30
0.0
 11
236.269198
 21
163.3085
 31
0.0
  0
LINE
  5
708
330
660
100
AcDbEntity
  8
0
  6
CONTINUOUS
 62
     7
100
AcDbLine
 10
236.269198
 20
163.3085
 30
0.0
 11
236.250364
 21
163.30153
 31
0.0
  0
LINE
  5
709
330
660
100
AcDbEntity
  8
0
  6
CONTINUOUS
 62
     7
100
AcDbLine
 10
236.250364
 20
163.30153
 30
0.0
 11
236.231576
 21
163.294434
 31
0.0
  0
LINE
  5
70A
330
660
100
AcDbEntity
  8
0
  6
CONTINUOUS
 62
     7
100
AcDbLine
 10
236.231576
 20
163.294434
 30
0.0
 11
236.212837
 21
163.287211
 31
0.0
  0
LINE
  5
70B
330
660
100
AcDbEntity
  8
0
  6
CONTINUOUS
 62
     7
100
AcDbLine
 10
236.212837
 20
163.287211
 30
0.0
 11
236.194145
 21
163.279863
 31
0.0
  0
LINE
  5
70C
330
660
100
AcDbEntity
  8
0
  6
CONTINUOUS
 62
     7
100
AcDbLine
 10
236.194145
 20
163.279863
 30
0.0
 11
236.1755
 21
163.272392
 31
0.0
  0
LINE
  5
70D
330
660
100
AcDbEntity
  8
0
  6
CONTINUOUS
 62
     7
100
AcDbLine
 10
236.1755
 20
163.272392
 30
0.0
 11
236.156904
 21
163.2648
 31
0.0
  0
LINE
  5
70E
330
660
100
AcDbEntity
  8
0
  6
CONTINUOUS
 62
     7
100
AcDbLine
 10
236.156904
 20
163.2648
 30
0.0
 11
236.138355
 21
163.257087
 31
0.0
  0
LINE
  5
70F
330
660
100
AcDbEntity
  8
0
  6
CONTINUOUS
 62
     7
100
AcDbLine
 10
236.138355
 20
163.257087
 30
0.0
 11
236.119855
 21
163.249255
 31
0.0
  0
LINE
  5
710
330
660
100
AcDbEntity
  8
0
  6
CONTINUOUS
 62
     7
100
AcDbLine
 10
236.119855
 20
163.249255
 30
0.0
 11
236.101403
 21
163.241305
 31
0.0
  0
LINE
  5
711
330
660
100
AcDbEntity
  8
0
  6
CONTINUOUS
 62
     7
100
AcDbLine
 10
236.101403
 20
163.241305
 30
0.0
 11
236.083
 21
163.233239
 31
0.0
  0
LINE
  5
712
330
660
100
AcDbEntity
  8
0
  6
CONTINUOUS
 62
     7
100
AcDbLine
 10
236.083
 20
163.233239
 30
0.0
 11
236.064644
 21
163.225057
 31
0.0
  0
LINE
  5
713
330
660
100
AcDbEntity
  8
0
  6
CONTINUOUS
 62
     7
100
AcDbLine
 10
236.064644
 20
163.225057
 30
0.0
 11
236.046338
 21
163.216762
 31
0.0
  0
LINE
  5
714
330
660
100
AcDbEntity
  8
0
  6
CONTINUOUS
 62
     7
100
AcDbLine
 10
236.046338
 20
163.216762
 30
0.0
 11
236.02808
 21
163.208355
 31
0.0
  0
LINE
  5
715
330
660
100
AcDbEntity
  8
0
  6
CONTINUOUS
 62
     7
100
AcDbLine
 10
236.02808
 20
163.208355
 30
0.0
 11
236.009871
 21
163.199837
 31
0.0
  0
LINE
  5
716
330
660
100
AcDbEntity
  8
0
  6
CONTINUOUS
 62
     7
100
AcDbLine
 10
236.009871
 20
163.199837
 30
0.0
 11
235.991711
 21
163.191209
 31
0.0
  0
LINE
  5
717
330
660
100
AcDbEntity
  8
0
  6
CONTINUOUS
 62
     7
100
AcDbLine
 10
235.991711
 20
163.191209
 30
0.0
 11
235.9736
 21
163.182474
 31
0.0
  0
LINE
  5
718
330
660
100
AcDbEntity
  8
0
  6
CONTINUOUS
 62
     7
100
AcDbLine
 10
235.9736
 20
163.182474
 30
0.0
 11
235.955538
 21
163.173631
 31
0.0
  0
LINE
  5
719
330
660
100
AcDbEntity
  8
0
  6
CONTINUOUS
 62
     7
100
AcDbLine
 10
235.955538
 20
163.173631
 30
0.0
 11
235.937526
 21
163.164683
 31
0.0
  0
LINE
  5
71A
330
660
100
AcDbEntity
  8
0
  6
CONTINUOUS
 62
     7
100
AcDbLine
 10
235.937526
 20
163.164683
 30
0.0
 11
235.919563
 21
163.155631
 31
0.0
  0
LINE
  5
71B
330
660
100
AcDbEntity
  8
0
  6
CONTINUOUS
 62
     7
100
AcDbLine
 10
235.919563
 20
163.155631
 30
0.0
 11
235.901649
 21
163.146476
 31
0.0
  0
LINE
  5
71C
330
660
100
AcDbEntity
  8
0
  6
CONTINUOUS
 62
     7
100
AcDbLine
 10
235.901649
 20
163.146476
 30
0.0
 11
235.883785
 21
163.13722
 31
0.0
  0
LINE
  5
71D
330
660
100
AcDbEntity
  8
0
  6
CONTINUOUS
 62
     7
100
AcDbLine
 10
235.883785
 20
163.13722
 30
0.0
 11
235.865971
 21
163.127864
 31
0.0
  0
LINE
  5
71E
330
660
100
AcDbEntity
  8
0
  6
CONTINUOUS
 62
     7
100
AcDbLine
 10
235.865971
 20
163.127864
 30
0.0
 11
235.848207
 21
163.118409
 31
0.0
  0
LINE
  5
71F
330
660
100
AcDbEntity
  8
0
  6
CONTINUOUS
 62
     7
100
AcDbLine
 10
235.848207
 20
163.118409
 30
0.0
 11
235.830493
 21
163.108858
 31
0.0
  0
LINE
  5
720
330
660
100
AcDbEntity
  8
0
  6
CONTINUOUS
 62
     7
100
AcDbLine
 10
235.830493
 20
163.108858
 30
0.0
 11
235.812829
 21
163.09921
 31
0.0
  0
LINE
  5
721
330
660
100
AcDbEntity
  8
0
  6
CONTINUOUS
 62
     7
100
AcDbLine
 10
235.812829
 20
163.09921
 30
0.0
 11
235.795215
 21
163.089468
 31
0.0
  0
LINE
  5
722
330
660
100
AcDbEntity
  8
0
  6
CONTINUOUS
 62
     7
100
AcDbLine
 10
235.795215
 20
163.089468
 30
0.0
 11
235.777651
 21
163.079633
 31
0.0
  0
LINE
  5
723
330
660
100
AcDbEntity
  8
0
  6
CONTINUOUS
 62
     7
100
AcDbLine
 10
235.777651
 20
163.079633
 30
0.0
 11
235.760138
 21
163.069706
 31
0.0
  0
LINE
  5
724
330
660
100
AcDbEntity
  8
0
  6
CONTINUOUS
 62
     7
100
AcDbLine
 10
235.760138
 20
163.069706
 30
0.0
 11
235.742676
 21
163.059688
 31
0.0
  0
LINE
  5
725
330
660
100
AcDbEntity
  8
0
  6
CONTINUOUS
 62
     7
100
AcDbLine
 10
235.742676
 20
163.059688
 30
0.0
 11
235.725264
 21
163.049582
 31
0.0
  0
LINE
  5
726
330
660
100
AcDbEntity
  8
0
  6
CONTINUOUS
 62
     7
100
AcDbLine
 10
235.725264
 20
163.049582
 30
0.0
 11
235.707904
 21
163.039388
 31
0.0
  0
LINE
  5
727
330
660
100
AcDbEntity
  8
0
  6
CONTINUOUS
 62
     7
100
AcDbLine
 10
235.707904
 20
163.039388
 30
0.0
 11
235.690594
 21
163.029108
 31
0.0
  0
LINE
  5
728
330
660
100
AcDbEntity
  8
0
  6
CONTINUOUS
 62
     7
100
AcDbLine
 10
235.690594
 20
163.029108
 30
0.0
 11
235.673335
 21
163.018743
 31
0.0
  0
LINE
  5
729
330
660
100
AcDbEntity
  8
0
  6
CONTINUOUS
 62
     7
100
AcDbLine
 10
235.673335
 20
163.018743
 30
0.0
 11
235.656127
 21
163.008295
 31
0.0
  0
LINE
  5
72A
330
660
100
AcDbEntity
  8
0
  6
CONTINUOUS
 62
     7
100
AcDbLine
 10
235.656127
 20
163.008295
 30
0.0
 11
235.638971
 21
162.997764
 31
0.0
  0
LINE
  5
72B
330
660
100
AcDbEntity
  8
0
  6
CONTINUOUS
 62
     7
100
AcDbLine
 10
235.638971
 20
162.997764
 30
0.0
 11
235.621866
 21
162.987152
 31
0.0
  0
LINE
  5
72C
330
660
100
AcDbEntity
  8
0
  6
CONTINUOUS
 62
     7
100
AcDbLine
 10
235.621866
 20
162.987152
 30
0.0
 11
235.604813
 21
162.976462
 31
0.0
  0
LINE
  5
72D
330
660
100
AcDbEntity
  8
0
  6
CONTINUOUS
 62
     7
100
AcDbLine
 10
235.604813
 20
162.976462
 30
0.0
 11
235.587811
 21
162.965693
 31
0.0
  0
LINE
  5
72E
330
660
100
AcDbEntity
  8
0
  6
CONTINUOUS
 62
     7
100
AcDbLine
 10
235.587811
 20
162.965693
 30
0.0
 11
235.570861
 21
162.954847
 31
0.0
  0
LINE
  5
72F
330
660
100
AcDbEntity
  8
0
  6
CONTINUOUS
 62
     7
100
AcDbLine
 10
235.570861
 20
162.954847
 30
0.0
 11
235.553963
 21
162.943926
 31
0.0
  0
LINE
  5
730
330
660
100
AcDbEntity
  8
0
  6
CONTINUOUS
 62
     7
100
AcDbLine
 10
235.553963
 20
162.943926
 30
0.0
 11
235.537117
 21
162.932932
 31
0.0
  0
LINE
  5
731
330
660
100
AcDbEntity
  8
0
  6
CONTINUOUS
 62
     7
100
AcDbLine
 10
235.537117
 20
162.932932
 30
0.0
 11
235.520323
 21
162.921864
 31
0.0
  0
LINE
  5
732
330
660
100
AcDbEntity
  8
0
  6
CONTINUOUS
 62
     7
100
AcDbLine
 10
235.520323
 20
162.921864
 30
0.0
 11
235.503582
 21
162.910726
 31
0.0
  0
LINE
  5
733
330
660
100
AcDbEntity
  8
0
  6
CONTINUOUS
 62
     7
100
AcDbLine
 10
235.503582
 20
162.910726
 30
0.0
 11
235.486892
 21
162.899518
 31
0.0
  0
LINE
  5
734
330
660
100
AcDbEntity
  8
0
  6
CONTINUOUS
 62
     7
100
AcDbLine
 10
235.486892
 20
162.899518
 30
0.0
 11
235.470256
 21
162.888241
 31
0.0
  0
LINE
  5
735
330
660
100
AcDbEntity
  8
0
  6
CONTINUOUS
 62
     7
100
AcDbLine
 10
235.470256
 20
162.888241
 30
0.0
 11
235.453671
 21
162.876897
 31
0.0
  0
LINE
  5
736
330
660
100
AcDbEntity
  8
0
  6
CONTINUOUS
 62
     7
100
AcDbLine
 10
235.453671
 20
162.876897
 30
0.0
 11
235.43714
 21
162.865488
 31
0.0
  0
LINE
  5
737
330
660
100
AcDbEntity
  8
0
  6
CONTINUOUS
 62
     7
100
AcDbLine
 10
235.43714
 20
162.865488
 30
0.0
 11
235.420661
 21
162.854014
 31
0.0
  0
LINE
  5
738
330
660
100
AcDbEntity
  8
0
  6
CONTINUOUS
 62
     7
100
AcDbLine
 10
235.420661
 20
162.854014
 30
0.0
 11
235.404235
 21
162.842477
 31
0.0
  0
LINE
  5
739
330
660
100
AcDbEntity
  8
0
  6
CONTINUOUS
 62
     7
100
AcDbLine
 10
235.404235
 20
162.842477
 30
0.0
 11
235.387863
 21
162.830879
 31
0.0
  0
LINE
  5
73A
330
660
100
AcDbEntity
  8
0
  6
CONTINUOUS
 62
     7
100
AcDbLine
 10
235.387863
 20
162.830879
 30
0.0
 11
235.371543
 21
162.81922
 31
0.0
  0
LINE
  5
73B
330
660
100
AcDbEntity
  8
0
  6
CONTINUOUS
 62
     7
100
AcDbLine
 10
235.371543
 20
162.81922
 30
0.0
 11
235.355277
 21
162.807502
 31
0.0
  0
LINE
  5
73C
330
660
100
AcDbEntity
  8
0
  6
CONTINUOUS
 62
     7
100
AcDbLine
 10
235.355277
 20
162.807502
 30
0.0
 11
235.338682
 21
162.795449
 31
0.0
  0
LINE
  5
73D
330
660
100
AcDbEntity
  8
0
  6
CONTINUOUS
 62
     7
100
AcDbLine
 10
235.338682
 20
162.795449
 30
0.0
 11
235.32214
 21
162.78334
 31
0.0
  0
LINE
  5
73E
330
660
100
AcDbEntity
  8
0
  6
CONTINUOUS
 62
     7
100
AcDbLine
 10
235.32214
 20
162.78334
 30
0.0
 11
235.289198
 21
162.758967
 31
0.0
  0
LINE
  5
73F
330
660
100
AcDbEntity
  8
0
  6
CONTINUOUS
 62
     7
100
AcDbLine
 10
235.289198
 20
162.758967
 30
0.0
 11
235.256424
 21
162.734413
 31
0.0
  0
LINE
  5
740
330
660
100
AcDbEntity
  8
0
  6
CONTINUOUS
 62
     7
100
AcDbLine
 10
235.256424
 20
162.734413
 30
0.0
 11
235.22379
 21
162.709709
 31
0.0
  0
LINE
  5
741
330
660
100
AcDbEntity
  8
0
  6
CONTINUOUS
 62
     7
100
AcDbLine
 10
235.22379
 20
162.709709
 30
0.0
 11
235.191268
 21
162.684884
 31
0.0
  0
LINE
  5
742
330
660
100
AcDbEntity
  8
0
  6
CONTINUOUS
 62
     7
100
AcDbLine
 10
235.191268
 20
162.684884
 30
0.0
 11
235.15883
 21
162.659969
 31
0.0
  0
LINE
  5
743
330
660
100
AcDbEntity
  8
0
  6
CONTINUOUS
 62
     7
100
AcDbLine
 10
235.15883
 20
162.659969
 30
0.0
 11
235.126448
 21
162.634993
 31
0.0
  0
LINE
  5
744
330
660
100
AcDbEntity
  8
0
  6
CONTINUOUS
 62
     7
100
AcDbLine
 10
235.126448
 20
162.634993
 30
0.0
 11
235.094094
 21
162.609988
 31
0.0
  0
ENDBLK
  5
662
330
660
100
AcDbEntity
  8
0
100
AcDbBlockEnd
  0
BLOCK
  5
747
330
746
100
AcDbEntity
  8
0
100
AcDbBlockBegin
  2
BLKF043
 70
     0
 71
     0
 10
0.0
 20
0.0
 30
0.0
  3
BLKF043
  1

  0
LINE
  5
74A
330
746
100
AcDbEntity
  8
0
  6
CONTINUOUS
 62
     7
100
AcDbLine
 10
233.747406
 20
162.609988
 30
0.0
 11
233.602422
 21
162.712961
 31
0.0
  0
LINE
  5
74B
330
746
100
AcDbEntity
  8
0
  6
CONTINUOUS
 62
     7
100
AcDbLine
 10
233.602422
 20
162.712961
 30
0.0
 11
233.529735
 21
162.764026
 31
0.0
  0
LINE
  5
74C
330
746
100
AcDbEntity
  8
0
  6
CONTINUOUS
 62
     7
100
AcDbLine
 10
233.529735
 20
162.764026
 30
0.0
 11
233.456814
 21
162.814584
 31
0.0
  0
LINE
  5
74D
330
746
100
AcDbEntity
  8
0
  6
CONTINUOUS
 62
     7
100
AcDbLine
 10
233.456814
 20
162.814584
 30
0.0
 11
233.383581
 21
162.864469
 31
0.0
  0
LINE
  5
74E
330
746
100
AcDbEntity
  8
0
  6
CONTINUOUS
 62
     7
100
AcDbLine
 10
233.383581
 20
162.864469
 30
0.0
 11
233.309959
 21
162.913509
 31
0.0
  0
LINE
  5
74F
330
746
100
AcDbEntity
  8
0
  6
CONTINUOUS
 62
     7
100
AcDbLine
 10
233.309959
 20
162.913509
 30
0.0
 11
233.23587
 21
162.961538
 31
0.0
  0
LINE
  5
750
330
746
100
AcDbEntity
  8
0
  6
CONTINUOUS
 62
     7
100
AcDbLine
 10
233.23587
 20
162.961538
 30
0.0
 11
233.161235
 21
163.008385
 31
0.0
  0
LINE
  5
751
330
746
100
AcDbEntity
  8
0
  6
CONTINUOUS
 62
     7
100
AcDbLine
 10
233.161235
 20
163.008385
 30
0.0
 11
233.085977
 21
163.053884
 31
0.0
  0
LINE
  5
752
330
746
100
AcDbEntity
  8
0
  6
CONTINUOUS
 62
     7
100
AcDbLine
 10
233.085977
 20
163.053884
 30
0.0
 11
233.010017
 21
163.097864
 31
0.0
  0
LINE
  5
753
330
746
100
AcDbEntity
  8
0
  6
CONTINUOUS
 62
     7
100
AcDbLine
 10
233.010017
 20
163.097864
 30
0.0
 11
232.933278
 21
163.140157
 31
0.0
  0
LINE
  5
754
330
746
100
AcDbEntity
  8
0
  6
CONTINUOUS
 62
     7
100
AcDbLine
 10
232.933278
 20
163.140157
 30
0.0
 11
232.855682
 21
163.180594
 31
0.0
  0
LINE
  5
755
330
746
100
AcDbEntity
  8
0
  6
CONTINUOUS
 62
     7
100
AcDbLine
 10
232.855682
 20
163.180594
 30
0.0
 11
232.816539
 21
163.200065
 31
0.0
  0
LINE
  5
756
330
746
100
AcDbEntity
  8
0
  6
CONTINUOUS
 62
     7
100
AcDbLine
 10
232.816539
 20
163.200065
 30
0.0
 11
232.777151
 21
163.219008
 31
0.0
  0
LINE
  5
757
330
746
100
AcDbEntity
  8
0
  6
CONTINUOUS
 62
     7
100
AcDbLine
 10
232.777151
 20
163.219008
 30
0.0
 11
232.737511
 21
163.237403
 31
0.0
  0
LINE
  5
758
330
746
100
AcDbEntity
  8
0
  6
CONTINUOUS
 62
     7
100
AcDbLine
 10
232.737511
 20
163.237403
 30
0.0
 11
232.697608
 21
163.255228
 31
0.0
  0
LINE
  5
759
330
746
100
AcDbEntity
  8
0
  6
CONTINUOUS
 62
     7
100
AcDbLine
 10
232.697608
 20
163.255228
 30
0.0
 11
232.657431
 21
163.272463
 31
0.0
  0
LINE
  5
75A
330
746
100
AcDbEntity
  8
0
  6
CONTINUOUS
 62
     7
100
AcDbLine
 10
232.657431
 20
163.272463
 30
0.0
 11
232.616973
 21
163.289087
 31
0.0
  0
LINE
  5
75B
330
746
100
AcDbEntity
  8
0
  6
CONTINUOUS
 62
     7
100
AcDbLine
 10
232.616973
 20
163.289087
 30
0.0
 11
232.576222
 21
163.305078
 31
0.0
  0
LINE
  5
75C
330
746
100
AcDbEntity
  8
0
  6
CONTINUOUS
 62
     7
100
AcDbLine
 10
232.576222
 20
163.305078
 30
0.0
 11
232.535169
 21
163.320415
 31
0.0
  0
LINE
  5
75D
330
746
100
AcDbEntity
  8
0
  6
CONTINUOUS
 62
     7
100
AcDbLine
 10
232.535169
 20
163.320415
 30
0.0
 11
232.477903
 21
163.340512
 31
0.0
  0
LINE
  5
75E
330
746
100
AcDbEntity
  8
0
  6
CONTINUOUS
 62
     7
100
AcDbLine
 10
232.477903
 20
163.340512
 30
0.0
 11
232.420083
 21
163.3593
 31
0.0
  0
LINE
  5
75F
330
746
100
AcDbEntity
  8
0
  6
CONTINUOUS
 62
     7
100
AcDbLine
 10
232.420083
 20
163.3593
 30
0.0
 11
232.361751
 21
163.376759
 31
0.0
  0
LINE
  5
760
330
746
100
AcDbEntity
  8
0
  6
CONTINUOUS
 62
     7
100
AcDbLine
 10
232.361751
 20
163.376759
 30
0.0
 11
232.302949
 21
163.392871
 31
0.0
  0
LINE
  5
761
330
746
100
AcDbEntity
  8
0
  6
CONTINUOUS
 62
     7
100
AcDbLine
 10
232.302949
 20
163.392871
 30
0.0
 11
232.24372
 21
163.407616
 31
0.0
  0
LINE
  5
762
330
746
100
AcDbEntity
  8
0
  6
CONTINUOUS
 62
     7
100
AcDbLine
 10
232.24372
 20
163.407616
 30
0.0
 11
232.184106
 21
163.420976
 31
0.0
  0
LINE
  5
763
330
746
100
AcDbEntity
  8
0
  6
CONTINUOUS
 62
     7
100
AcDbLine
 10
232.184106
 20
163.420976
 30
0.0
 11
232.124149
 21
163.43293
 31
0.0
  0
LINE
  5
764
330
746
100
AcDbEntity
  8
0
  6
CONTINUOUS
 62
     7
100
AcDbLine
 10
232.124149
 20
163.43293
 30
0.0
 11
232.06389
 21
163.443461
 31
0.0
  0
LINE
  5
765
330
746
100
AcDbEntity
  8
0
  6
CONTINUOUS
 62
     7
100
AcDbLine
 10
232.06389
 20
163.443461
 30
0.0
 11
232.003372
 21
163.452548
 31
0.0
  0
LINE
  5
766
330
746
100
AcDbEntity
  8
0
  6
CONTINUOUS
 62
     7
100
AcDbLine
 10
232.003372
 20
163.452548
 30
0.0
 11
231.942638
 21
163.460172
 31
0.0
  0
LINE
  5
767
330
746
100
AcDbEntity
  8
0
  6
CONTINUOUS
 62
     7
100
AcDbLine
 10
231.942638
 20
163.460172
 30
0.0
 11
231.881729
 21
163.466315
 31
0.0
  0
LINE
  5
768
330
746
100
AcDbEntity
  8
0
  6
CONTINUOUS
 62
     7
100
AcDbLine
 10
231.881729
 20
163.466315
 30
0.0
 11
231.820687
 21
163.470958
 31
0.0
  0
LINE
  5
769
330
746
100
AcDbEntity
  8
0
  6
CONTINUOUS
 62
     7
100
AcDbLine
 10
231.820687
 20
163.470958
 30
0.0
 11
231.759554
 21
163.47408
 31
0.0
  0
LINE
  5
76A
330
746
100
AcDbEntity
  8
0
  6
CONTINUOUS
 62
     7
100
AcDbLine
 10
231.759554
 20
163.47408
 30
0.0
 11
231.698373
 21
163.475663
 31
0.0
  0
LINE
  5
76B
330
746
100
AcDbEntity
  8
0
  6
CONTINUOUS
 62
     7
100
AcDbLine
 10
231.698373
 20
163.475663
 30
0.0
 11
231.637185
 21
163.475688
 31
0.0
  0
LINE
  5
76C
330
746
100
AcDbEntity
  8
0
  6
CONTINUOUS
 62
     7
100
AcDbLine
 10
231.637185
 20
163.475688
 30
0.0
 11
231.576033
 21
163.474136
 31
0.0
  0
LINE
  5
76D
330
746
100
AcDbEntity
  8
0
  6
CONTINUOUS
 62
     7
100
AcDbLine
 10
231.576033
 20
163.474136
 30
0.0
 11
231.514688
 21
163.470977
 31
0.0
  0
LINE
  5
76E
330
746
100
AcDbEntity
  8
0
  6
CONTINUOUS
 62
     7
100
AcDbLine
 10
231.514688
 20
163.470977
 30
0.0
 11
231.453454
 21
163.466236
 31
0.0
  0
LINE
  5
76F
330
746
100
AcDbEntity
  8
0
  6
CONTINUOUS
 62
     7
100
AcDbLine
 10
231.453454
 20
163.466236
 30
0.0
 11
231.392365
 21
163.459942
 31
0.0
  0
LINE
  5
770
330
746
100
AcDbEntity
  8
0
  6
CONTINUOUS
 62
     7
100
AcDbLine
 10
231.392365
 20
163.459942
 30
0.0
 11
231.331455
 21
163.452123
 31
0.0
  0
LINE
  5
771
330
746
100
AcDbEntity
  8
0
  6
CONTINUOUS
 62
     7
100
AcDbLine
 10
231.331455
 20
163.452123
 30
0.0
 11
231.270755
 21
163.442808
 31
0.0
  0
LINE
  5
772
330
746
100
AcDbEntity
  8
0
  6
CONTINUOUS
 62
     7
100
AcDbLine
 10
231.270755
 20
163.442808
 30
0.0
 11
231.210301
 21
163.432025
 31
0.0
  0
LINE
  5
773
330
746
100
AcDbEntity
  8
0
  6
CONTINUOUS
 62
     7
100
AcDbLine
 10
231.210301
 20
163.432025
 30
0.0
 11
231.150124
 21
163.419802
 31
0.0
  0
LINE
  5
774
330
746
100
AcDbEntity
  8
0
  6
CONTINUOUS
 62
     7
100
AcDbLine
 10
231.150124
 20
163.419802
 30
0.0
 11
231.090258
 21
163.40617
 31
0.0
  0
LINE
  5
775
330
746
100
AcDbEntity
  8
0
  6
CONTINUOUS
 62
     7
100
AcDbLine
 10
231.090258
 20
163.40617
 30
0.0
 11
231.030736
 21
163.391156
 31
0.0
  0
LINE
  5
776
330
746
100
AcDbEntity
  8
0
  6
CONTINUOUS
 62
     7
100
AcDbLine
 10
231.030736
 20
163.391156
 30
0.0
 11
230.971592
 21
163.374788
 31
0.0
  0
LINE
  5
777
330
746
100
AcDbEntity
  8
0
  6
CONTINUOUS
 62
     7
100
AcDbLine
 10
230.971592
 20
163.374788
 30
0.0
 11
230.912858
 21
163.357096
 31
0.0
  0
LINE
  5
778
330
746
100
AcDbEntity
  8
0
  6
CONTINUOUS
 62
     7
100
AcDbLine
 10
230.912858
 20
163.357096
 30
0.0
 11
230.854568
 21
163.338108
 31
0.0
  0
LINE
  5
779
330
746
100
AcDbEntity
  8
0
  6
CONTINUOUS
 62
     7
100
AcDbLine
 10
230.854568
 20
163.338108
 30
0.0
 11
230.796755
 21
163.317853
 31
0.0
  0
LINE
  5
77A
330
746
100
AcDbEntity
  8
0
  6
CONTINUOUS
 62
     7
100
AcDbLine
 10
230.796755
 20
163.317853
 30
0.0
 11
230.739452
 21
163.296359
 31
0.0
  0
LINE
  5
77B
330
746
100
AcDbEntity
  8
0
  6
CONTINUOUS
 62
     7
100
AcDbLine
 10
230.739452
 20
163.296359
 30
0.0
 11
230.682693
 21
163.273655
 31
0.0
  0
LINE
  5
77C
330
746
100
AcDbEntity
  8
0
  6
CONTINUOUS
 62
     7
100
AcDbLine
 10
230.682693
 20
163.273655
 30
0.0
 11
230.626511
 21
163.249769
 31
0.0
  0
LINE
  5
77D
330
746
100
AcDbEntity
  8
0
  6
CONTINUOUS
 62
     7
100
AcDbLine
 10
230.626511
 20
163.249769
 30
0.0
 11
230.557407
 21
163.218436
 31
0.0
  0
LINE
  5
77E
330
746
100
AcDbEntity
  8
0
  6
CONTINUOUS
 62
     7
100
AcDbLine
 10
230.557407
 20
163.218436
 30
0.0
 11
230.489189
 21
163.185429
 31
0.0
  0
LINE
  5
77F
330
746
100
AcDbEntity
  8
0
  6
CONTINUOUS
 62
     7
100
AcDbLine
 10
230.489189
 20
163.185429
 30
0.0
 11
230.421798
 21
163.150858
 31
0.0
  0
LINE
  5
780
330
746
100
AcDbEntity
  8
0
  6
CONTINUOUS
 62
     7
100
AcDbLine
 10
230.421798
 20
163.150858
 30
0.0
 11
230.355174
 21
163.114836
 31
0.0
  0
LINE
  5
781
330
746
100
AcDbEntity
  8
0
  6
CONTINUOUS
 62
     7
100
AcDbLine
 10
230.355174
 20
163.114836
 30
0.0
 11
230.28926
 21
163.077473
 31
0.0
  0
LINE
  5
782
330
746
100
AcDbEntity
  8
0
  6
CONTINUOUS
 62
     7
100
AcDbLine
 10
230.28926
 20
163.077473
 30
0.0
 11
230.223996
 21
163.038883
 31
0.0
  0
LINE
  5
783
330
746
100
AcDbEntity
  8
0
  6
CONTINUOUS
 62
     7
100
AcDbLine
 10
230.223996
 20
163.038883
 30
0.0
 11
230.159322
 21
162.999176
 31
0.0
  0
LINE
  5
784
330
746
100
AcDbEntity
  8
0
  6
CONTINUOUS
 62
     7
100
AcDbLine
 10
230.159322
 20
162.999176
 30
0.0
 11
230.09518
 21
162.958463
 31
0.0
  0
LINE
  5
785
330
746
100
AcDbEntity
  8
0
  6
CONTINUOUS
 62
     7
100
AcDbLine
 10
230.09518
 20
162.958463
 30
0.0
 11
230.03151
 21
162.916858
 31
0.0
  0
LINE
  5
786
330
746
100
AcDbEntity
  8
0
  6
CONTINUOUS
 62
     7
100
AcDbLine
 10
230.03151
 20
162.916858
 30
0.0
 11
229.968254
 21
162.874471
 31
0.0
  0
LINE
  5
787
330
746
100
AcDbEntity
  8
0
  6
CONTINUOUS
 62
     7
100
AcDbLine
 10
229.968254
 20
162.874471
 30
0.0
 11
229.905353
 21
162.831414
 31
0.0
  0
LINE
  5
788
330
746
100
AcDbEntity
  8
0
  6
CONTINUOUS
 62
     7
100
AcDbLine
 10
229.905353
 20
162.831414
 30
0.0
 11
229.842747
 21
162.787799
 31
0.0
  0
LINE
  5
789
330
746
100
AcDbEntity
  8
0
  6
CONTINUOUS
 62
     7
100
AcDbLine
 10
229.842747
 20
162.787799
 30
0.0
 11
229.780377
 21
162.743737
 31
0.0
  0
LINE
  5
78A
330
746
100
AcDbEntity
  8
0
  6
CONTINUOUS
 62
     7
100
AcDbLine
 10
229.780377
 20
162.743737
 30
0.0
 11
229.718184
 21
162.69934
 31
0.0
  0
LINE
  5
78B
330
746
100
AcDbEntity
  8
0
  6
CONTINUOUS
 62
     7
100
AcDbLine
 10
229.718184
 20
162.69934
 30
0.0
 11
229.594094
 21
162.609988
 31
0.0
  0
ENDBLK
  5
748
330
746
100
AcDbEntity
  8
0
100
AcDbBlockEnd
  0
BLOCK
  5
7A4
330
7A3
100
AcDbEntity
  8
0
100
AcDbBlockBegin
  2
BLKF044
 70
     0
 71
     0
 10
0.0
 20
0.0
 30
0.0
  3
BLKF044
  1

  0
LINE
  5
7A7
330
7A3
100
AcDbEntity
  8
0
  6
CONTINUOUS
 62
     7
100
AcDbLine
 10
229.594094
 20
149.642043
 30
0.0
 11
229.680565
 21
149.604886
 31
0.0
  0
LINE
  5
7A8
330
7A3
100
AcDbEntity
  8
0
  6
CONTINUOUS
 62
     7
100
AcDbLine
 10
229.680565
 20
149.604886
 30
0.0
 11
229.72383
 21
149.586391
 31
0.0
  0
LINE
  5
7A9
330
7A3
100
AcDbEntity
  8
0
  6
CONTINUOUS
 62
     7
100
AcDbLine
 10
229.72383
 20
149.586391
 30
0.0
 11
229.76713
 21
149.567997
 31
0.0
  0
LINE
  5
7AA
330
7A3
100
AcDbEntity
  8
0
  6
CONTINUOUS
 62
     7
100
AcDbLine
 10
229.76713
 20
149.567997
 30
0.0
 11
229.810478
 21
149.549736
 31
0.0
  0
LINE
  5
7AB
330
7A3
100
AcDbEntity
  8
0
  6
CONTINUOUS
 62
     7
100
AcDbLine
 10
229.810478
 20
149.549736
 30
0.0
 11
229.853884
 21
149.531643
 31
0.0
  0
LINE
  5
7AC
330
7A3
100
AcDbEntity
  8
0
  6
CONTINUOUS
 62
     7
100
AcDbLine
 10
229.853884
 20
149.531643
 30
0.0
 11
229.897361
 21
149.51375
 31
0.0
  0
LINE
  5
7AD
330
7A3
100
AcDbEntity
  8
0
  6
CONTINUOUS
 62
     7
100
AcDbLine
 10
229.897361
 20
149.51375
 30
0.0
 11
229.94092
 21
149.496091
 31
0.0
  0
LINE
  5
7AE
330
7A3
100
AcDbEntity
  8
0
  6
CONTINUOUS
 62
     7
100
AcDbLine
 10
229.94092
 20
149.496091
 30
0.0
 11
229.962734
 21
149.48736
 31
0.0
  0
LINE
  5
7AF
330
7A3
100
AcDbEntity
  8
0
  6
CONTINUOUS
 62
     7
100
AcDbLine
 10
229.962734
 20
149.48736
 30
0.0
 11
229.984574
 21
149.4787
 31
0.0
  0
LINE
  5
7B0
330
7A3
100
AcDbEntity
  8
0
  6
CONTINUOUS
 62
     7
100
AcDbLine
 10
229.984574
 20
149.4787
 30
0.0
 11
230.006439
 21
149.470115
 31
0.0
  0
LINE
  5
7B1
330
7A3
100
AcDbEntity
  8
0
  6
CONTINUOUS
 62
     7
100
AcDbLine
 10
230.006439
 20
149.470115
 30
0.0
 11
230.028333
 21
149.46161
 31
0.0
  0
LINE
  5
7B2
330
7A3
100
AcDbEntity
  8
0
  6
CONTINUOUS
 62
     7
100
AcDbLine
 10
230.028333
 20
149.46161
 30
0.0
 11
230.050256
 21
149.453189
 31
0.0
  0
LINE
  5
7B3
330
7A3
100
AcDbEntity
  8
0
  6
CONTINUOUS
 62
     7
100
AcDbLine
 10
230.050256
 20
149.453189
 30
0.0
 11
230.07221
 21
149.444855
 31
0.0
  0
LINE
  5
7B4
330
7A3
100
AcDbEntity
  8
0
  6
CONTINUOUS
 62
     7
100
AcDbLine
 10
230.07221
 20
149.444855
 30
0.0
 11
230.094197
 21
149.436613
 31
0.0
  0
LINE
  5
7B5
330
7A3
100
AcDbEntity
  8
0
  6
CONTINUOUS
 62
     7
100
AcDbLine
 10
230.094197
 20
149.436613
 30
0.0
 11
230.116217
 21
149.428467
 31
0.0
  0
LINE
  5
7B6
330
7A3
100
AcDbEntity
  8
0
  6
CONTINUOUS
 62
     7
100
AcDbLine
 10
230.116217
 20
149.428467
 30
0.0
 11
230.138272
 21
149.420422
 31
0.0
  0
LINE
  5
7B7
330
7A3
100
AcDbEntity
  8
0
  6
CONTINUOUS
 62
     7
100
AcDbLine
 10
230.138272
 20
149.420422
 30
0.0
 11
230.160365
 21
149.412481
 31
0.0
  0
LINE
  5
7B8
330
7A3
100
AcDbEntity
  8
0
  6
CONTINUOUS
 62
     7
100
AcDbLine
 10
230.160365
 20
149.412481
 30
0.0
 11
230.182495
 21
149.404649
 31
0.0
  0
LINE
  5
7B9
330
7A3
100
AcDbEntity
  8
0
  6
CONTINUOUS
 62
     7
100
AcDbLine
 10
230.182495
 20
149.404649
 30
0.0
 11
230.204666
 21
149.39693
 31
0.0
  0
LINE
  5
7BA
330
7A3
100
AcDbEntity
  8
0
  6
CONTINUOUS
 62
     7
100
AcDbLine
 10
230.204666
 20
149.39693
 30
0.0
 11
230.226877
 21
149.389328
 31
0.0
  0
LINE
  5
7BB
330
7A3
100
AcDbEntity
  8
0
  6
CONTINUOUS
 62
     7
100
AcDbLine
 10
230.226877
 20
149.389328
 30
0.0
 11
230.249131
 21
149.381847
 31
0.0
  0
LINE
  5
7BC
330
7A3
100
AcDbEntity
  8
0
  6
CONTINUOUS
 62
     7
100
AcDbLine
 10
230.249131
 20
149.381847
 30
0.0
 11
230.27143
 21
149.374492
 31
0.0
  0
LINE
  5
7BD
330
7A3
100
AcDbEntity
  8
0
  6
CONTINUOUS
 62
     7
100
AcDbLine
 10
230.27143
 20
149.374492
 30
0.0
 11
230.293773
 21
149.367266
 31
0.0
  0
LINE
  5
7BE
330
7A3
100
AcDbEntity
  8
0
  6
CONTINUOUS
 62
     7
100
AcDbLine
 10
230.293773
 20
149.367266
 30
0.0
 11
230.313947
 21
149.360864
 31
0.0
  0
LINE
  5
7BF
330
7A3
100
AcDbEntity
  8
0
  6
CONTINUOUS
 62
     7
100
AcDbLine
 10
230.313947
 20
149.360864
 30
0.0
 11
230.33415
 21
149.354543
 31
0.0
  0
LINE
  5
7C0
330
7A3
100
AcDbEntity
  8
0
  6
CONTINUOUS
 62
     7
100
AcDbLine
 10
230.33415
 20
149.354543
 30
0.0
 11
230.374602
 21
149.342038
 31
0.0
  0
ENDBLK
  5
7A5
330
7A3
100
AcDbEntity
  8
0
100
AcDbBlockEnd
  0
BLOCK
  5
7C3
330
7C2
100
AcDbEntity
  8
0
100
AcDbBlockBegin
  2
BLKF045
 70
     0
 71
     0
 10
0.0
 20
0.0
 30
0.0
  3
BLKF045
  1

  0
LINE
  5
7C6
330
7C2
100
AcDbEntity
  8
0
  6
CONTINUOUS
 62
     7
100
AcDbLine
 10
231.67075
 20
159.842037
 30
0.0
 11
231.561432
 21
159.829231
 31
0.0
  0
LINE
  5
7C7
330
7C2
100
AcDbEntity
  8
0
  6
CONTINUOUS
 62
     7
100
AcDbLine
 10
231.561432
 20
159.829231
 30
0.0
 11
231.452177
 21
159.816222
 31
0.0
  0
LINE
  5
7C8
330
7C2
100
AcDbEntity
  8
0
  6
CONTINUOUS
 62
     7
100
AcDbLine
 10
231.452177
 20
159.816222
 30
0.0
 11
231.343046
 21
159.802809
 31
0.0
  0
LINE
  5
7C9
330
7C2
100
AcDbEntity
  8
0
  6
CONTINUOUS
 62
     7
100
AcDbLine
 10
231.343046
 20
159.802809
 30
0.0
 11
231.288548
 21
159.795888
 31
0.0
  0
LINE
  5
7CA
330
7C2
100
AcDbEntity
  8
0
  6
CONTINUOUS
 62
     7
100
AcDbLine
 10
231.288548
 20
159.795888
 30
0.0
 11
231.234104
 21
159.78879
 31
0.0
  0
LINE
  5
7CB
330
7C2
100
AcDbEntity
  8
0
  6
CONTINUOUS
 62
     7
100
AcDbLine
 10
231.234104
 20
159.78879
 30
0.0
 11
231.179722
 21
159.78149
 31
0.0
  0
LINE
  5
7CC
330
7C2
100
AcDbEntity
  8
0
  6
CONTINUOUS
 62
     7
100
AcDbLine
 10
231.179722
 20
159.78149
 30
0.0
 11
231.125412
 21
159.773963
 31
0.0
  0
LINE
  5
7CD
330
7C2
100
AcDbEntity
  8
0
  6
CONTINUOUS
 62
     7
100
AcDbLine
 10
231.125412
 20
159.773963
 30
0.0
 11
231.071179
 21
159.766182
 31
0.0
  0
LINE
  5
7CE
330
7C2
100
AcDbEntity
  8
0
  6
CONTINUOUS
 62
     7
100
AcDbLine
 10
231.071179
 20
159.766182
 30
0.0
 11
231.017032
 21
159.758124
 31
0.0
  0
LINE
  5
7CF
330
7C2
100
AcDbEntity
  8
0
  6
CONTINUOUS
 62
     7
100
AcDbLine
 10
231.017032
 20
159.758124
 30
0.0
 11
230.96298
 21
159.749763
 31
0.0
  0
LINE
  5
7D0
330
7C2
100
AcDbEntity
  8
0
  6
CONTINUOUS
 62
     7
100
AcDbLine
 10
230.96298
 20
159.749763
 30
0.0
 11
230.909029
 21
159.741074
 31
0.0
  0
LINE
  5
7D1
330
7C2
100
AcDbEntity
  8
0
  6
CONTINUOUS
 62
     7
100
AcDbLine
 10
230.909029
 20
159.741074
 30
0.0
 11
230.855187
 21
159.73203
 31
0.0
  0
LINE
  5
7D2
330
7C2
100
AcDbEntity
  8
0
  6
CONTINUOUS
 62
     7
100
AcDbLine
 10
230.855187
 20
159.73203
 30
0.0
 11
230.801463
 21
159.722608
 31
0.0
  0
LINE
  5
7D3
330
7C2
100
AcDbEntity
  8
0
  6
CONTINUOUS
 62
     7
100
AcDbLine
 10
230.801463
 20
159.722608
 30
0.0
 11
230.747864
 21
159.712781
 31
0.0
  0
LINE
  5
7D4
330
7C2
100
AcDbEntity
  8
0
  6
CONTINUOUS
 62
     7
100
AcDbLine
 10
230.747864
 20
159.712781
 30
0.0
 11
230.694398
 21
159.702525
 31
0.0
  0
LINE
  5
7D5
330
7C2
100
AcDbEntity
  8
0
  6
CONTINUOUS
 62
     7
100
AcDbLine
 10
230.694398
 20
159.702525
 30
0.0
 11
230.641073
 21
159.691815
 31
0.0
  0
LINE
  5
7D6
330
7C2
100
AcDbEntity
  8
0
  6
CONTINUOUS
 62
     7
100
AcDbLine
 10
230.641073
 20
159.691815
 30
0.0
 11
230.587897
 21
159.680624
 31
0.0
  0
LINE
  5
7D7
330
7C2
100
AcDbEntity
  8
0
  6
CONTINUOUS
 62
     7
100
AcDbLine
 10
230.587897
 20
159.680624
 30
0.0
 11
230.534877
 21
159.668928
 31
0.0
  0
LINE
  5
7D8
330
7C2
100
AcDbEntity
  8
0
  6
CONTINUOUS
 62
     7
100
AcDbLine
 10
230.534877
 20
159.668928
 30
0.0
 11
230.482021
 21
159.656701
 31
0.0
  0
LINE
  5
7D9
330
7C2
100
AcDbEntity
  8
0
  6
CONTINUOUS
 62
     7
100
AcDbLine
 10
230.482021
 20
159.656701
 30
0.0
 11
230.429338
 21
159.643919
 31
0.0
  0
LINE
  5
7DA
330
7C2
100
AcDbEntity
  8
0
  6
CONTINUOUS
 62
     7
100
AcDbLine
 10
230.429338
 20
159.643919
 30
0.0
 11
230.376834
 21
159.630556
 31
0.0
  0
LINE
  5
7DB
330
7C2
100
AcDbEntity
  8
0
  6
CONTINUOUS
 62
     7
100
AcDbLine
 10
230.376834
 20
159.630556
 30
0.0
 11
230.324519
 21
159.616586
 31
0.0
  0
LINE
  5
7DC
330
7C2
100
AcDbEntity
  8
0
  6
CONTINUOUS
 62
     7
100
AcDbLine
 10
230.324519
 20
159.616586
 30
0.0
 11
230.272398
 21
159.601984
 31
0.0
  0
LINE
  5
7DD
330
7C2
100
AcDbEntity
  8
0
  6
CONTINUOUS
 62
     7
100
AcDbLine
 10
230.272398
 20
159.601984
 30
0.0
 11
230.220482
 21
159.586726
 31
0.0
  0
LINE
  5
7DE
330
7C2
100
AcDbEntity
  8
0
  6
CONTINUOUS
 62
     7
100
AcDbLine
 10
230.220482
 20
159.586726
 30
0.0
 11
230.168776
 21
159.570786
 31
0.0
  0
LINE
  5
7DF
330
7C2
100
AcDbEntity
  8
0
  6
CONTINUOUS
 62
     7
100
AcDbLine
 10
230.168776
 20
159.570786
 30
0.0
 11
230.11729
 21
159.554138
 31
0.0
  0
LINE
  5
7E0
330
7C2
100
AcDbEntity
  8
0
  6
CONTINUOUS
 62
     7
100
AcDbLine
 10
230.11729
 20
159.554138
 30
0.0
 11
230.06603
 21
159.536758
 31
0.0
  0
LINE
  5
7E1
330
7C2
100
AcDbEntity
  8
0
  6
CONTINUOUS
 62
     7
100
AcDbLine
 10
230.06603
 20
159.536758
 30
0.0
 11
230.015005
 21
159.518619
 31
0.0
  0
LINE
  5
7E2
330
7C2
100
AcDbEntity
  8
0
  6
CONTINUOUS
 62
     7
100
AcDbLine
 10
230.015005
 20
159.518619
 30
0.0
 11
229.964223
 21
159.499698
 31
0.0
  0
LINE
  5
7E3
330
7C2
100
AcDbEntity
  8
0
  6
CONTINUOUS
 62
     7
100
AcDbLine
 10
229.964223
 20
159.499698
 30
0.0
 11
229.917489
 21
159.481503
 31
0.0
  0
LINE
  5
7E4
330
7C2
100
AcDbEntity
  8
0
  6
CONTINUOUS
 62
     7
100
AcDbLine
 10
229.917489
 20
159.481503
 30
0.0
 11
229.870942
 21
159.462703
 31
0.0
  0
LINE
  5
7E5
330
7C2
100
AcDbEntity
  8
0
  6
CONTINUOUS
 62
     7
100
AcDbLine
 10
229.870942
 20
159.462703
 30
0.0
 11
229.824555
 21
159.443385
 31
0.0
  0
LINE
  5
7E6
330
7C2
100
AcDbEntity
  8
0
  6
CONTINUOUS
 62
     7
100
AcDbLine
 10
229.824555
 20
159.443385
 30
0.0
 11
229.778303
 21
159.423635
 31
0.0
  0
LINE
  5
7E7
330
7C2
100
AcDbEntity
  8
0
  6
CONTINUOUS
 62
     7
100
AcDbLine
 10
229.778303
 20
159.423635
 30
0.0
 11
229.732157
 21
159.40354
 31
0.0
  0
LINE
  5
7E8
330
7C2
100
AcDbEntity
  8
0
  6
CONTINUOUS
 62
     7
100
AcDbLine
 10
229.732157
 20
159.40354
 30
0.0
 11
229.686091
 21
159.383185
 31
0.0
  0
LINE
  5
7E9
330
7C2
100
AcDbEntity
  8
0
  6
CONTINUOUS
 62
     7
100
AcDbLine
 10
229.686091
 20
159.383185
 30
0.0
 11
229.594094
 21
159.342044
 31
0.0
  0
ENDBLK
  5
7C4
330
7C2
100
AcDbEntity
  8
0
100
AcDbBlockEnd
  0
BLOCK
  5
7EE
330
7ED
100
AcDbEntity
  8
0
100
AcDbBlockBegin
  2
BLKF046
 70
     0
 71
     0
 10
0.0
 20
0.0
 30
0.0
  3
BLKF046
  1

  0
LINE
  5
7F1
330
7ED
100
AcDbEntity
  8
0
  6
CONTINUOUS
 62
     7
100
AcDbLine
 10
237.17075
 20
159.842037
 30
0.0
 11
237.061432
 21
159.829231
 31
0.0
  0
LINE
  5
7F2
330
7ED
100
AcDbEntity
  8
0
  6
CONTINUOUS
 62
     7
100
AcDbLine
 10
237.061432
 20
159.829231
 30
0.0
 11
236.952176
 21
159.816222
 31
0.0
  0
LINE
  5
7F3
330
7ED
100
AcDbEntity
  8
0
  6
CONTINUOUS
 62
     7
100
AcDbLine
 10
236.952176
 20
159.816222
 30
0.0
 11
236.843046
 21
159.802809
 31
0.0
  0
LINE
  5
7F4
330
7ED
100
AcDbEntity
  8
0
  6
CONTINUOUS
 62
     7
100
AcDbLine
 10
236.843046
 20
159.802809
 30
0.0
 11
236.788547
 21
159.795888
 31
0.0
  0
LINE
  5
7F5
330
7ED
100
AcDbEntity
  8
0
  6
CONTINUOUS
 62
     7
100
AcDbLine
 10
236.788547
 20
159.795888
 30
0.0
 11
236.734104
 21
159.78879
 31
0.0
  0
LINE
  5
7F6
330
7ED
100
AcDbEntity
  8
0
  6
CONTINUOUS
 62
     7
100
AcDbLine
 10
236.734104
 20
159.78879
 30
0.0
 11
236.679722
 21
159.78149
 31
0.0
  0
LINE
  5
7F7
330
7ED
100
AcDbEntity
  8
0
  6
CONTINUOUS
 62
     7
100
AcDbLine
 10
236.679722
 20
159.78149
 30
0.0
 11
236.625411
 21
159.773963
 31
0.0
  0
LINE
  5
7F8
330
7ED
100
AcDbEntity
  8
0
  6
CONTINUOUS
 62
     7
100
AcDbLine
 10
236.625411
 20
159.773963
 30
0.0
 11
236.571179
 21
159.766183
 31
0.0
  0
LINE
  5
7F9
330
7ED
100
AcDbEntity
  8
0
  6
CONTINUOUS
 62
     7
100
AcDbLine
 10
236.571179
 20
159.766183
 30
0.0
 11
236.517032
 21
159.758125
 31
0.0
  0
LINE
  5
7FA
330
7ED
100
AcDbEntity
  8
0
  6
CONTINUOUS
 62
     7
100
AcDbLine
 10
236.517032
 20
159.758125
 30
0.0
 11
236.462979
 21
159.749763
 31
0.0
  0
LINE
  5
7FB
330
7ED
100
AcDbEntity
  8
0
  6
CONTINUOUS
 62
     7
100
AcDbLine
 10
236.462979
 20
159.749763
 30
0.0
 11
236.409028
 21
159.741074
 31
0.0
  0
LINE
  5
7FC
330
7ED
100
AcDbEntity
  8
0
  6
CONTINUOUS
 62
     7
100
AcDbLine
 10
236.409028
 20
159.741074
 30
0.0
 11
236.355187
 21
159.73203
 31
0.0
  0
LINE
  5
7FD
330
7ED
100
AcDbEntity
  8
0
  6
CONTINUOUS
 62
     7
100
AcDbLine
 10
236.355187
 20
159.73203
 30
0.0
 11
236.301463
 21
159.722608
 31
0.0
  0
LINE
  5
7FE
330
7ED
100
AcDbEntity
  8
0
  6
CONTINUOUS
 62
     7
100
AcDbLine
 10
236.301463
 20
159.722608
 30
0.0
 11
236.247864
 21
159.712782
 31
0.0
  0
LINE
  5
7FF
330
7ED
100
AcDbEntity
  8
0
  6
CONTINUOUS
 62
     7
100
AcDbLine
 10
236.247864
 20
159.712782
 30
0.0
 11
236.194398
 21
159.702526
 31
0.0
  0
LINE
  5
800
330
7ED
100
AcDbEntity
  8
0
  6
CONTINUOUS
 62
     7
100
AcDbLine
 10
236.194398
 20
159.702526
 30
0.0
 11
236.141073
 21
159.691815
 31
0.0
  0
LINE
  5
801
330
7ED
100
AcDbEntity
  8
0
  6
CONTINUOUS
 62
     7
100
AcDbLine
 10
236.141073
 20
159.691815
 30
0.0
 11
236.087896
 21
159.680624
 31
0.0
  0
LINE
  5
802
330
7ED
100
AcDbEntity
  8
0
  6
CONTINUOUS
 62
     7
100
AcDbLine
 10
236.087896
 20
159.680624
 30
0.0
 11
236.034877
 21
159.668928
 31
0.0
  0
LINE
  5
803
330
7ED
100
AcDbEntity
  8
0
  6
CONTINUOUS
 62
     7
100
AcDbLine
 10
236.034877
 20
159.668928
 30
0.0
 11
235.982021
 21
159.656702
 31
0.0
  0
LINE
  5
804
330
7ED
100
AcDbEntity
  8
0
  6
CONTINUOUS
 62
     7
100
AcDbLine
 10
235.982021
 20
159.656702
 30
0.0
 11
235.929337
 21
159.643919
 31
0.0
  0
LINE
  5
805
330
7ED
100
AcDbEntity
  8
0
  6
CONTINUOUS
 62
     7
100
AcDbLine
 10
235.929337
 20
159.643919
 30
0.0
 11
235.876834
 21
159.630556
 31
0.0
  0
LINE
  5
806
330
7ED
100
AcDbEntity
  8
0
  6
CONTINUOUS
 62
     7
100
AcDbLine
 10
235.876834
 20
159.630556
 30
0.0
 11
235.824518
 21
159.616586
 31
0.0
  0
LINE
  5
807
330
7ED
100
AcDbEntity
  8
0
  6
CONTINUOUS
 62
     7
100
AcDbLine
 10
235.824518
 20
159.616586
 30
0.0
 11
235.772398
 21
159.601985
 31
0.0
  0
LINE
  5
808
330
7ED
100
AcDbEntity
  8
0
  6
CONTINUOUS
 62
     7
100
AcDbLine
 10
235.772398
 20
159.601985
 30
0.0
 11
235.720481
 21
159.586726
 31
0.0
  0
LINE
  5
809
330
7ED
100
AcDbEntity
  8
0
  6
CONTINUOUS
 62
     7
100
AcDbLine
 10
235.720481
 20
159.586726
 30
0.0
 11
235.668776
 21
159.570786
 31
0.0
  0
LINE
  5
80A
330
7ED
100
AcDbEntity
  8
0
  6
CONTINUOUS
 62
     7
100
AcDbLine
 10
235.668776
 20
159.570786
 30
0.0
 11
235.617289
 21
159.554138
 31
0.0
  0
LINE
  5
80B
330
7ED
100
AcDbEntity
  8
0
  6
CONTINUOUS
 62
     7
100
AcDbLine
 10
235.617289
 20
159.554138
 30
0.0
 11
235.56603
 21
159.536758
 31
0.0
  0
LINE
  5
80C
330
7ED
100
AcDbEntity
  8
0
  6
CONTINUOUS
 62
     7
100
AcDbLine
 10
235.56603
 20
159.536758
 30
0.0
 11
235.515005
 21
159.518619
 31
0.0
  0
LINE
  5
80D
330
7ED
100
AcDbEntity
  8
0
  6
CONTINUOUS
 62
     7
100
AcDbLine
 10
235.515005
 20
159.518619
 30
0.0
 11
235.464223
 21
159.499698
 31
0.0
  0
LINE
  5
80E
330
7ED
100
AcDbEntity
  8
0
  6
CONTINUOUS
 62
     7
100
AcDbLine
 10
235.464223
 20
159.499698
 30
0.0
 11
235.417488
 21
159.481503
 31
0.0
  0
LINE
  5
80F
330
7ED
100
AcDbEntity
  8
0
  6
CONTINUOUS
 62
     7
100
AcDbLine
 10
235.417488
 20
159.481503
 30
0.0
 11
235.370942
 21
159.462703
 31
0.0
  0
LINE
  5
810
330
7ED
100
AcDbEntity
  8
0
  6
CONTINUOUS
 62
     7
100
AcDbLine
 10
235.370942
 20
159.462703
 30
0.0
 11
235.324555
 21
159.443385
 31
0.0
  0
LINE
  5
811
330
7ED
100
AcDbEntity
  8
0
  6
CONTINUOUS
 62
     7
100
AcDbLine
 10
235.324555
 20
159.443385
 30
0.0
 11
235.278302
 21
159.423635
 31
0.0
  0
LINE
  5
812
330
7ED
100
AcDbEntity
  8
0
  6
CONTINUOUS
 62
     7
100
AcDbLine
 10
235.278302
 20
159.423635
 30
0.0
 11
235.232157
 21
159.40354
 31
0.0
  0
LINE
  5
813
330
7ED
100
AcDbEntity
  8
0
  6
CONTINUOUS
 62
     7
100
AcDbLine
 10
235.232157
 20
159.40354
 30
0.0
 11
235.186091
 21
159.383185
 31
0.0
  0
LINE
  5
814
330
7ED
100
AcDbEntity
  8
0
  6
CONTINUOUS
 62
     7
100
AcDbLine
 10
235.186091
 20
159.383185
 30
0.0
 11
235.094094
 21
159.342044
 31
0.0
  0
ENDBLK
  5
7EF
330
7ED
100
AcDbEntity
  8
0
100
AcDbBlockEnd
  0
BLOCK
  5
82A
330
829
100
AcDbEntity
  8
0
100
AcDbBlockBegin
  2
BLKF047
 70
     0
 71
     0
 10
0.0
 20
0.0
 30
0.0
  3
BLKF047
  1

  0
LINE
  5
82D
330
829
100
AcDbEntity
  8
0
  6
CONTINUOUS
 62
     7
100
AcDbLine
 10
246.602777
 20
158.125856
 30
0.0
 11
246.746527
 21
158.025198
 31
0.0
  0
LINE
  5
82E
330
829
100
AcDbEntity
  8
0
  6
CONTINUOUS
 62
     7
100
AcDbLine
 10
246.746527
 20
158.025198
 30
0.0
 11
247.165007
 21
157.732167
 31
0.0
  0
LINE
  5
82F
330
829
100
AcDbEntity
  8
0
  6
CONTINUOUS
 62
     7
100
AcDbLine
 10
247.165007
 20
157.732167
 30
0.0
 11
247.821032
 21
157.272824
 31
0.0
  0
LINE
  5
830
330
829
100
AcDbEntity
  8
0
  6
CONTINUOUS
 62
     7
100
AcDbLine
 10
247.821032
 20
157.272824
 30
0.0
 11
248.656311
 21
156.687953
 31
0.0
  0
LINE
  5
831
330
829
100
AcDbEntity
  8
0
  6
CONTINUOUS
 62
     7
100
AcDbLine
 10
248.656311
 20
156.687953
 30
0.0
 11
249.596627
 21
156.02953
 31
0.0
  0
LINE
  5
832
330
829
100
AcDbEntity
  8
0
  6
CONTINUOUS
 62
     7
100
AcDbLine
 10
249.596627
 20
156.02953
 30
0.0
 11
250.558427
 21
155.356072
 31
0.0
  0
LINE
  5
833
330
829
100
AcDbEntity
  8
0
  6
CONTINUOUS
 62
     7
100
AcDbLine
 10
250.558427
 20
155.356072
 30
0.0
 11
251.456253
 21
154.727407
 31
0.0
  0
LINE
  5
834
330
829
100
AcDbEntity
  8
0
  6
CONTINUOUS
 62
     7
100
AcDbLine
 10
251.456253
 20
154.727407
 30
0.0
 11
252.210327
 21
154.1994
 31
0.0
  0
LINE
  5
835
330
829
100
AcDbEntity
  8
0
  6
CONTINUOUS
 62
     7
100
AcDbLine
 10
252.210327
 20
154.1994
 30
0.0
 11
252.753647
 21
153.818973
 31
0.0
  0
LINE
  5
836
330
829
100
AcDbEntity
  8
0
  6
CONTINUOUS
 62
     7
100
AcDbLine
 10
252.753647
 20
153.818973
 30
0.0
 11
253.037937
 21
153.619908
 31
0.0
  0
LINE
  5
837
330
829
100
AcDbEntity
  8
0
  6
CONTINUOUS
 62
     7
100
AcDbLine
 10
253.037937
 20
153.619908
 30
0.0
 11
253.074078
 21
153.594591
 31
0.0
  0
ENDBLK
  5
82B
330
829
100
AcDbEntity
  8
0
100
AcDbBlockEnd
  0
BLOCK
  5
839
330
838
100
AcDbEntity
  8
0
100
AcDbBlockBegin
  2
BLKF048
 70
     0
 71
     0
 10
0.0
 20
0.0
 30
0.0
  3
BLKF048
  1

  0
ARC
  5
83C
330
838
100
AcDbEntity
  8
CSLAYER3
  6
CONTINUOUS
 62
     3
100
AcDbCircle
 10
234.42075
 20
133.841502
 30
0.0
 40
44.41010492912068
100
AcDbArc
 50
55.0
 51
90.0
  0
LINE
  5
83D
330
838
100
AcDbEntity
  8
CSLAYER3
  6
CONTINUOUS
 62
     3
100
AcDbLine
 10
258.527063
 20
171.775917
 30
0.0
 11
259.89334
 21
170.22013
 31
0.0
  0
LINE
  5
83E
330
838
100
AcDbEntity
  8
CSLAYER3
  6
CONTINUOUS
 62
     3
100
AcDbLine
 10
259.89334
 20
170.22013
 30
0.0
 11
257.932216
 21
170.884343
 31
0.0
  0
LINE
  5
83F
330
838
100
AcDbEntity
  8
CSLAYER3
  6
CONTINUOUS
 62
     3
100
AcDbLine
 10
259.89334
 20
170.22013
 30
0.0
 11
258.229639
 21
171.33013
 31
0.0
  0
LINE
  5
840
330
838
100
AcDbEntity
  8
CSLAYER3
  6
CONTINUOUS
 62
     3
100
AcDbLine
 10
236.408186
 20
177.670844
 30
0.0
 11
234.42075
 21
178.251607
 31
0.0
  0
LINE
  5
841
330
838
100
AcDbEntity
  8
CSLAYER3
  6
CONTINUOUS
 62
     3
100
AcDbLine
 10
234.42075
 20
178.251607
 30
0.0
 11
236.432302
 21
178.742368
 31
0.0
  0
LINE
  5
842
330
838
100
AcDbEntity
  8
CSLAYER3
  6
CONTINUOUS
 62
     3
100
AcDbLine
 10
234.42075
 20
178.251607
 30
0.0
 11
236.420244
 21
178.206606
 31
0.0
  0
TEXT
  5
843
330
838
100
AcDbEntity
  8
CSLAYER3
 62
     3
100
AcDbText
 10
245.104172
 20
177.59256
 30
0.0
 40
3.0
  1
35°
 50
341.831512
 41
0.801818
  7
ED_VECTOR
 72
     5
 11
251.090077
 21
175.628142
 31
0.0
100
AcDbText
  0
ENDBLK
  5
83A
330
838
100
AcDbEntity
  8
0
100
AcDbBlockEnd
  0
ENDSEC
  0
SECTION
  2
ENTITIES
  0
TEXT
  5
6F
330
1F
100
AcDbEntity
  8
CSLAYER3
 62
     3
100
AcDbText
 10
20.0
 20
274.993439
 30
0.0
 40
12.7
  1
BM325
 41
0.720588
  7
ED_VECTOR
 72
     5
 11
64.450002
 21
274.993439
 31
0.0
100
AcDbText
  0
LINE
  5
70
330
1F
100
AcDbEntity
  8
0
  6
CONTINUOUS
 62
     7
100
AcDbLine
 10
172.57666
 20
190.923989
 30
0.0
 11
172.57666
 21
213.695311
 31
0.0
  0
LINE
  5
71
330
1F
100
AcDbEntity
  8
0
  6
CONTINUOUS
 62
     7
100
AcDbLine
 10
166.076658
 20
213.695311
 30
0.0
 11
166.076658
 21
191.542492
 31
0.0
  0
LINE
  5
72
330
1F
100
AcDbEntity
  8
0
  6
CONTINUOUS
 62
     7
100
AcDbLine
 10
178.376657
 20
248.995312
 30
0.0
 11
178.376657
 21
253.195309
 31
0.0
  0
LINE
  5
73
330
1F
100
AcDbEntity
  8
0
  6
CONTINUOUS
 62
     7
100
AcDbLine
 10
160.276658
 20
253.195309
 30
0.0
 11
160.276658
 21
248.995312
 31
0.0
  0
LINE
  5
74
330
1F
100
AcDbEntity
  8
0
  6
CONTINUOUS
 62
     7
100
AcDbLine
 10
178.376657
 20
255.695306
 30
0.0
 11
178.376657
 21
260.695317
 31
0.0
  0
LINE
  5
75
330
1F
100
AcDbEntity
  8
0
  6
CONTINUOUS
 62
     7
100
AcDbLine
 10
160.276658
 20
260.695317
 30
0.0
 11
160.276658
 21
255.695306
 31
0.0
  0
LINE
  5
76
330
1F
100
AcDbEntity
  8
0
  6
CONTINUOUS
 62
     7
100
AcDbLine
 10
160.376658
 20
231.545307
 30
0.0
 11
160.826658
 21
222.745307
 31
0.0
  0
LINE
  5
77
330
1F
100
AcDbEntity
  8
0
  6
CONTINUOUS
 62
     7
100
AcDbLine
 10
177.826659
 20
222.745307
 30
0.0
 11
178.27666
 21
231.545307
 31
0.0
  0
LINE
  5
78
330
1F
100
AcDbEntity
  8
0
  6
CONTINUOUS
 62
     7
100
AcDbLine
 10
178.27666
 20
239.295312
 30
0.0
 11
178.27666
 21
244.295307
 31
0.0
  0
LINE
  5
79
330
1F
100
AcDbEntity
  8
0
  6
CONTINUOUS
 62
     7
100
AcDbLine
 10
178.27666
 20
231.545307
 30
0.0
 11
178.27666
 21
233.345308
 31
0.0
  0
LINE
  5
7A
330
1F
100
AcDbEntity
  8
0
  6
CONTINUOUS
 62
     7
100
AcDbLine
 10
160.376658
 20
233.345308
 30
0.0
 11
160.376658
 21
231.545307
 31
0.0
  0
LINE
  5
7B
330
1F
100
AcDbEntity
  8
0
  6
CONTINUOUS
 62
     7
100
AcDbLine
 10
160.376658
 20
244.295307
 30
0.0
 11
160.376658
 21
239.295312
 31
0.0
  0
LINE
  5
7C
330
1F
100
AcDbEntity
  8
0
  6
CONTINUOUS
 62
     7
100
AcDbLine
 10
178.27666
 20
244.295307
 30
0.0
 11
177.776658
 21
244.795316
 31
0.0
  0
LINE
  5
7D
330
1F
100
AcDbEntity
  8
0
  6
CONTINUOUS
 62
     7
100
AcDbLine
 10
160.876659
 20
244.795316
 30
0.0
 11
160.376658
 21
244.295307
 31
0.0
  0
LINE
  5
7E
330
1F
100
AcDbEntity
  8
0
  6
CONTINUOUS
 62
     7
100
AcDbLine
 10
178.126657
 20
247.99531
 30
0.0
 11
178.126657
 21
248.995312
 31
0.0
  0
LINE
  5
7F
330
1F
100
AcDbEntity
  8
0
  6
CONTINUOUS
 62
     7
100
AcDbLine
 10
160.526659
 20
248.995312
 30
0.0
 11
160.526659
 21
247.99531
 31
0.0
  0
LINE
  5
80
330
1F
100
AcDbEntity
  8
0
  6
CONTINUOUS
 62
     7
100
AcDbLine
 10
178.126657
 20
253.195309
 30
0.0
 11
178.126657
 21
255.695306
 31
0.0
  0
LINE
  5
81
330
1F
100
AcDbEntity
  8
0
  6
CONTINUOUS
 62
     7
100
AcDbLine
 10
160.526659
 20
255.695306
 30
0.0
 11
160.526659
 21
253.195309
 31
0.0
  0
LINE
  5
82
330
1F
100
AcDbEntity
  8
0
  6
CONTINUOUS
 62
     7
100
AcDbLine
 10
178.126657
 20
260.695317
 30
0.0
 11
178.126657
 21
261.795305
 31
0.0
  0
LINE
  5
83
330
1F
100
AcDbEntity
  8
0
  6
CONTINUOUS
 62
     7
100
AcDbLine
 10
160.526659
 20
261.795305
 30
0.0
 11
160.526659
 21
260.695317
 31
0.0
  0
LINE
  5
84
330
1F
100
AcDbEntity
  8
0
  6
CONTINUOUS
 62
     7
100
AcDbLine
 10
177.776658
 20
244.795316
 30
0.0
 11
177.776658
 21
247.99531
 31
0.0
  0
LINE
  5
85
330
1F
100
AcDbEntity
  8
0
  6
CONTINUOUS
 62
     7
100
AcDbLine
 10
160.876659
 20
247.99531
 30
0.0
 11
160.876659
 21
244.795316
 31
0.0
  0
LINE
  5
86
330
1F
100
AcDbEntity
  8
0
  6
CONTINUOUS
 62
     7
100
AcDbLine
 10
177.326658
 20
261.795305
 30
0.0
 11
177.326658
 21
266.195305
 31
0.0
  0
LINE
  5
87
330
1F
100
AcDbEntity
  8
0
  6
CONTINUOUS
 62
     7
100
AcDbLine
 10
161.326659
 20
266.195305
 30
0.0
 11
161.326659
 21
261.795305
 31
0.0
  0
LINE
  5
88
330
1F
100
AcDbEntity
  8
0
  6
CONTINUOUS
 62
     7
100
AcDbLine
 10
176.826657
 20
216.695309
 30
0.0
 11
176.826657
 21
222.745307
 31
0.0
  0
LINE
  5
89
330
1F
100
AcDbEntity
  8
0
  6
CONTINUOUS
 62
     7
100
AcDbLine
 10
161.826657
 20
222.745307
 30
0.0
 11
161.826657
 21
216.695309
 31
0.0
  0
LINE
  5
8A
330
1F
100
AcDbEntity
  8
0
  6
CONTINUOUS
 62
     7
100
AcDbLine
 10
176.176657
 20
266.195305
 30
0.0
 11
176.176657
 21
270.695307
 31
0.0
  0
LINE
  5
8B
330
1F
100
AcDbEntity
  8
0
  6
CONTINUOUS
 62
     7
100
AcDbLine
 10
162.47666
 20
270.695307
 30
0.0
 11
162.47666
 21
266.195305
 31
0.0
  0
LINE
  5
8C
330
1F
100
AcDbEntity
  8
0
  6
CONTINUOUS
 62
     7
100
AcDbLine
 10
167.326657
 20
270.695307
 30
0.0
 11
169.326657
 21
270.695307
 31
0.0
  0
LINE
  5
8D
330
1F
100
AcDbEntity
  8
0
  6
CONTINUOUS
 62
     7
100
AcDbLine
 10
169.440312
 20
213.695311
 30
0.0
 11
169.213006
 21
213.695311
 31
0.0
  0
LINE
  5
8E
330
1F
100
AcDbEntity
  8
0
  6
CONTINUOUS
 62
     7
100
AcDbLine
 10
169.213006
 20
213.695311
 30
0.0
 11
169.213006
 21
216.695309
 31
0.0
  0
LINE
  5
8F
330
1F
100
AcDbEntity
  8
0
  6
CONTINUOUS
 62
     7
100
AcDbLine
 10
169.440312
 20
216.695309
 30
0.0
 11
169.213006
 21
216.695309
 31
0.0
  0
LINE
  5
90
330
1F
100
AcDbEntity
  8
0
  6
CONTINUOUS
 62
     7
100
AcDbLine
 10
169.440312
 20
216.695309
 30
0.0
 11
169.440312
 21
213.695311
 31
0.0
  0
LINE
  5
91
330
1F
100
AcDbEntity
  8
0
  6
CONTINUOUS
 62
     7
100
AcDbLine
 10
177.713008
 20
213.695311
 30
0.0
 11
177.713008
 21
216.695309
 31
0.0
  0
LINE
  5
92
330
1F
100
AcDbEntity
  8
0
  6
CONTINUOUS
 62
     7
100
AcDbLine
 10
177.713008
 20
216.695309
 30
0.0
 11
169.440312
 21
216.695309
 31
0.0
  0
LINE
  5
93
330
1F
100
AcDbEntity
  8
0
  6
CONTINUOUS
 62
     7
100
AcDbLine
 10
177.713008
 20
213.695311
 30
0.0
 11
169.440312
 21
213.695311
 31
0.0
  0
LINE
  5
94
330
1F
100
AcDbEntity
  8
0
  6
CONTINUOUS
 62
     7
100
AcDbLine
 10
160.94031
 20
216.695309
 30
0.0
 11
160.94031
 21
213.695311
 31
0.0
  0
LINE
  5
95
330
1F
100
AcDbEntity
  8
0
  6
CONTINUOUS
 62
     7
100
AcDbLine
 10
169.213006
 20
216.695309
 30
0.0
 11
160.94031
 21
216.695309
 31
0.0
  0
LINE
  5
96
330
1F
100
AcDbEntity
  8
0
  6
CONTINUOUS
 62
     7
100
AcDbLine
 10
169.213006
 20
213.695311
 30
0.0
 11
160.94031
 21
213.695311
 31
0.0
  0
LINE
  5
97
330
1F
100
AcDbEntity
  8
0
  6
CONTINUOUS
 62
     7
100
AcDbLine
 10
169.326657
 20
253.195309
 30
0.0
 11
160.276658
 21
253.195309
 31
0.0
  0
LINE
  5
98
330
1F
100
AcDbEntity
  8
0
  6
CONTINUOUS
 62
     7
100
AcDbLine
 10
178.376657
 20
253.195309
 30
0.0
 11
169.326657
 21
253.195309
 31
0.0
  0
LINE
  5
99
330
1F
100
AcDbEntity
  8
0
  6
CONTINUOUS
 62
     7
100
AcDbLine
 10
169.326657
 20
248.995312
 30
0.0
 11
160.276658
 21
248.995312
 31
0.0
  0
LINE
  5
9A
330
1F
100
AcDbEntity
  8
0
  6
CONTINUOUS
 62
     7
100
AcDbLine
 10
178.376657
 20
248.995312
 30
0.0
 11
169.326657
 21
248.995312
 31
0.0
  0
LINE
  5
9B
330
1F
100
AcDbEntity
  8
0
  6
CONTINUOUS
 62
     7
100
AcDbLine
 10
169.326657
 20
260.695317
 30
0.0
 11
160.276658
 21
260.695317
 31
0.0
  0
LINE
  5
9C
330
1F
100
AcDbEntity
  8
0
  6
CONTINUOUS
 62
     7
100
AcDbLine
 10
178.376657
 20
260.695317
 30
0.0
 11
169.326657
 21
260.695317
 31
0.0
  0
LINE
  5
9D
330
1F
100
AcDbEntity
  8
0
  6
CONTINUOUS
 62
     7
100
AcDbLine
 10
169.326657
 20
255.695306
 30
0.0
 11
160.276658
 21
255.695306
 31
0.0
  0
LINE
  5
9E
330
1F
100
AcDbEntity
  8
0
  6
CONTINUOUS
 62
     7
100
AcDbLine
 10
178.376657
 20
255.695306
 30
0.0
 11
169.326657
 21
255.695306
 31
0.0
  0
LINE
  5
9F
330
1F
100
AcDbEntity
  8
0
  6
CONTINUOUS
 62
     7
100
AcDbLine
 10
169.326657
 20
231.545307
 30
0.0
 11
160.376658
 21
231.545307
 31
0.0
  0
LINE
  5
A0
330
1F
100
AcDbEntity
  8
0
  6
CONTINUOUS
 62
     7
100
AcDbLine
 10
178.27666
 20
231.545307
 30
0.0
 11
169.326657
 21
231.545307
 31
0.0
  0
LINE
  5
A1
330
1F
100
AcDbEntity
  8
0
  6
CONTINUOUS
 62
     7
100
AcDbLine
 10
169.326657
 20
222.745307
 30
0.0
 11
160.826658
 21
222.745307
 31
0.0
  0
LINE
  5
A2
330
1F
100
AcDbEntity
  8
0
  6
CONTINUOUS
 62
     7
100
AcDbLine
 10
177.826659
 20
222.745307
 30
0.0
 11
169.326657
 21
222.745307
 31
0.0
  0
LINE
  5
A3
330
1F
100
AcDbEntity
  8
0
  6
CONTINUOUS
 62
     7
100
AcDbLine
 10
169.326657
 20
244.295307
 30
0.0
 11
160.376658
 21
244.295307
 31
0.0
  0
LINE
  5
A4
330
1F
100
AcDbEntity
  8
0
  6
CONTINUOUS
 62
     7
100
AcDbLine
 10
178.27666
 20
244.295307
 30
0.0
 11
169.326657
 21
244.295307
 31
0.0
  0
LINE
  5
A5
330
1F
100
AcDbEntity
  8
0
  6
CONTINUOUS
 62
     7
100
AcDbLine
 10
161.35166
 20
233.345308
 30
0.0
 11
160.376658
 21
233.345308
 31
0.0
  0
LINE
  5
A6
330
1F
100
AcDbEntity
  8
0
  6
CONTINUOUS
 62
     7
100
AcDbLine
 10
161.35166
 20
239.295312
 30
0.0
 11
161.35166
 21
233.345308
 31
0.0
  0
LINE
  5
A7
330
1F
100
AcDbEntity
  8
0
  6
CONTINUOUS
 62
     7
100
AcDbLine
 10
160.376658
 20
239.295312
 30
0.0
 11
161.35166
 21
239.295312
 31
0.0
  0
LINE
  5
A8
330
1F
100
AcDbEntity
  8
0
  6
CONTINUOUS
 62
     7
100
AcDbLine
 10
177.301658
 20
239.295312
 30
0.0
 11
178.27666
 21
239.295312
 31
0.0
  0
LINE
  5
A9
330
1F
100
AcDbEntity
  8
0
  6
CONTINUOUS
 62
     7
100
AcDbLine
 10
177.301658
 20
233.345308
 30
0.0
 11
177.301658
 21
239.295312
 31
0.0
  0
LINE
  5
AA
330
1F
100
AcDbEntity
  8
0
  6
CONTINUOUS
 62
     7
100
AcDbLine
 10
178.27666
 20
233.345308
 30
0.0
 11
177.301658
 21
233.345308
 31
0.0
  0
LINE
  5
AB
330
1F
100
AcDbEntity
  8
0
  6
CONTINUOUS
 62
     7
100
AcDbLine
 10
169.326657
 20
244.795316
 30
0.0
 11
160.876659
 21
244.795316
 31
0.0
  0
LINE
  5
AC
330
1F
100
AcDbEntity
  8
0
  6
CONTINUOUS
 62
     7
100
AcDbLine
 10
177.776658
 20
244.795316
 30
0.0
 11
169.326657
 21
244.795316
 31
0.0
  0
LINE
  5
AD
330
1F
100
AcDbEntity
  8
0
  6
CONTINUOUS
 62
     7
100
AcDbLine
 10
169.326657
 20
247.99531
 30
0.0
 11
160.526659
 21
247.99531
 31
0.0
  0
LINE
  5
AE
330
1F
100
AcDbEntity
  8
0
  6
CONTINUOUS
 62
     7
100
AcDbLine
 10
178.126657
 20
247.99531
 30
0.0
 11
169.326657
 21
247.99531
 31
0.0
  0
LINE
  5
AF
330
1F
100
AcDbEntity
  8
0
  6
CONTINUOUS
 62
     7
100
AcDbLine
 10
169.326657
 20
261.795305
 30
0.0
 11
160.526659
 21
261.795305
 31
0.0
  0
LINE
  5
B0
330
1F
100
AcDbEntity
  8
0
  6
CONTINUOUS
 62
     7
100
AcDbLine
 10
178.126657
 20
261.795305
 30
0.0
 11
169.326657
 21
261.795305
 31
0.0
  0
LINE
  5
B1
330
1F
100
AcDbEntity
  8
0
  6
CONTINUOUS
 62
     7
100
AcDbLine
 10
169.326657
 20
266.195305
 30
0.0
 11
161.326659
 21
266.195305
 31
0.0
  0
LINE
  5
B2
330
1F
100
AcDbEntity
  8
0
  6
CONTINUOUS
 62
     7
100
AcDbLine
 10
177.326658
 20
266.195305
 30
0.0
 11
169.326657
 21
266.195305
 31
0.0
  0
LINE
  5
B3
330
1F
100
AcDbEntity
  8
0
  6
CONTINUOUS
 62
     7
100
AcDbLine
 10
169.326657
 20
270.695307
 30
0.0
 11
162.47666
 21
270.695307
 31
0.0
  0
LINE
  5
B4
330
1F
100
AcDbEntity
  8
0
  6
CONTINUOUS
 62
     7
100
AcDbLine
 10
176.176657
 20
270.695307
 30
0.0
 11
169.326657
 21
270.695307
 31
0.0
  0
LINE
  5
B5
330
1F
100
AcDbEntity
  8
0
  6
CONTINUOUS
 62
     7
100
AcDbLine
 10
177.826659
 20
216.695309
 30
0.0
 11
177.826659
 21
213.695311
 31
0.0
  0
LINE
  5
B6
330
1F
100
AcDbEntity
  8
0
  6
CONTINUOUS
 62
     7
100
AcDbLine
 10
177.826659
 20
216.695309
 30
0.0
 11
177.713008
 21
216.695309
 31
0.0
  0
LINE
  5
B7
330
1F
100
AcDbEntity
  8
0
  6
CONTINUOUS
 62
     7
100
AcDbLine
 10
177.826659
 20
213.695311
 30
0.0
 11
177.713008
 21
213.695311
 31
0.0
  0
LINE
  5
B8
330
1F
100
AcDbEntity
  8
0
  6
CONTINUOUS
 62
     7
100
AcDbLine
 10
160.826658
 20
213.695311
 30
0.0
 11
160.826658
 21
216.695309
 31
0.0
  0
LINE
  5
B9
330
1F
100
AcDbEntity
  8
0
  6
CONTINUOUS
 62
     7
100
AcDbLine
 10
160.94031
 20
216.695309
 30
0.0
 11
160.826658
 21
216.695309
 31
0.0
  0
LINE
  5
BA
330
1F
100
AcDbEntity
  8
0
  6
CONTINUOUS
 62
     7
100
AcDbLine
 10
160.94031
 20
213.695311
 30
0.0
 11
160.826658
 21
213.695311
 31
0.0
  0
LINE
  5
BB
330
1F
100
AcDbEntity
  8
0
  6
CONTINUOUS
 62
     7
100
AcDbLine
 10
94.02666
 20
128.804697
 30
0.0
 11
151.026658
 21
128.804697
 31
0.0
  0
LINE
  5
BC
330
1F
100
AcDbEntity
  8
0
  6
CONTINUOUS
 62
     7
100
AcDbLine
 10
151.026658
 20
153.804688
 30
0.0
 11
94.02666
 21
153.804688
 31
0.0
  0
LINE
  5
BD
330
1F
100
AcDbEntity
  8
0
  6
CONTINUOUS
 62
     7
100
AcDbLine
 10
92.107413
 20
128.814695
 30
0.0
 11
94.02666
 21
128.814695
 31
0.0
  0
LINE
  5
BE
330
1F
100
AcDbEntity
  8
0
  6
CONTINUOUS
 62
     7
100
AcDbLine
 10
94.02666
 20
153.794689
 30
0.0
 11
92.107413
 21
153.794689
 31
0.0
  0
LINE
  5
BF
330
1F
100
AcDbEntity
  8
0
  6
CONTINUOUS
 62
     7
100
AcDbLine
 10
151.026658
 20
128.814695
 30
0.0
 11
162.326658
 21
128.814695
 31
0.0
  0
LINE
  5
C0
330
1F
100
AcDbEntity
  8
0
  6
CONTINUOUS
 62
     7
100
AcDbLine
 10
162.326658
 20
153.794689
 30
0.0
 11
151.026658
 21
153.794689
 31
0.0
  0
LINE
  5
C1
330
1F
100
AcDbEntity
  8
0
  6
CONTINUOUS
 62
     7
100
AcDbLine
 10
92.107413
 20
153.794689
 30
0.0
 11
89.526658
 21
152.304692
 31
0.0
  0
LINE
  5
C2
330
1F
100
AcDbEntity
  8
0
  6
CONTINUOUS
 62
     7
100
AcDbLine
 10
89.526658
 20
130.304692
 30
0.0
 11
92.107413
 21
128.814695
 31
0.0
  0
LINE
  5
C3
330
1F
100
AcDbEntity
  8
0
  6
CONTINUOUS
 62
     7
100
AcDbLine
 10
162.326658
 20
128.814695
 30
0.0
 11
162.626659
 21
129.114686
 31
0.0
  0
LINE
  5
C4
330
1F
100
AcDbEntity
  8
0
  6
CONTINUOUS
 62
     7
100
AcDbLine
 10
162.626659
 20
153.494684
 30
0.0
 11
162.326658
 21
153.794689
 31
0.0
  0
LINE
  5
C5
330
1F
100
AcDbEntity
  8
0
  6
CONTINUOUS
 62
     7
100
AcDbLine
 10
84.226658
 20
136.604695
 30
0.0
 11
84.32666
 21
136.704696
 31
0.0
  0
LINE
  5
C6
330
1F
100
AcDbEntity
  8
0
  6
CONTINUOUS
 62
     7
100
AcDbLine
 10
84.32666
 20
145.904688
 30
0.0
 11
84.226658
 21
146.00469
 31
0.0
  0
LINE
  5
C7
330
1F
100
AcDbEntity
  8
0
  6
CONTINUOUS
 62
     7
100
AcDbLine
 10
83.905154
 20
136.604695
 30
0.0
 11
84.226658
 21
136.604695
 31
0.0
  0
LINE
  5
C8
330
1F
100
AcDbEntity
  8
0
  6
CONTINUOUS
 62
     7
100
AcDbLine
 10
84.226658
 20
146.00469
 30
0.0
 11
83.905154
 21
146.00469
 31
0.0
  0
LINE
  5
C9
330
1F
100
AcDbEntity
  8
0
  6
CONTINUOUS
 62
     7
100
AcDbLine
 10
86.826657
 20
136.704696
 30
0.0
 11
86.926659
 21
136.704696
 31
0.0
  0
LINE
  5
CA
330
1F
100
AcDbEntity
  8
0
  6
CONTINUOUS
 62
     7
100
AcDbLine
 10
84.32666
 20
136.704696
 30
0.0
 11
84.426658
 21
136.704696
 31
0.0
  0
LINE
  5
CB
330
1F
100
AcDbEntity
  8
0
  6
CONTINUOUS
 62
     7
100
AcDbLine
 10
84.426658
 20
145.904688
 30
0.0
 11
84.32666
 21
145.904688
 31
0.0
  0
LINE
  5
CC
330
1F
100
AcDbEntity
  8
0
  6
CONTINUOUS
 62
     7
100
AcDbLine
 10
86.926659
 20
145.904688
 30
0.0
 11
86.826657
 21
145.904688
 31
0.0
  0
LINE
  5
CD
330
1F
100
AcDbEntity
  8
0
  6
CONTINUOUS
 62
     7
100
AcDbLine
 10
163.12666
 20
130.354686
 30
0.0
 11
163.226658
 21
130.454687
 31
0.0
  0
LINE
  5
CE
330
1F
100
AcDbEntity
  8
0
  6
CONTINUOUS
 62
     7
100
AcDbLine
 10
163.226658
 20
152.154697
 30
0.0
 11
163.12666
 21
152.254684
 31
0.0
  0
LINE
  5
CF
330
1F
100
AcDbEntity
  8
0
  6
CONTINUOUS
 62
     7
100
AcDbLine
 10
162.726657
 20
152.254684
 30
0.0
 11
162.626659
 21
152.154697
 31
0.0
  0
LINE
  5
D0
330
1F
100
AcDbEntity
  8
0
  6
CONTINUOUS
 62
     7
100
AcDbLine
 10
162.626659
 20
130.454687
 30
0.0
 11
162.726657
 21
130.354686
 31
0.0
  0
LINE
  5
D1
330
1F
100
AcDbEntity
  8
0
  6
CONTINUOUS
 62
     7
100
AcDbLine
 10
163.12666
 20
152.254684
 30
0.0
 11
162.726657
 21
152.254684
 31
0.0
  0
LINE
  5
D2
330
1F
100
AcDbEntity
  8
0
  6
CONTINUOUS
 62
     7
100
AcDbLine
 10
162.726657
 20
130.354686
 30
0.0
 11
163.12666
 21
130.354686
 31
0.0
  0
LINE
  5
D3
330
1F
100
AcDbEntity
  8
0
  6
CONTINUOUS
 62
     7
100
AcDbLine
 10
163.226658
 20
130.454687
 30
0.0
 11
175.22666
 21
130.454687
 31
0.0
  0
LINE
  5
D4
330
1F
100
AcDbEntity
  8
0
  6
CONTINUOUS
 62
     7
100
AcDbLine
 10
175.22666
 20
130.454687
 30
0.0
 11
175.42666
 21
130.654691
 31
0.0
  0
LINE
  5
D5
330
1F
100
AcDbEntity
  8
0
  6
CONTINUOUS
 62
     7
100
AcDbLine
 10
87.126659
 20
152.20469
 30
0.0
 11
86.926659
 21
152.004687
 31
0.0
  0
LINE
  5
D6
330
1F
100
AcDbEntity
  8
0
  6
CONTINUOUS
 62
     7
100
AcDbLine
 10
86.926659
 20
130.604697
 30
0.0
 11
87.126659
 21
130.404694
 31
0.0
  0
LINE
  5
D7
330
1F
100
AcDbEntity
  8
0
  6
CONTINUOUS
 62
     7
100
AcDbLine
 10
89.226657
 20
130.404694
 30
0.0
 11
89.326659
 21
130.504696
 31
0.0
  0
LINE
  5
D8
330
1F
100
AcDbEntity
  8
0
  6
CONTINUOUS
 62
     7
100
AcDbLine
 10
89.326659
 20
152.104689
 30
0.0
 11
89.226657
 21
152.20469
 31
0.0
  0
LINE
  5
D9
330
1F
100
AcDbEntity
  8
0
  6
CONTINUOUS
 62
     7
100
AcDbLine
 10
89.326659
 20
132.35469
 30
0.0
 11
89.526658
 21
132.35469
 31
0.0
  0
LINE
  5
DA
330
1F
100
AcDbEntity
  8
0
  6
CONTINUOUS
 62
     7
100
AcDbLine
 10
89.526658
 20
150.254695
 30
0.0
 11
89.326659
 21
150.254695
 31
0.0
  0
LINE
  5
DB
330
1F
100
AcDbEntity
  8
0
  6
CONTINUOUS
 62
     7
100
AcDbLine
 10
75.964002
 20
135.404689
 30
0.0
 11
76.255558
 21
135.404689
 31
0.0
  0
LINE
  5
DC
330
1F
100
AcDbEntity
  8
0
  6
CONTINUOUS
 62
     7
100
AcDbLine
 10
76.255558
 20
147.204695
 30
0.0
 11
75.964002
 21
147.204695
 31
0.0
  0
ARC
  5
DD
330
1F
100
AcDbEntity
  8
0
  6
CONTINUOUS
 62
     7
100
AcDbCircle
 10
83.10515
 20
146.404691
 30
0.0
 40
0.8000040079713927
100
AcDbArc
 50
0.000384
 51
89.999616
  0
ARC
  5
DE
330
1F
100
AcDbEntity
  8
0
  6
CONTINUOUS
 62
     7
100
AcDbCircle
 10
83.10515
 20
136.204693
 30
0.0
 40
0.800004007971407
100
AcDbArc
 50
270.000384
 51
359.999616
  0
LINE
  5
DF
330
1F
100
AcDbEntity
  8
0
  6
CONTINUOUS
 62
     7
100
AcDbLine
 10
79.555558
 20
135.404689
 30
0.0
 11
83.105156
 21
135.404689
 31
0.0
  0
LINE
  5
E0
330
1F
100
AcDbEntity
  8
0
  6
CONTINUOUS
 62
     7
100
AcDbLine
 10
83.105156
 20
147.204695
 30
0.0
 11
79.555558
 21
147.204695
 31
0.0
  0
LINE
  5
E1
330
1F
100
AcDbEntity
  8
0
  6
CONTINUOUS
 62
     7
100
AcDbLine
 10
76.255558
 20
135.404689
 30
0.0
 11
76.405154
 21
135.554684
 31
0.0
  0
LINE
  5
E2
330
1F
100
AcDbEntity
  8
0
  6
CONTINUOUS
 62
     7
100
AcDbLine
 10
76.405154
 20
147.054685
 30
0.0
 11
76.255558
 21
147.204695
 31
0.0
  0
ARC
  5
E3
330
1F
100
AcDbEntity
  8
0
  6
CONTINUOUS
 62
     7
100
AcDbCircle
 10
75.964033
 20
146.204584
 30
0.0
 40
1.000111312596401
100
AcDbArc
 50
90.001824
 51
119.998491
  0
ARC
  5
E4
330
1F
100
AcDbEntity
  8
0
  6
CONTINUOUS
 62
     7
100
AcDbCircle
 10
75.963987
 20
136.404627
 30
0.0
 40
0.9999376034023191
100
AcDbArc
 50
239.998842
 51
270.000843
  0
LINE
  5
E5
330
1F
100
AcDbEntity
  8
0
  6
CONTINUOUS
 62
     7
100
AcDbLine
 10
79.555558
 20
147.204695
 30
0.0
 11
79.405156
 21
147.054685
 31
0.0
  0
LINE
  5
E6
330
1F
100
AcDbEntity
  8
0
  6
CONTINUOUS
 62
     7
100
AcDbLine
 10
79.405156
 20
135.554684
 30
0.0
 11
79.555558
 21
135.404689
 31
0.0
  0
LINE
  5
E7
330
1F
100
AcDbEntity
  8
0
  6
CONTINUOUS
 62
     7
100
AcDbLine
 10
75.464001
 20
147.070719
 30
0.0
 11
72.905154
 21
145.593358
 31
0.0
  0
LINE
  5
E8
330
1F
100
AcDbEntity
  8
0
  6
CONTINUOUS
 62
     7
100
AcDbLine
 10
72.905154
 20
137.016011
 30
0.0
 11
75.464001
 21
135.538666
 31
0.0
  0
ARC
  5
E9
330
1F
100
AcDbEntity
  8
0
  6
CONTINUOUS
 62
     7
100
AcDbCircle
 10
73.405165
 20
137.88204
 30
0.0
 40
1.000008137145005
100
AcDbArc
 50
180.000163
 51
239.999551
  0
ARC
  5
EA
330
1F
100
AcDbEntity
  8
0
  6
CONTINUOUS
 62
     7
100
AcDbCircle
 10
73.405108
 20
144.727363
 30
0.0
 40
0.9999504926589004
100
AcDbArc
 50
119.998542
 51
180.00089
  0
LINE
  5
EB
330
1F
100
AcDbEntity
  8
0
  6
CONTINUOUS
 62
     7
100
AcDbLine
 10
175.326658
 20
162.572635
 30
0.0
 11
174.32666
 21
164.304687
 31
0.0
  0
LINE
  5
EC
330
1F
100
AcDbEntity
  8
0
  6
CONTINUOUS
 62
     7
100
AcDbLine
 10
164.326658
 20
164.304687
 30
0.0
 11
163.32666
 21
162.572635
 31
0.0
  0
LINE
  5
ED
330
1F
100
AcDbEntity
  8
0
  6
CONTINUOUS
 62
     7
100
AcDbLine
 10
163.32666
 20
159.904687
 30
0.0
 11
163.426658
 21
159.804685
 31
0.0
  0
LINE
  5
EE
330
1F
100
AcDbEntity
  8
0
  6
CONTINUOUS
 62
     7
100
AcDbLine
 10
175.22666
 20
159.804685
 30
0.0
 11
175.326658
 21
159.904687
 31
0.0
  0
LINE
  5
EF
330
1F
100
AcDbEntity
  8
0
  6
CONTINUOUS
 62
     7
100
AcDbLine
 10
163.32666
 20
162.572635
 30
0.0
 11
163.32666
 21
159.904687
 31
0.0
  0
LINE
  5
F0
330
1F
100
AcDbEntity
  8
0
  6
CONTINUOUS
 62
     7
100
AcDbLine
 10
175.326658
 20
159.904687
 30
0.0
 11
175.326658
 21
162.572635
 31
0.0
  0
LINE
  5
F1
330
1F
100
AcDbEntity
  8
0
  6
CONTINUOUS
 62
     7
100
AcDbLine
 10
163.826657
 20
159.804685
 30
0.0
 11
163.32666
 21
159.304691
 31
0.0
  0
LINE
  5
F2
330
1F
100
AcDbEntity
  8
0
  6
CONTINUOUS
 62
     7
100
AcDbLine
 10
175.326658
 20
159.304691
 30
0.0
 11
174.826657
 21
159.804685
 31
0.0
  0
LINE
  5
F3
330
1F
100
AcDbEntity
  8
0
  6
CONTINUOUS
 62
     7
100
AcDbLine
 10
163.32666
 20
149.604691
 30
0.0
 11
163.626657
 21
149.304686
 31
0.0
  0
LINE
  5
F4
330
1F
100
AcDbEntity
  8
0
  6
CONTINUOUS
 62
     7
100
AcDbLine
 10
175.02666
 20
149.304686
 30
0.0
 11
175.326658
 21
149.604691
 31
0.0
  0
LINE
  5
F5
330
1F
100
AcDbEntity
  8
0
  6
CONTINUOUS
 62
     7
100
AcDbLine
 10
163.32666
 20
159.304691
 30
0.0
 11
163.32666
 21
149.604691
 31
0.0
  0
LINE
  5
F6
330
1F
100
AcDbEntity
  8
0
  6
CONTINUOUS
 62
     7
100
AcDbLine
 10
175.326658
 20
149.604691
 30
0.0
 11
175.326658
 21
159.304691
 31
0.0
  0
LINE
  5
F7
330
1F
100
AcDbEntity
  8
0
  6
CONTINUOUS
 62
     7
100
AcDbLine
 10
172.57666
 20
164.304687
 30
0.0
 11
172.57666
 21
187.923996
 31
0.0
  0
LINE
  5
F8
330
1F
100
AcDbEntity
  8
0
  6
CONTINUOUS
 62
     7
100
AcDbLine
 10
166.076658
 20
188.542498
 30
0.0
 11
166.076658
 21
164.304687
 31
0.0
  0
LINE
  5
F9
330
1F
100
AcDbEntity
  8
0
  6
CONTINUOUS
 62
     7
100
AcDbLine
 10
151.026658
 20
141.304685
 30
0.0
 11
151.026658
 21
153.804688
 31
0.0
  0
LINE
  5
FA
330
1F
100
AcDbEntity
  8
0
  6
CONTINUOUS
 62
     7
100
AcDbLine
 10
151.026658
 20
128.804697
 30
0.0
 11
151.026658
 21
141.304685
 31
0.0
  0
LINE
  5
FB
330
1F
100
AcDbEntity
  8
0
  6
CONTINUOUS
 62
     7
100
AcDbLine
 10
94.02666
 20
141.304685
 30
0.0
 11
94.02666
 21
153.804688
 31
0.0
  0
LINE
  5
FC
330
1F
100
AcDbEntity
  8
0
  6
CONTINUOUS
 62
     7
100
AcDbLine
 10
94.02666
 20
128.804697
 30
0.0
 11
94.02666
 21
141.304685
 31
0.0
  0
LINE
  5
FD
330
1F
100
AcDbEntity
  8
0
  6
CONTINUOUS
 62
     7
100
AcDbLine
 10
92.107413
 20
141.304685
 30
0.0
 11
92.107413
 21
153.794689
 31
0.0
  0
LINE
  5
FE
330
1F
100
AcDbEntity
  8
0
  6
CONTINUOUS
 62
     7
100
AcDbLine
 10
92.107413
 20
128.814695
 30
0.0
 11
92.107413
 21
141.304685
 31
0.0
  0
LINE
  5
FF
330
1F
100
AcDbEntity
  8
0
  6
CONTINUOUS
 62
     7
100
AcDbLine
 10
162.326658
 20
141.304685
 30
0.0
 11
162.326658
 21
153.794689
 31
0.0
  0
LINE
  5
100
330
1F
100
AcDbEntity
  8
0
  6
CONTINUOUS
 62
     7
100
AcDbLine
 10
162.326658
 20
128.814695
 30
0.0
 11
162.326658
 21
141.304685
 31
0.0
  0
LINE
  5
101
330
1F
100
AcDbEntity
  8
0
  6
CONTINUOUS
 62
     7
100
AcDbLine
 10
89.526658
 20
141.304685
 30
0.0
 11
89.526658
 21
152.304692
 31
0.0
  0
LINE
  5
102
330
1F
100
AcDbEntity
  8
0
  6
CONTINUOUS
 62
     7
100
AcDbLine
 10
89.526658
 20
130.304692
 30
0.0
 11
89.526658
 21
141.304685
 31
0.0
  0
LINE
  5
103
330
1F
100
AcDbEntity
  8
0
  6
CONTINUOUS
 62
     7
100
AcDbLine
 10
162.626659
 20
141.304685
 30
0.0
 11
162.626659
 21
129.114686
 31
0.0
  0
LINE
  5
104
330
1F
100
AcDbEntity
  8
0
  6
CONTINUOUS
 62
     7
100
AcDbLine
 10
162.626659
 20
153.494684
 30
0.0
 11
162.626659
 21
141.304685
 31
0.0
  0
LINE
  5
105
330
1F
100
AcDbEntity
  8
0
  6
CONTINUOUS
 62
     7
100
AcDbLine
 10
84.226658
 20
141.304685
 30
0.0
 11
84.226658
 21
146.00469
 31
0.0
  0
LINE
  5
106
330
1F
100
AcDbEntity
  8
0
  6
CONTINUOUS
 62
     7
100
AcDbLine
 10
84.226658
 20
136.604695
 30
0.0
 11
84.226658
 21
141.304685
 31
0.0
  0
LINE
  5
107
330
1F
100
AcDbEntity
  8
0
  6
CONTINUOUS
 62
     7
100
AcDbLine
 10
84.32666
 20
136.704696
 30
0.0
 11
84.32666
 21
145.904688
 31
0.0
  0
LINE
  5
108
330
1F
100
AcDbEntity
  8
0
  6
CONTINUOUS
 62
     7
100
AcDbLine
 10
84.426658
 20
145.904688
 30
0.0
 11
84.426658
 21
145.304693
 31
0.0
  0
LINE
  5
109
330
1F
100
AcDbEntity
  8
0
  6
CONTINUOUS
 62
     7
100
AcDbLine
 10
86.826657
 20
145.304693
 30
0.0
 11
84.426658
 21
145.304693
 31
0.0
  0
LINE
  5
10A
330
1F
100
AcDbEntity
  8
0
  6
CONTINUOUS
 62
     7
100
AcDbLine
 10
86.826657
 20
145.904688
 30
0.0
 11
86.826657
 21
145.304693
 31
0.0
  0
LINE
  5
10B
330
1F
100
AcDbEntity
  8
0
  6
CONTINUOUS
 62
     7
100
AcDbLine
 10
84.426658
 20
137.304692
 30
0.0
 11
84.426658
 21
136.704696
 31
0.0
  0
LINE
  5
10C
330
1F
100
AcDbEntity
  8
0
  6
CONTINUOUS
 62
     7
100
AcDbLine
 10
86.826657
 20
137.304692
 30
0.0
 11
86.826657
 21
136.704696
 31
0.0
  0
LINE
  5
10D
330
1F
100
AcDbEntity
  8
0
  6
CONTINUOUS
 62
     7
100
AcDbLine
 10
86.826657
 20
137.304692
 30
0.0
 11
84.426658
 21
137.304692
 31
0.0
  0
LINE
  5
10E
330
1F
100
AcDbEntity
  8
0
  6
CONTINUOUS
 62
     7
100
AcDbLine
 10
163.12666
 20
152.254684
 30
0.0
 11
163.12666
 21
130.354686
 31
0.0
  0
LINE
  5
10F
330
1F
100
AcDbEntity
  8
0
  6
CONTINUOUS
 62
     7
100
AcDbLine
 10
163.226658
 20
149.304686
 30
0.0
 11
163.226658
 21
130.454687
 31
0.0
  0
LINE
  5
110
330
1F
100
AcDbEntity
  8
0
  6
CONTINUOUS
 62
     7
100
AcDbLine
 10
163.226658
 20
152.154697
 30
0.0
 11
163.226658
 21
149.304686
 31
0.0
  0
LINE
  5
111
330
1F
100
AcDbEntity
  8
0
  6
CONTINUOUS
 62
     7
100
AcDbLine
 10
162.726657
 20
152.254684
 30
0.0
 11
162.726657
 21
130.354686
 31
0.0
  0
LINE
  5
112
330
1F
100
AcDbEntity
  8
0
  6
CONTINUOUS
 62
     7
100
AcDbLine
 10
175.22666
 20
149.304686
 30
0.0
 11
171.812133
 21
149.304686
 31
0.0
  0
LINE
  5
113
330
1F
100
AcDbEntity
  8
0
  6
CONTINUOUS
 62
     7
100
AcDbLine
 10
166.841184
 20
149.304686
 30
0.0
 11
163.226658
 21
149.304686
 31
0.0
  0
LINE
  5
114
330
1F
100
AcDbEntity
  8
0
  6
CONTINUOUS
 62
     7
100
AcDbLine
 10
175.22666
 20
130.454687
 30
0.0
 11
175.22666
 21
149.304686
 31
0.0
  0
LINE
  5
115
330
1F
100
AcDbEntity
  8
0
  6
CONTINUOUS
 62
     7
100
AcDbLine
 10
175.42666
 20
149.104698
 30
0.0
 11
175.42666
 21
130.654691
 31
0.0
  0
LINE
  5
116
330
1F
100
AcDbEntity
  8
0
  6
CONTINUOUS
 62
     7
100
AcDbLine
 10
175.42666
 20
149.104698
 30
0.0
 11
175.22666
 21
149.304686
 31
0.0
  0
LINE
  5
117
330
1F
100
AcDbEntity
  8
0
  6
CONTINUOUS
 62
     7
100
AcDbLine
 10
87.126659
 20
152.20469
 30
0.0
 11
87.126659
 21
130.404694
 31
0.0
  0
LINE
  5
118
330
1F
100
AcDbEntity
  8
0
  6
CONTINUOUS
 62
     7
100
AcDbLine
 10
89.226657
 20
141.304685
 30
0.0
 11
89.226657
 21
152.20469
 31
0.0
  0
LINE
  5
119
330
1F
100
AcDbEntity
  8
0
  6
CONTINUOUS
 62
     7
100
AcDbLine
 10
89.226657
 20
130.404694
 30
0.0
 11
89.226657
 21
141.304685
 31
0.0
  0
INSERT
  5
11D
330
1F
100
AcDbEntity
  8
0
100
AcDbBlockReference
  2
BLKF011
 10
0.0
 20
0.0
 30
0.0
  0
INSERT
  5
1A5
330
1F
100
AcDbEntity
  8
0
100
AcDbBlockReference
  2
BLKF012
 10
0.0
 20
0.0
 30
0.0
  0
LINE
  5
200
330
1F
100
AcDbEntity
  8
0
  6
CONTINUOUS
 62
     7
100
AcDbLine
 10
86.926659
 20
130.604697
 30
0.0
 11
86.926659
 21
152.004687
 31
0.0
  0
LINE
  5
201
330
1F
100
AcDbEntity
  8
0
  6
CONTINUOUS
 62
     7
100
AcDbLine
 10
89.326659
 20
141.304685
 30
0.0
 11
89.326659
 21
130.504696
 31
0.0
  0
LINE
  5
202
330
1F
100
AcDbEntity
  8
0
  6
CONTINUOUS
 62
     7
100
AcDbLine
 10
89.326659
 20
152.104689
 30
0.0
 11
89.326659
 21
141.304685
 31
0.0
  0
INSERT
  5
206
330
1F
100
AcDbEntity
  8
0
100
AcDbBlockReference
  2
BLKF013
 10
0.0
 20
0.0
 30
0.0
  0
INSERT
  5
242
330
1F
100
AcDbEntity
  8
0
100
AcDbBlockReference
  2
BLKF014
 10
0.0
 20
0.0
 30
0.0
  0
INSERT
  5
263
330
1F
100
AcDbEntity
  8
0
100
AcDbBlockReference
  2
BLKF015
 10
0.0
 20
0.0
 30
0.0
  0
LINE
  5
281
330
1F
100
AcDbEntity
  8
0
  6
CONTINUOUS
 62
     7
100
AcDbLine
 10
76.255558
 20
141.304685
 30
0.0
 11
76.255558
 21
147.204695
 31
0.0
  0
LINE
  5
282
330
1F
100
AcDbEntity
  8
0
  6
CONTINUOUS
 62
     7
100
AcDbLine
 10
76.255558
 20
135.404689
 30
0.0
 11
76.255558
 21
141.304685
 31
0.0
  0
LINE
  5
283
330
1F
100
AcDbEntity
  8
0
  6
CONTINUOUS
 62
     7
100
AcDbLine
 10
83.905154
 20
146.404697
 30
0.0
 11
83.905154
 21
136.204688
 31
0.0
  0
LINE
  5
284
330
1F
100
AcDbEntity
  8
0
  6
CONTINUOUS
 62
     7
100
AcDbLine
 10
79.555558
 20
141.304685
 30
0.0
 11
79.555558
 21
147.204695
 31
0.0
  0
LINE
  5
285
330
1F
100
AcDbEntity
  8
0
  6
CONTINUOUS
 62
     7
100
AcDbLine
 10
79.555558
 20
135.404689
 30
0.0
 11
79.555558
 21
141.304685
 31
0.0
  0
LINE
  5
286
330
1F
100
AcDbEntity
  8
0
  6
CONTINUOUS
 62
     7
100
AcDbLine
 10
76.405154
 20
142.981736
 30
0.0
 11
76.405154
 21
146.804688
 31
0.0
  0
LINE
  5
287
330
1F
100
AcDbEntity
  8
0
  6
CONTINUOUS
 62
     7
100
AcDbLine
 10
76.405154
 20
139.627634
 30
0.0
 11
76.405154
 21
142.981736
 31
0.0
  0
LINE
  5
288
330
1F
100
AcDbEntity
  8
0
  6
CONTINUOUS
 62
     7
100
AcDbLine
 10
76.405154
 20
135.804696
 30
0.0
 11
76.405154
 21
139.627634
 31
0.0
  0
LINE
  5
289
330
1F
100
AcDbEntity
  8
0
  6
CONTINUOUS
 62
     7
100
AcDbLine
 10
76.405154
 20
135.554684
 30
0.0
 11
76.405154
 21
135.804696
 31
0.0
  0
LINE
  5
28A
330
1F
100
AcDbEntity
  8
0
  6
CONTINUOUS
 62
     7
100
AcDbLine
 10
76.405154
 20
146.804688
 30
0.0
 11
76.405154
 21
147.054685
 31
0.0
  0
LINE
  5
28B
330
1F
100
AcDbEntity
  8
0
  6
CONTINUOUS
 62
     7
100
AcDbLine
 10
79.405156
 20
135.554684
 30
0.0
 11
79.405156
 21
135.804696
 31
0.0
  0
LINE
  5
28C
330
1F
100
AcDbEntity
  8
0
  6
CONTINUOUS
 62
     7
100
AcDbLine
 10
79.405156
 20
135.804696
 30
0.0
 11
79.405156
 21
139.627634
 31
0.0
  0
LINE
  5
28D
330
1F
100
AcDbEntity
  8
0
  6
CONTINUOUS
 62
     7
100
AcDbLine
 10
79.405156
 20
139.627634
 30
0.0
 11
79.405156
 21
142.981736
 31
0.0
  0
LINE
  5
28E
330
1F
100
AcDbEntity
  8
0
  6
CONTINUOUS
 62
     7
100
AcDbLine
 10
79.405156
 20
142.981736
 30
0.0
 11
79.405156
 21
146.804688
 31
0.0
  0
LINE
  5
28F
330
1F
100
AcDbEntity
  8
0
  6
CONTINUOUS
 62
     7
100
AcDbLine
 10
79.405156
 20
146.804688
 30
0.0
 11
79.405156
 21
147.054685
 31
0.0
  0
LINE
  5
290
330
1F
100
AcDbEntity
  8
0
  6
CONTINUOUS
 62
     7
100
AcDbLine
 10
76.405154
 20
146.804688
 30
0.0
 11
76.555559
 21
146.804688
 31
0.0
  0
LINE
  5
291
330
1F
100
AcDbEntity
  8
0
  6
CONTINUOUS
 62
     7
100
AcDbLine
 10
76.555559
 20
143.440111
 30
0.0
 11
76.555559
 21
146.804688
 31
0.0
  0
LINE
  5
292
330
1F
100
AcDbEntity
  8
0
  6
CONTINUOUS
 62
     7
100
AcDbLine
 10
76.555559
 20
143.440111
 30
0.0
 11
76.405154
 21
142.981736
 31
0.0
  0
LINE
  5
293
330
1F
100
AcDbEntity
  8
0
  6
CONTINUOUS
 62
     7
100
AcDbLine
 10
79.25556
 20
139.169274
 30
0.0
 11
79.405156
 21
139.627634
 31
0.0
  0
LINE
  5
294
330
1F
100
AcDbEntity
  8
0
  6
CONTINUOUS
 62
     7
100
AcDbLine
 10
76.555559
 20
139.169274
 30
0.0
 11
79.25556
 21
139.169274
 31
0.0
  0
LINE
  5
295
330
1F
100
AcDbEntity
  8
0
  6
CONTINUOUS
 62
     7
100
AcDbLine
 10
76.405154
 20
139.627634
 30
0.0
 11
76.555559
 21
139.169274
 31
0.0
  0
LINE
  5
296
330
1F
100
AcDbEntity
  8
0
  6
CONTINUOUS
 62
     7
100
AcDbLine
 10
79.25556
 20
143.440111
 30
0.0
 11
76.555559
 21
143.440111
 31
0.0
  0
LINE
  5
297
330
1F
100
AcDbEntity
  8
0
  6
CONTINUOUS
 62
     7
100
AcDbLine
 10
79.405156
 20
142.981736
 30
0.0
 11
79.25556
 21
143.440111
 31
0.0
  0
LINE
  5
298
330
1F
100
AcDbEntity
  8
0
  6
CONTINUOUS
 62
     7
100
AcDbLine
 10
79.405156
 20
135.804696
 30
0.0
 11
79.25556
 21
135.804696
 31
0.0
  0
LINE
  5
299
330
1F
100
AcDbEntity
  8
0
  6
CONTINUOUS
 62
     7
100
AcDbLine
 10
79.25556
 20
135.804696
 30
0.0
 11
79.25556
 21
139.169274
 31
0.0
  0
LINE
  5
29A
330
1F
100
AcDbEntity
  8
0
  6
CONTINUOUS
 62
     7
100
AcDbLine
 10
79.25556
 20
143.440111
 30
0.0
 11
79.25556
 21
146.804688
 31
0.0
  0
LINE
  5
29B
330
1F
100
AcDbEntity
  8
0
  6
CONTINUOUS
 62
     7
100
AcDbLine
 10
79.25556
 20
146.804688
 30
0.0
 11
79.405156
 21
146.804688
 31
0.0
  0
LINE
  5
29C
330
1F
100
AcDbEntity
  8
0
  6
CONTINUOUS
 62
     7
100
AcDbLine
 10
76.555559
 20
135.804696
 30
0.0
 11
76.555559
 21
139.169274
 31
0.0
  0
LINE
  5
29D
330
1F
100
AcDbEntity
  8
0
  6
CONTINUOUS
 62
     7
100
AcDbLine
 10
76.555559
 20
135.804696
 30
0.0
 11
76.405154
 21
135.804696
 31
0.0
  0
LINE
  5
29E
330
1F
100
AcDbEntity
  8
0
  6
CONTINUOUS
 62
     7
100
AcDbLine
 10
79.25556
 20
135.804696
 30
0.0
 11
76.555559
 21
135.804696
 31
0.0
  0
LINE
  5
29F
330
1F
100
AcDbEntity
  8
0
  6
CONTINUOUS
 62
     7
100
AcDbLine
 10
76.555559
 20
146.804688
 30
0.0
 11
79.25556
 21
146.804688
 31
0.0
  0
LINE
  5
2A0
330
1F
100
AcDbEntity
  8
0
  6
CONTINUOUS
 62
     7
100
AcDbLine
 10
72.405157
 20
141.304685
 30
0.0
 11
72.405157
 21
144.727347
 31
0.0
  0
LINE
  5
2A1
330
1F
100
AcDbEntity
  8
0
  6
CONTINUOUS
 62
     7
100
AcDbLine
 10
72.405157
 20
137.882037
 30
0.0
 11
72.405157
 21
141.304685
 31
0.0
  0
LINE
  5
2A2
330
1F
100
AcDbEntity
  8
0
  6
CONTINUOUS
 62
     7
100
AcDbLine
 10
172.89084
 20
162.572635
 30
0.0
 11
171.724574
 21
162.572635
 31
0.0
  0
INSERT
  5
2A6
330
1F
100
AcDbEntity
  8
0
100
AcDbBlockReference
  2
BLKF016
 10
0.0
 20
0.0
 30
0.0
  0
LINE
  5
2E9
330
1F
100
AcDbEntity
  8
0
  6
CONTINUOUS
 62
     7
100
AcDbLine
 10
166.928744
 20
162.572635
 30
0.0
 11
165.762478
 21
162.572635
 31
0.0
  0
INSERT
  5
2ED
330
1F
100
AcDbEntity
  8
0
100
AcDbBlockReference
  2
BLKF017
 10
0.0
 20
0.0
 30
0.0
  0
LINE
  5
3A9
330
1F
100
AcDbEntity
  8
0
  6
CONTINUOUS
 62
     7
100
AcDbLine
 10
163.364561
 20
162.572635
 30
0.0
 11
163.32666
 21
162.572635
 31
0.0
  0
LINE
  5
3AA
330
1F
100
AcDbEntity
  8
0
  6
CONTINUOUS
 62
     7
100
AcDbLine
 10
175.326658
 20
162.572635
 30
0.0
 11
175.288757
 21
162.572635
 31
0.0
  0
INSERT
  5
3AE
330
1F
100
AcDbEntity
  8
0
100
AcDbBlockReference
  2
BLKF018
 10
0.0
 20
0.0
 30
0.0
  0
LINE
  5
3F1
330
1F
100
AcDbEntity
  8
0
  6
CONTINUOUS
 62
     7
100
AcDbLine
 10
174.32666
 20
164.304687
 30
0.0
 11
164.326658
 21
164.304687
 31
0.0
  0
LINE
  5
3F2
330
1F
100
AcDbEntity
  8
0
  6
CONTINUOUS
 62
     7
100
AcDbLine
 10
171.724574
 20
162.572635
 30
0.0
 11
171.724574
 21
159.904687
 31
0.0
  0
LINE
  5
3F3
330
1F
100
AcDbEntity
  8
0
  6
CONTINUOUS
 62
     7
100
AcDbLine
 10
171.462075
 20
159.804685
 30
0.0
 11
171.724574
 21
159.904687
 31
0.0
  0
LINE
  5
3F4
330
1F
100
AcDbEntity
  8
0
  6
CONTINUOUS
 62
     7
100
AcDbLine
 10
166.928744
 20
159.904687
 30
0.0
 11
167.191242
 21
159.804685
 31
0.0
  0
LINE
  5
3F5
330
1F
100
AcDbEntity
  8
0
  6
CONTINUOUS
 62
     7
100
AcDbLine
 10
166.928744
 20
162.572635
 30
0.0
 11
166.928744
 21
159.904687
 31
0.0
  0
LINE
  5
3F6
330
1F
100
AcDbEntity
  8
0
  6
CONTINUOUS
 62
     7
100
AcDbLine
 10
167.191242
 20
159.804685
 30
0.0
 11
171.462075
 21
159.804685
 31
0.0
  0
LINE
  5
3F7
330
1F
100
AcDbEntity
  8
0
  6
CONTINUOUS
 62
     7
100
AcDbLine
 10
165.631225
 20
159.804685
 30
0.0
 11
165.762478
 21
159.904687
 31
0.0
  0
LINE
  5
3F8
330
1F
100
AcDbEntity
  8
0
  6
CONTINUOUS
 62
     7
100
AcDbLine
 10
166.928744
 20
159.904687
 30
0.0
 11
165.762478
 21
159.904687
 31
0.0
  0
LINE
  5
3F9
330
1F
100
AcDbEntity
  8
0
  6
CONTINUOUS
 62
     7
100
AcDbLine
 10
167.191242
 20
159.804685
 30
0.0
 11
165.631225
 21
159.804685
 31
0.0
  0
LINE
  5
3FA
330
1F
100
AcDbEntity
  8
0
  6
CONTINUOUS
 62
     7
100
AcDbLine
 10
165.762478
 20
162.572635
 30
0.0
 11
165.762478
 21
159.904687
 31
0.0
  0
LINE
  5
3FB
330
1F
100
AcDbEntity
  8
0
  6
CONTINUOUS
 62
     7
100
AcDbLine
 10
172.89084
 20
159.904687
 30
0.0
 11
171.724574
 21
159.904687
 31
0.0
  0
LINE
  5
3FC
330
1F
100
AcDbEntity
  8
0
  6
CONTINUOUS
 62
     7
100
AcDbLine
 10
172.89084
 20
159.904687
 30
0.0
 11
173.022089
 21
159.804685
 31
0.0
  0
LINE
  5
3FD
330
1F
100
AcDbEntity
  8
0
  6
CONTINUOUS
 62
     7
100
AcDbLine
 10
173.022089
 20
159.804685
 30
0.0
 11
171.462075
 21
159.804685
 31
0.0
  0
LINE
  5
3FE
330
1F
100
AcDbEntity
  8
0
  6
CONTINUOUS
 62
     7
100
AcDbLine
 10
172.89084
 20
162.572635
 30
0.0
 11
172.89084
 21
159.904687
 31
0.0
  0
LINE
  5
3FF
330
1F
100
AcDbEntity
  8
0
  6
CONTINUOUS
 62
     7
100
AcDbLine
 10
175.288757
 20
162.572635
 30
0.0
 11
175.288757
 21
159.904687
 31
0.0
  0
LINE
  5
400
330
1F
100
AcDbEntity
  8
0
  6
CONTINUOUS
 62
     7
100
AcDbLine
 10
175.157507
 20
159.804685
 30
0.0
 11
175.288757
 21
159.904687
 31
0.0
  0
LINE
  5
401
330
1F
100
AcDbEntity
  8
0
  6
CONTINUOUS
 62
     7
100
AcDbLine
 10
173.022089
 20
159.804685
 30
0.0
 11
175.157507
 21
159.804685
 31
0.0
  0
LINE
  5
402
330
1F
100
AcDbEntity
  8
0
  6
CONTINUOUS
 62
     7
100
AcDbLine
 10
163.364561
 20
159.904687
 30
0.0
 11
163.49581
 21
159.804685
 31
0.0
  0
LINE
  5
403
330
1F
100
AcDbEntity
  8
0
  6
CONTINUOUS
 62
     7
100
AcDbLine
 10
163.364561
 20
162.572635
 30
0.0
 11
163.364561
 21
159.904687
 31
0.0
  0
LINE
  5
404
330
1F
100
AcDbEntity
  8
0
  6
CONTINUOUS
 62
     7
100
AcDbLine
 10
163.49581
 20
159.804685
 30
0.0
 11
165.631225
 21
159.804685
 31
0.0
  0
LINE
  5
405
330
1F
100
AcDbEntity
  8
0
  6
CONTINUOUS
 62
     7
100
AcDbLine
 10
163.364561
 20
159.904687
 30
0.0
 11
163.32666
 21
159.904687
 31
0.0
  0
LINE
  5
406
330
1F
100
AcDbEntity
  8
0
  6
CONTINUOUS
 62
     7
100
AcDbLine
 10
163.49581
 20
159.804685
 30
0.0
 11
163.426658
 21
159.804685
 31
0.0
  0
LINE
  5
407
330
1F
100
AcDbEntity
  8
0
  6
CONTINUOUS
 62
     7
100
AcDbLine
 10
175.326658
 20
159.904687
 30
0.0
 11
175.288757
 21
159.904687
 31
0.0
  0
LINE
  5
408
330
1F
100
AcDbEntity
  8
0
  6
CONTINUOUS
 62
     7
100
AcDbLine
 10
175.22666
 20
159.804685
 30
0.0
 11
175.157507
 21
159.804685
 31
0.0
  0
LINE
  5
409
330
1F
100
AcDbEntity
  8
0
  6
CONTINUOUS
 62
     7
100
AcDbLine
 10
171.724574
 20
159.304691
 30
0.0
 11
171.724574
 21
149.604691
 31
0.0
  0
LINE
  5
40A
330
1F
100
AcDbEntity
  8
0
  6
CONTINUOUS
 62
     7
100
AcDbLine
 10
170.823322
 20
149.304686
 30
0.0
 11
171.724574
 21
149.604691
 31
0.0
  0
INSERT
  5
40E
330
1F
100
AcDbEntity
  8
0
100
AcDbBlockReference
  2
BLKF019
 10
0.0
 20
0.0
 30
0.0
  0
LINE
  5
429
330
1F
100
AcDbEntity
  8
0
  6
CONTINUOUS
 62
     7
100
AcDbLine
 10
166.928744
 20
159.304691
 30
0.0
 11
166.928744
 21
149.604691
 31
0.0
  0
INSERT
  5
42D
330
1F
100
AcDbEntity
  8
0
100
AcDbBlockReference
  2
BLKF020
 10
0.0
 20
0.0
 30
0.0
  0
INSERT
  5
457
330
1F
100
AcDbEntity
  8
0
100
AcDbBlockReference
  2
BLKF021
 10
0.0
 20
0.0
 30
0.0
  0
LINE
  5
474
330
1F
100
AcDbEntity
  8
0
  6
CONTINUOUS
 62
     7
100
AcDbLine
 10
167.829996
 20
149.304686
 30
0.0
 11
170.823322
 21
149.304686
 31
0.0
  0
LINE
  5
475
330
1F
100
AcDbEntity
  8
0
  6
CONTINUOUS
 62
     7
100
AcDbLine
 10
166.928744
 20
159.304691
 30
0.0
 11
165.762478
 21
159.304691
 31
0.0
  0
INSERT
  5
479
330
1F
100
AcDbEntity
  8
0
100
AcDbBlockReference
  2
BLKF022
 10
0.0
 20
0.0
 30
0.0
  0
LINE
  5
496
330
1F
100
AcDbEntity
  8
0
  6
CONTINUOUS
 62
     7
100
AcDbLine
 10
172.89084
 20
159.304691
 30
0.0
 11
171.724574
 21
159.304691
 31
0.0
  0
INSERT
  5
49A
330
1F
100
AcDbEntity
  8
0
100
AcDbBlockReference
  2
BLKF023
 10
0.0
 20
0.0
 30
0.0
  0
LINE
  5
4BF
330
1F
100
AcDbEntity
  8
0
  6
CONTINUOUS
 62
     7
100
AcDbLine
 10
165.311852
 20
149.304686
 30
0.0
 11
165.762478
 21
149.604691
 31
0.0
  0
LINE
  5
4C0
330
1F
100
AcDbEntity
  8
0
  6
CONTINUOUS
 62
     7
100
AcDbLine
 10
166.928744
 20
149.604691
 30
0.0
 11
165.762478
 21
149.604691
 31
0.0
  0
LINE
  5
4C1
330
1F
100
AcDbEntity
  8
0
  6
CONTINUOUS
 62
     7
100
AcDbLine
 10
167.829996
 20
149.304686
 30
0.0
 11
166.841184
 21
149.304686
 31
0.0
  0
LINE
  5
4C2
330
1F
100
AcDbEntity
  8
0
  6
CONTINUOUS
 62
     7
100
AcDbLine
 10
172.89084
 20
149.604691
 30
0.0
 11
171.724574
 21
149.604691
 31
0.0
  0
INSERT
  5
4C6
330
1F
100
AcDbEntity
  8
0
100
AcDbBlockReference
  2
BLKF024
 10
0.0
 20
0.0
 30
0.0
  0
LINE
  5
4E0
330
1F
100
AcDbEntity
  8
0
  6
CONTINUOUS
 62
     7
100
AcDbLine
 10
171.812133
 20
149.304686
 30
0.0
 11
170.823322
 21
149.304686
 31
0.0
  0
LINE
  5
4E1
330
1F
100
AcDbEntity
  8
0
  6
CONTINUOUS
 62
     7
100
AcDbLine
 10
165.762478
 20
159.304691
 30
0.0
 11
165.762478
 21
149.604691
 31
0.0
  0
LINE
  5
4E2
330
1F
100
AcDbEntity
  8
0
  6
CONTINUOUS
 62
     7
100
AcDbLine
 10
172.89084
 20
159.304691
 30
0.0
 11
172.89084
 21
149.604691
 31
0.0
  0
LINE
  5
4E3
330
1F
100
AcDbEntity
  8
0
  6
CONTINUOUS
 62
     7
100
AcDbLine
 10
163.364561
 20
149.604691
 30
0.0
 11
163.815187
 21
149.304686
 31
0.0
  0
LINE
  5
4E4
330
1F
100
AcDbEntity
  8
0
  6
CONTINUOUS
 62
     7
100
AcDbLine
 10
163.364561
 20
159.304691
 30
0.0
 11
163.364561
 21
149.604691
 31
0.0
  0
INSERT
  5
4E8
330
1F
100
AcDbEntity
  8
0
100
AcDbBlockReference
  2
BLKF025
 10
0.0
 20
0.0
 30
0.0
  0
LINE
  5
50D
330
1F
100
AcDbEntity
  8
0
  6
CONTINUOUS
 62
     7
100
AcDbLine
 10
174.838131
 20
149.304686
 30
0.0
 11
175.288757
 21
149.604691
 31
0.0
  0
INSERT
  5
511
330
1F
100
AcDbEntity
  8
0
100
AcDbBlockReference
  2
BLKF026
 10
0.0
 20
0.0
 30
0.0
  0
LINE
  5
52E
330
1F
100
AcDbEntity
  8
0
  6
CONTINUOUS
 62
     7
100
AcDbLine
 10
175.288757
 20
159.304691
 30
0.0
 11
175.288757
 21
149.604691
 31
0.0
  0
LINE
  5
52F
330
1F
100
AcDbEntity
  8
0
  6
CONTINUOUS
 62
     7
100
AcDbLine
 10
163.364561
 20
159.304691
 30
0.0
 11
163.32666
 21
159.304691
 31
0.0
  0
LINE
  5
530
330
1F
100
AcDbEntity
  8
0
  6
CONTINUOUS
 62
     7
100
AcDbLine
 10
175.326658
 20
159.304691
 30
0.0
 11
175.288757
 21
159.304691
 31
0.0
  0
LINE
  5
531
330
1F
100
AcDbEntity
  8
0
  6
CONTINUOUS
 62
     7
100
AcDbLine
 10
163.364561
 20
149.604691
 30
0.0
 11
163.32666
 21
149.604691
 31
0.0
  0
LINE
  5
532
330
1F
100
AcDbEntity
  8
0
  6
CONTINUOUS
 62
     7
100
AcDbLine
 10
175.326658
 20
149.604691
 30
0.0
 11
175.288757
 21
149.604691
 31
0.0
  0
LINE
  5
533
330
1F
100
AcDbEntity
  8
0
  6
CONTINUOUS
 62
     7
100
AcDbLine
 10
75.964002
 20
147.204695
 30
0.0
 11
75.964002
 21
135.404689
 31
0.0
  0
LINE
  5
534
330
1F
100
AcDbEntity
  8
0
  6
CONTINUOUS
 62
     7
100
AcDbLine
 10
83.105156
 20
135.404689
 30
0.0
 11
83.105156
 21
147.204695
 31
0.0
  0
LINE
  5
535
330
1F
100
AcDbEntity
  8
0
  6
CONTINUOUS
 62
     7
100
AcDbLine
 10
75.464001
 20
141.304685
 30
0.0
 11
75.464001
 21
147.070719
 31
0.0
  0
LINE
  5
536
330
1F
100
AcDbEntity
  8
0
  6
CONTINUOUS
 62
     7
100
AcDbLine
 10
75.464001
 20
135.538666
 30
0.0
 11
75.464001
 21
141.304685
 31
0.0
  0
LINE
  5
537
330
1F
100
AcDbEntity
  8
0
  6
CONTINUOUS
 62
     7
100
AcDbLine
 10
72.905154
 20
141.304685
 30
0.0
 11
72.905154
 21
137.016011
 31
0.0
  0
LINE
  5
538
330
1F
100
AcDbEntity
  8
0
  6
CONTINUOUS
 62
     7
100
AcDbLine
 10
72.905154
 20
145.593358
 30
0.0
 11
72.905154
 21
141.304685
 31
0.0
  0
INSERT
  5
53C
330
1F
100
AcDbEntity
  8
0
100
AcDbBlockReference
  2
BLKF027
 10
0.0
 20
0.0
 30
0.0
  0
INSERT
  5
54C
330
1F
100
AcDbEntity
  8
0
100
AcDbBlockReference
  2
BLKF028
 10
0.0
 20
0.0
 30
0.0
  0
INSERT
  5
55A
330
1F
100
AcDbEntity
  8
0
100
AcDbBlockReference
  2
BLKF029
 10
0.0
 20
0.0
 30
0.0
  0
INSERT
  5
569
330
1F
100
AcDbEntity
  8
0
100
AcDbBlockReference
  2
BLKF030
 10
0.0
 20
0.0
 30
0.0
  0
INSERT
  5
579
330
1F
100
AcDbEntity
  8
0
100
AcDbBlockReference
  2
BLKF031
 10
0.0
 20
0.0
 30
0.0
  0
INSERT
  5
58B
330
1F
100
AcDbEntity
  8
0
100
AcDbBlockReference
  2
BLKF032
 10
0.0
 20
0.0
 30
0.0
  0
INSERT
  5
59B
330
1F
100
AcDbEntity
  8
0
100
AcDbBlockReference
  2
BLKF033
 10
0.0
 20
0.0
 30
0.0
  0
INSERT
  5
5AB
330
1F
100
AcDbEntity
  8
0
100
AcDbBlockReference
  2
BLKF034
 10
0.0
 20
0.0
 30
0.0
  0
INSERT
  5
5B9
330
1F
100
AcDbEntity
  8
0
100
AcDbBlockReference
  2
BLKF035
 10
0.0
 20
0.0
 30
0.0
  0
INSERT
  5
5C7
330
1F
100
AcDbEntity
  8
0
100
AcDbBlockReference
  2
BLKF036
 10
0.0
 20
0.0
 30
0.0
  0
ARC
  5
5D3
330
1F
100
AcDbEntity
  8
0
  6
DASHED
 62
     7
100
AcDbCircle
 10
171.451659
 20
193.333244
 30
0.0
 40
5.525000000000007
100
AcDbArc
 50
247.380135
 51
292.619865
  0
ARC
  5
5D4
330
1F
100
AcDbEntity
  8
0
  6
DASHED
 62
     7
100
AcDbCircle
 10
167.201659
 20
183.133244
 30
0.0
 40
5.525000000000019
100
AcDbArc
 50
67.380135
 51
112.619865
  0
ARC
  5
5D5
330
1F
100
AcDbEntity
  8
0
  6
DASHED
 62
     7
100
AcDbCircle
 10
171.451659
 20
196.333244
 30
0.0
 40
5.525000000000019
100
AcDbArc
 50
247.380135
 51
292.619865
  0
ARC
  5
5D6
330
1F
100
AcDbEntity
  8
0
  6
DASHED
 62
     7
100
AcDbCircle
 10
167.201659
 20
186.133244
 30
0.0
 40
5.525000000000019
100
AcDbArc
 50
67.380135
 51
112.619865
  0
LINE
  5
5D7
330
1F
100
AcDbEntity
  8
CSLAYER3
  6
CONTINUOUS
 62
     3
100
AcDbLine
 10
234.42075
 20
191.846637
 30
0.0
 11
234.42075
 21
144.063917
 31
0.0
  0
LINE
  5
5D8
330
1F
100
AcDbEntity
  8
CSLAYER3
  6
CONTINUOUS
 62
     3
100
AcDbLine
 10
267.487882
 20
181.06626
 30
0.0
 11
241.483619
 21
143.928324
 31
0.0
  0
LINE
  5
5D9
330
1F
100
AcDbEntity
  8
0
  6
CONTINUOUS
 62
     7
100
AcDbLine
 10
251.763519
 20
155.122646
 30
0.0
 11
267.080491
 21
176.99755
 31
0.0
  0
LINE
  5
5DA
330
1F
100
AcDbEntity
  8
0
  6
CONTINUOUS
 62
     7
100
AcDbLine
 10
263.926481
 20
179.466941
 30
0.0
 11
248.486911
 21
157.416948
 31
0.0
  0
LINE
  5
5DB
330
1F
100
AcDbEntity
  8
0
  6
CONTINUOUS
 62
     7
100
AcDbLine
 10
245.644096
 20
156.843894
 30
0.0
 11
240.481908
 21
149.471515
 31
0.0
  0
LINE
  5
5DC
330
1F
100
AcDbEntity
  8
0
  6
CONTINUOUS
 62
     7
100
AcDbLine
 10
247.035125
 20
144.882911
 30
0.0
 11
252.197313
 21
152.255275
 31
0.0
  0
LINE
  5
5DD
330
1F
100
AcDbEntity
  8
0
  6
CONTINUOUS
 62
     7
100
AcDbLine
 10
246.602777
 20
158.125856
 30
0.0
 11
246.0292
 21
157.306694
 31
0.0
  0
LINE
  5
5DE
330
1F
100
AcDbEntity
  8
0
  6
CONTINUOUS
 62
     7
100
AcDbLine
 10
252.500501
 20
152.775445
 30
0.0
 11
253.074078
 21
153.594591
 31
0.0
  0
ARC
  5
5DF
330
1F
100
AcDbEntity
  8
0
  6
CONTINUOUS
 62
     7
100
AcDbCircle
 10
247.012356
 20
157.839039
 30
0.0
 40
0.5000188388096785
100
AcDbArc
 50
55.002047
 51
144.997606
  0
ARC
  5
5E0
330
1F
100
AcDbEntity
  8
0
  6
CONTINUOUS
 62
     7
100
AcDbCircle
 10
252.66449
 20
153.881384
 30
0.0
 40
0.50001245419851
100
AcDbArc
 50
-34.999576
 51
54.999483
  0
LINE
  5
5E1
330
1F
100
AcDbEntity
  8
0
  6
CONTINUOUS
 62
     7
100
AcDbLine
 10
241.30106
 20
148.897939
 30
0.0
 11
240.956915
 21
148.406454
 31
0.0
  0
LINE
  5
5E2
330
1F
100
AcDbEntity
  8
0
  6
CONTINUOUS
 62
     7
100
AcDbLine
 10
245.871827
 20
144.964986
 30
0.0
 11
246.215973
 21
145.456486
 31
0.0
  0
LINE
  5
5E3
330
1F
100
AcDbEntity
  8
0
  6
CONTINUOUS
 62
     7
100
AcDbLine
 10
247.466812
 20
156.300076
 30
0.0
 11
247.122666
 21
155.808576
 31
0.0
  0
LINE
  5
5E4
330
1F
100
AcDbEntity
  8
0
  6
CONTINUOUS
 62
     7
100
AcDbLine
 10
250.718744
 20
153.290578
 30
0.0
 11
251.062889
 21
153.782078
 31
0.0
  0
LINE
  5
5E5
330
1F
100
AcDbEntity
  8
0
  6
CONTINUOUS
 62
     7
100
AcDbLine
 10
239.928103
 20
163.463288
 30
0.0
 11
239.42075
 21
164.342039
 31
0.0
  0
LINE
  5
5E6
330
1F
100
AcDbEntity
  8
0
  6
CONTINUOUS
 62
     7
100
AcDbLine
 10
229.420751
 20
164.342039
 30
0.0
 11
228.913397
 21
163.463288
 31
0.0
  0
LINE
  5
5E7
330
1F
100
AcDbEntity
  8
0
  6
CONTINUOUS
 62
     7
100
AcDbLine
 10
229.187738
 20
149.392047
 30
0.0
 11
229.237728
 21
149.320655
 31
0.0
  0
LINE
  5
5E8
330
1F
100
AcDbEntity
  8
0
  6
CONTINUOUS
 62
     7
100
AcDbLine
 10
229.237728
 20
149.320655
 30
0.0
 11
229.286732
 21
149.269976
 31
0.0
  0
LINE
  5
5E9
330
1F
100
AcDbEntity
  8
0
  6
CONTINUOUS
 62
     7
100
AcDbLine
 10
237.67075
 20
164.342039
 30
0.0
 11
237.67075
 21
188.224964
 31
0.0
  0
LINE
  5
5EA
330
1F
100
AcDbEntity
  8
0
  6
CONTINUOUS
 62
     7
100
AcDbLine
 10
231.17075
 20
187.918947
 30
0.0
 11
231.17075
 21
164.342039
 31
0.0
  0
ARC
  5
5EB
330
1F
100
AcDbEntity
  8
0
  6
CONTINUOUS
 62
     7
100
AcDbCircle
 10
236.618513
 20
141.339143
 30
0.0
 40
46.89833804349609
100
AcDbArc
 50
49.493663
 51
54.388928
  0
ARC
  5
5EC
330
1F
100
AcDbEntity
  8
0
  6
CONTINUOUS
 62
     7
100
AcDbCircle
 10
236.620789
 20
141.341809
 30
0.0
 40
46.89491117805955
100
AcDbArc
 50
88.71706
 51
96.67389
  0
ARC
  5
5ED
330
1F
100
AcDbEntity
  8
0
  6
CONTINUOUS
 62
     7
100
AcDbCircle
 10
236.62075
 20
141.342039
 30
0.0
 40
12.18999995858488
100
AcDbArc
 50
-179.99999
 51
22.776449
  0
ARC
  5
5EE
330
1F
100
AcDbEntity
  8
0
  6
CONTINUOUS
 62
     7
100
AcDbCircle
 10
236.621355
 20
141.343517
 30
0.0
 40
12.188415477958
100
AcDbArc
 50
62.067526
 51
74.294119
  0
ARC
  5
5EF
330
1F
100
AcDbEntity
  8
0
  6
CONTINUOUS
 62
     7
100
AcDbCircle
 10
236.62073
 20
141.342053
 30
0.0
 40
12.18997968536407
100
AcDbArc
 50
129.173046
 51
180.000076
  0
ARC
  5
5F0
330
1F
100
AcDbEntity
  8
0
  6
CONTINUOUS
 62
     7
100
AcDbCircle
 10
236.620792
 20
141.342028
 30
0.0
 40
12.49004121653133
100
AcDbArc
 50
128.060593
 51
179.99996
  0
ARC
  5
5F1
330
1F
100
AcDbEntity
  8
0
  6
CONTINUOUS
 62
     7
100
AcDbCircle
 10
236.621396
 20
141.343664
 30
0.0
 40
12.48826835375789
100
AcDbArc
 50
61.896763
 51
74.680796
  0
ARC
  5
5F2
330
1F
100
AcDbEntity
  8
0
  6
CONTINUOUS
 62
     7
100
AcDbCircle
 10
236.620753
 20
141.342041
 30
0.0
 40
12.4900017042265
100
AcDbArc
 50
-179.99998
 51
23.639857
  0
ARC
  5
5F3
330
1F
100
AcDbEntity
  8
0
  6
CONTINUOUS
 62
     7
100
AcDbCircle
 10
236.620739
 20
141.342052
 30
0.0
 40
12.49998835915473
100
AcDbArc
 50
128.024591
 51
180.000068
  0
ARC
  5
5F4
330
1F
100
AcDbEntity
  8
0
  6
CONTINUOUS
 62
     7
100
AcDbCircle
 10
236.619781
 20
141.339599
 30
0.0
 40
12.50261760736679
100
AcDbArc
 50
61.893475
 51
74.691138
  0
ARC
  5
5F5
330
1F
100
AcDbEntity
  8
0
  6
CONTINUOUS
 62
     7
100
AcDbCircle
 10
236.620749
 20
141.342047
 30
0.0
 40
12.49999855896801
100
AcDbArc
 50
-179.999954
 51
23.667716
  0
CIRCLE
  5
5F6
330
1F
100
AcDbEntity
  8
0
  6
CONTINUOUS
 62
     7
100
AcDbCircle
 10
243.270748
 20
141.34204
 30
0.0
 40
1.700000186534438
  0
LINE
  5
5F7
330
1F
100
AcDbEntity
  8
0
  6
CONTINUOUS
 62
     7
100
AcDbLine
 10
243.149302
 20
140.484579
 30
0.0
 11
243.952615
 21
140.808128
 31
0.0
  0
LINE
  5
5F8
330
1F
100
AcDbEntity
  8
0
  6
CONTINUOUS
 62
     7
100
AcDbLine
 10
242.588886
 20
141.875961
 30
0.0
 11
242.467437
 21
141.018488
 31
0.0
  0
LINE
  5
5F9
330
1F
100
AcDbEntity
  8
0
  6
CONTINUOUS
 62
     7
100
AcDbLine
 10
242.467437
 20
141.018488
 30
0.0
 11
243.149302
 21
140.484579
 31
0.0
  0
LINE
  5
5FA
330
1F
100
AcDbEntity
  8
0
  6
CONTINUOUS
 62
     7
100
AcDbLine
 10
244.074063
 20
141.665601
 30
0.0
 11
243.392198
 21
142.199509
 31
0.0
  0
LINE
  5
5FB
330
1F
100
AcDbEntity
  8
0
  6
CONTINUOUS
 62
     7
100
AcDbLine
 10
243.952615
 20
140.808128
 30
0.0
 11
244.074063
 21
141.665601
 31
0.0
  0
LINE
  5
5FC
330
1F
100
AcDbEntity
  8
0
  6
CONTINUOUS
 62
     7
100
AcDbLine
 10
243.392198
 20
142.199509
 30
0.0
 11
242.588886
 21
141.875961
 31
0.0
  0
CIRCLE
  5
5FD
330
1F
100
AcDbEntity
  8
0
  6
CONTINUOUS
 62
     7
100
AcDbCircle
 10
243.270749
 20
141.342049
 30
0.0
 40
1.899998645177014
  0
CIRCLE
  5
5FE
330
1F
100
AcDbEntity
  8
0
  6
CONTINUOUS
 62
     7
100
AcDbCircle
 10
229.970748
 20
141.34204
 30
0.0
 40
1.699999971426083
  0
CIRCLE
  5
5FF
330
1F
100
AcDbEntity
  8
0
  6
CONTINUOUS
 62
     7
100
AcDbCircle
 10
229.970748
 20
141.342049
 30
0.0
 40
1.899998430067672
  0
LINE
  5
600
330
1F
100
AcDbEntity
  8
0
  6
CONTINUOUS
 62
     7
100
AcDbLine
 10
230.774063
 20
141.665601
 30
0.0
 11
230.092199
 21
142.199509
 31
0.0
  0
LINE
  5
601
330
1F
100
AcDbEntity
  8
0
  6
CONTINUOUS
 62
     7
100
AcDbLine
 10
230.092199
 20
142.199509
 30
0.0
 11
229.288886
 21
141.875961
 31
0.0
  0
LINE
  5
602
330
1F
100
AcDbEntity
  8
0
  6
CONTINUOUS
 62
     7
100
AcDbLine
 10
229.849303
 20
140.484579
 30
0.0
 11
230.652615
 21
140.808128
 31
0.0
  0
LINE
  5
603
330
1F
100
AcDbEntity
  8
0
  6
CONTINUOUS
 62
     7
100
AcDbLine
 10
230.652615
 20
140.808128
 30
0.0
 11
230.774063
 21
141.665601
 31
0.0
  0
LINE
  5
604
330
1F
100
AcDbEntity
  8
0
  6
CONTINUOUS
 62
     7
100
AcDbLine
 10
229.167438
 20
141.018488
 30
0.0
 11
229.849303
 21
140.484579
 31
0.0
  0
LINE
  5
605
330
1F
100
AcDbEntity
  8
0
  6
CONTINUOUS
 62
     7
100
AcDbLine
 10
229.288886
 20
141.875961
 30
0.0
 11
229.167438
 21
141.018488
 31
0.0
  0
LINE
  5
606
330
1F
100
AcDbEntity
  8
0
  6
CONTINUOUS
 62
     7
100
AcDbLine
 10
229.291187
 20
149.342038
 30
0.0
 11
239.62075
 21
149.342038
 31
0.0
  0
LINE
  5
607
330
1F
100
AcDbEntity
  8
0
  6
CONTINUOUS
 62
     7
100
AcDbLine
 10
239.62075
 20
149.342038
 30
0.0
 11
239.55769
 21
149.14205
 31
0.0
  0
LINE
  5
608
330
1F
100
AcDbEntity
  8
0
  6
CONTINUOUS
 62
     7
100
AcDbLine
 10
239.55769
 20
149.14205
 30
0.0
 11
229.369372
 21
149.14205
 31
0.0
  0
LINE
  5
609
330
1F
100
AcDbEntity
  8
0
  6
CONTINUOUS
 62
     7
100
AcDbLine
 10
229.369372
 20
149.14205
 30
0.0
 11
229.291187
 21
149.342038
 31
0.0
  0
CIRCLE
  5
60A
330
1F
100
AcDbEntity
  8
0
  6
CONTINUOUS
 62
     7
100
AcDbCircle
 10
243.270749
 20
141.342041
 30
0.0
 40
2.350000503099694
  0
CIRCLE
  5
60B
330
1F
100
AcDbEntity
  8
0
  6
CONTINUOUS
 62
     7
100
AcDbCircle
 10
243.270749
 20
141.342041
 30
0.0
 40
2.15000247467978
  0
LINE
  5
60C
330
1F
100
AcDbEntity
  8
0
  6
CONTINUOUS
 62
     7
100
AcDbLine
 10
239.62075
 20
149.342038
 30
0.0
 11
247.116
 21
144.09382
 31
0.0
  0
LINE
  5
60D
330
1F
100
AcDbEntity
  8
0
  6
CONTINUOUS
 62
     7
100
AcDbLine
 10
247.116
 20
144.09382
 30
0.0
 11
246.940839
 21
143.972315
 31
0.0
  0
LINE
  5
60E
330
1F
100
AcDbEntity
  8
0
  6
CONTINUOUS
 62
     7
100
AcDbLine
 10
246.940839
 20
143.972315
 30
0.0
 11
239.55769
 21
149.14205
 31
0.0
  0
CIRCLE
  5
60F
330
1F
100
AcDbEntity
  8
0
  6
CONTINUOUS
 62
     7
100
AcDbCircle
 10
229.970749
 20
141.342041
 30
0.0
 40
2.35000028799276
  0
ARC
  5
610
330
1F
100
AcDbEntity
  8
0
  6
CONTINUOUS
 62
     7
100
AcDbCircle
 10
236.620751
 20
141.342049
 30
0.0
 40
10.65000054407196
100
AcDbArc
 50
-227.087502
 51
14.298483
  0
CIRCLE
  5
611
330
1F
100
AcDbEntity
  8
0
  6
CONTINUOUS
 62
     7
100
AcDbCircle
 10
229.970749
 20
141.342041
 30
0.0
 40
2.150002259572453
  0
ARC
  5
612
330
1F
100
AcDbEntity
  8
0
  6
CONTINUOUS
 62
     7
100
AcDbCircle
 10
236.620752
 20
141.342039
 30
0.0
 40
10.85000095474923
100
AcDbArc
 50
-227.50422
 51
14.691849
  0
LINE
  5
613
330
1F
100
AcDbEntity
  8
0
  6
CONTINUOUS
 62
     7
100
AcDbLine
 10
247.116
 20
144.09382
 30
0.0
 11
246.824638
 21
145.030298
 31
0.0
  0
LINE
  5
614
330
1F
100
AcDbEntity
  8
0
  6
CONTINUOUS
 62
     7
100
AcDbLine
 10
241.555567
 20
151.004859
 30
0.0
 11
240.643224
 21
151.418858
 31
0.0
  0
LINE
  5
615
330
1F
100
AcDbEntity
  8
0
  6
CONTINUOUS
 62
     7
100
AcDbLine
 10
240.643224
 20
151.418858
 30
0.0
 11
239.92075
 21
151.678019
 31
0.0
  0
ARC
  5
616
330
1F
100
AcDbEntity
  8
0
  6
CONTINUOUS
 62
     7
100
AcDbCircle
 10
236.62074
 20
141.342049
 30
0.0
 40
10.95001129617917
100
AcDbArc
 50
-89.999945
 51
19.135605
  0
LINE
  5
617
330
1F
100
AcDbEntity
  8
0
  6
CONTINUOUS
 62
     7
100
AcDbLine
 10
241.613476
 20
151.08756
 30
0.0
 11
241.371777
 21
151.207649
 31
0.0
  0
LINE
  5
618
330
1F
100
AcDbEntity
  8
0
  6
CONTINUOUS
 62
     7
100
AcDbLine
 10
241.371777
 20
151.207649
 30
0.0
 11
239.92075
 21
151.782953
 31
0.0
  0
ARC
  5
619
330
1F
100
AcDbEntity
  8
0
  6
CONTINUOUS
 62
     7
100
AcDbCircle
 10
236.620759
 20
141.342045
 30
0.0
 40
10.95000714689231
100
AcDbArc
 50
133.015358
 51
269.999953
  0
INSERT
  5
61D
330
1F
100
AcDbEntity
  8
0
100
AcDbBlockReference
  2
BLKF037
 10
0.0
 20
0.0
 30
0.0
  0
INSERT
  5
62C
330
1F
100
AcDbEntity
  8
0
100
AcDbBlockReference
  2
BLKF038
 10
0.0
 20
0.0
 30
0.0
  0
INSERT
  5
63B
330
1F
100
AcDbEntity
  8
0
100
AcDbBlockReference
  2
BLKF039
 10
0.0
 20
0.0
 30
0.0
  0
INSERT
  5
64A
330
1F
100
AcDbEntity
  8
0
100
AcDbBlockReference
  2
BLKF040
 10
0.0
 20
0.0
 30
0.0
  0
LINE
  5
655
330
1F
100
AcDbEntity
  8
0
  6
CONTINUOUS
 62
     7
100
AcDbLine
 10
229.594094
 20
162.609988
 30
0.0
 11
228.920751
 21
162.609988
 31
0.0
  0
LINE
  5
656
330
1F
100
AcDbEntity
  8
0
  6
CONTINUOUS
 62
     7
100
AcDbLine
 10
228.920751
 20
162.609988
 30
0.0
 11
228.920751
 21
163.320415
 31
0.0
  0
LINE
  5
657
330
1F
100
AcDbEntity
  8
0
  6
CONTINUOUS
 62
     7
100
AcDbLine
 10
228.920751
 20
163.320415
 30
0.0
 11
228.920751
 21
163.459041
 31
0.0
  0
INSERT
  5
65B
330
1F
100
AcDbEntity
  8
0
100
AcDbBlockReference
  2
BLKF041
 10
0.0
 20
0.0
 30
0.0
  0
LINE
  5
65F
330
1F
100
AcDbEntity
  8
0
  6
CONTINUOUS
 62
     7
100
AcDbLine
 10
239.92075
 20
162.609988
 30
0.0
 11
239.247406
 21
162.609988
 31
0.0
  0
INSERT
  5
663
330
1F
100
AcDbEntity
  8
0
100
AcDbBlockReference
  2
BLKF042
 10
0.0
 20
0.0
 30
0.0
  0
LINE
  5
745
330
1F
100
AcDbEntity
  8
0
  6
CONTINUOUS
 62
     7
100
AcDbLine
 10
235.094094
 20
162.609988
 30
0.0
 11
233.747406
 21
162.609988
 31
0.0
  0
INSERT
  5
749
330
1F
100
AcDbEntity
  8
0
100
AcDbBlockReference
  2
BLKF043
 10
0.0
 20
0.0
 30
0.0
  0
LINE
  5
78C
330
1F
100
AcDbEntity
  8
0
  6
CONTINUOUS
 62
     7
100
AcDbLine
 10
236.92075
 20
164.342039
 30
0.0
 11
229.420751
 21
164.342039
 31
0.0
  0
LINE
  5
78D
330
1F
100
AcDbEntity
  8
0
  6
CONTINUOUS
 62
     7
100
AcDbLine
 10
239.42075
 20
164.342039
 30
0.0
 11
236.92075
 21
164.342039
 31
0.0
  0
LINE
  5
78E
330
1F
100
AcDbEntity
  8
0
  6
CONTINUOUS
 62
     7
100
AcDbLine
 10
233.747406
 20
162.609988
 30
0.0
 11
233.747406
 21
159.942039
 31
0.0
  0
LINE
  5
78F
330
1F
100
AcDbEntity
  8
0
  6
CONTINUOUS
 62
     7
100
AcDbLine
 10
233.520075
 20
159.842037
 30
0.0
 11
233.747406
 21
159.942039
 31
0.0
  0
LINE
  5
790
330
1F
100
AcDbEntity
  8
0
  6
CONTINUOUS
 62
     7
100
AcDbLine
 10
229.594094
 20
159.942039
 30
0.0
 11
229.821426
 21
159.842037
 31
0.0
  0
LINE
  5
791
330
1F
100
AcDbEntity
  8
0
  6
CONTINUOUS
 62
     7
100
AcDbLine
 10
229.594094
 20
162.609988
 30
0.0
 11
229.594094
 21
159.942039
 31
0.0
  0
LINE
  5
792
330
1F
100
AcDbEntity
  8
0
  6
CONTINUOUS
 62
     7
100
AcDbLine
 10
229.821426
 20
159.842037
 30
0.0
 11
233.520075
 21
159.842037
 31
0.0
  0
LINE
  5
793
330
1F
100
AcDbEntity
  8
0
  6
CONTINUOUS
 62
     7
100
AcDbLine
 10
235.094094
 20
159.942039
 30
0.0
 11
233.747406
 21
159.942039
 31
0.0
  0
LINE
  5
794
330
1F
100
AcDbEntity
  8
0
  6
CONTINUOUS
 62
     7
100
AcDbLine
 10
235.094094
 20
159.942039
 30
0.0
 11
235.321426
 21
159.842037
 31
0.0
  0
LINE
  5
795
330
1F
100
AcDbEntity
  8
0
  6
CONTINUOUS
 62
     7
100
AcDbLine
 10
235.321426
 20
159.842037
 30
0.0
 11
233.520075
 21
159.842037
 31
0.0
  0
LINE
  5
796
330
1F
100
AcDbEntity
  8
0
  6
CONTINUOUS
 62
     7
100
AcDbLine
 10
235.094094
 20
162.609988
 30
0.0
 11
235.094094
 21
159.942039
 31
0.0
  0
LINE
  5
797
330
1F
100
AcDbEntity
  8
0
  6
CONTINUOUS
 62
     7
100
AcDbLine
 10
239.247406
 20
162.609988
 30
0.0
 11
239.247406
 21
159.942039
 31
0.0
  0
LINE
  5
798
330
1F
100
AcDbEntity
  8
0
  6
CONTINUOUS
 62
     7
100
AcDbLine
 10
239.020074
 20
159.842037
 30
0.0
 11
239.247406
 21
159.942039
 31
0.0
  0
LINE
  5
799
330
1F
100
AcDbEntity
  8
0
  6
CONTINUOUS
 62
     7
100
AcDbLine
 10
235.321426
 20
159.842037
 30
0.0
 11
239.020074
 21
159.842037
 31
0.0
  0
LINE
  5
79A
330
1F
100
AcDbEntity
  8
0
  6
CONTINUOUS
 62
     7
100
AcDbLine
 10
228.920751
 20
159.842037
 30
0.0
 11
228.920751
 21
159.942039
 31
0.0
  0
LINE
  5
79B
330
1F
100
AcDbEntity
  8
0
  6
CONTINUOUS
 62
     7
100
AcDbLine
 10
229.594094
 20
159.942039
 30
0.0
 11
228.920751
 21
159.942039
 31
0.0
  0
LINE
  5
79C
330
1F
100
AcDbEntity
  8
0
  6
CONTINUOUS
 62
     7
100
AcDbLine
 10
229.821426
 20
159.842037
 30
0.0
 11
228.920751
 21
159.842037
 31
0.0
  0
LINE
  5
79D
330
1F
100
AcDbEntity
  8
0
  6
CONTINUOUS
 62
     7
100
AcDbLine
 10
239.92075
 20
159.942039
 30
0.0
 11
239.247406
 21
159.942039
 31
0.0
  0
LINE
  5
79E
330
1F
100
AcDbEntity
  8
0
  6
CONTINUOUS
 62
     7
100
AcDbLine
 10
239.92075
 20
159.942039
 30
0.0
 11
239.92075
 21
159.842037
 31
0.0
  0
LINE
  5
79F
330
1F
100
AcDbEntity
  8
0
  6
CONTINUOUS
 62
     7
100
AcDbLine
 10
239.92075
 20
159.842037
 30
0.0
 11
239.020074
 21
159.842037
 31
0.0
  0
LINE
  5
7A0
330
1F
100
AcDbEntity
  8
0
  6
CONTINUOUS
 62
     7
100
AcDbLine
 10
228.920751
 20
162.609988
 30
0.0
 11
228.920751
 21
159.942039
 31
0.0
  0
LINE
  5
7A1
330
1F
100
AcDbEntity
  8
0
  6
CONTINUOUS
 62
     7
100
AcDbLine
 10
239.92075
 20
162.609988
 30
0.0
 11
239.92075
 21
159.942039
 31
0.0
  0
LINE
  5
7A2
330
1F
100
AcDbEntity
  8
0
  6
CONTINUOUS
 62
     7
100
AcDbLine
 10
232.966898
 20
149.342038
 30
0.0
 11
233.747406
 21
149.642043
 31
0.0
  0
INSERT
  5
7A6
330
1F
100
AcDbEntity
  8
0
100
AcDbBlockReference
  2
BLKF044
 10
0.0
 20
0.0
 30
0.0
  0
LINE
  5
7C1
330
1F
100
AcDbEntity
  8
0
  6
CONTINUOUS
 62
     7
100
AcDbLine
 10
229.594094
 20
159.342044
 30
0.0
 11
229.594094
 21
149.642043
 31
0.0
  0
INSERT
  5
7C5
330
1F
100
AcDbEntity
  8
0
100
AcDbBlockReference
  2
BLKF045
 10
0.0
 20
0.0
 30
0.0
  0
LINE
  5
7EA
330
1F
100
AcDbEntity
  8
0
  6
CONTINUOUS
 62
     7
100
AcDbLine
 10
233.747406
 20
159.342044
 30
0.0
 11
231.67075
 21
159.842037
 31
0.0
  0
LINE
  5
7EB
330
1F
100
AcDbEntity
  8
0
  6
CONTINUOUS
 62
     7
100
AcDbLine
 10
233.747406
 20
159.342044
 30
0.0
 11
233.747406
 21
149.642043
 31
0.0
  0
LINE
  5
7EC
330
1F
100
AcDbEntity
  8
0
  6
CONTINUOUS
 62
     7
100
AcDbLine
 10
235.094094
 20
159.342044
 30
0.0
 11
233.747406
 21
159.342044
 31
0.0
  0
INSERT
  5
7F0
330
1F
100
AcDbEntity
  8
0
100
AcDbBlockReference
  2
BLKF046
 10
0.0
 20
0.0
 30
0.0
  0
LINE
  5
815
330
1F
100
AcDbEntity
  8
0
  6
CONTINUOUS
 62
     7
100
AcDbLine
 10
235.094094
 20
149.642043
 30
0.0
 11
233.747406
 21
149.642043
 31
0.0
  0
LINE
  5
816
330
1F
100
AcDbEntity
  8
0
  6
CONTINUOUS
 62
     7
100
AcDbLine
 10
235.094094
 20
149.642043
 30
0.0
 11
235.874602
 21
149.342038
 31
0.0
  0
LINE
  5
817
330
1F
100
AcDbEntity
  8
0
  6
CONTINUOUS
 62
     7
100
AcDbLine
 10
235.094094
 20
159.342044
 30
0.0
 11
235.094094
 21
149.642043
 31
0.0
  0
LINE
  5
818
330
1F
100
AcDbEntity
  8
0
  6
CONTINUOUS
 62
     7
100
AcDbLine
 10
238.466898
 20
149.342038
 30
0.0
 11
239.247406
 21
149.642043
 31
0.0
  0
LINE
  5
819
330
1F
100
AcDbEntity
  8
0
  6
CONTINUOUS
 62
     7
100
AcDbLine
 10
239.247406
 20
159.342044
 30
0.0
 11
237.17075
 21
159.842037
 31
0.0
  0
LINE
  5
81A
330
1F
100
AcDbEntity
  8
0
  6
CONTINUOUS
 62
     7
100
AcDbLine
 10
239.247406
 20
159.342044
 30
0.0
 11
239.247406
 21
149.642043
 31
0.0
  0
LINE
  5
81B
330
1F
100
AcDbEntity
  8
0
  6
CONTINUOUS
 62
     7
100
AcDbLine
 10
229.594094
 20
159.342044
 30
0.0
 11
228.920751
 21
159.342044
 31
0.0
  0
LINE
  5
81C
330
1F
100
AcDbEntity
  8
0
  6
CONTINUOUS
 62
     7
100
AcDbLine
 10
228.920751
 20
159.342044
 30
0.0
 11
228.920751
 21
159.492039
 31
0.0
  0
LINE
  5
81D
330
1F
100
AcDbEntity
  8
0
  6
CONTINUOUS
 62
     7
100
AcDbLine
 10
239.92075
 20
159.342044
 30
0.0
 11
239.247406
 21
159.342044
 31
0.0
  0
LINE
  5
81E
330
1F
100
AcDbEntity
  8
0
  6
CONTINUOUS
 62
     7
100
AcDbLine
 10
239.92075
 20
159.842037
 30
0.0
 11
239.92075
 21
159.499698
 31
0.0
  0
LINE
  5
81F
330
1F
100
AcDbEntity
  8
0
  6
CONTINUOUS
 62
     7
100
AcDbLine
 10
239.92075
 20
159.499698
 30
0.0
 11
239.92075
 21
159.342044
 31
0.0
  0
LINE
  5
820
330
1F
100
AcDbEntity
  8
0
  6
CONTINUOUS
 62
     7
100
AcDbLine
 10
228.920751
 20
149.342038
 30
0.0
 11
228.920751
 21
149.642043
 31
0.0
  0
LINE
  5
821
330
1F
100
AcDbEntity
  8
0
  6
CONTINUOUS
 62
     7
100
AcDbLine
 10
229.594094
 20
149.642043
 30
0.0
 11
228.920751
 21
149.642043
 31
0.0
  0
LINE
  5
822
330
1F
100
AcDbEntity
  8
0
  6
CONTINUOUS
 62
     7
100
AcDbLine
 10
229.291187
 20
149.342038
 30
0.0
 11
228.920751
 21
149.342038
 31
0.0
  0
LINE
  5
823
330
1F
100
AcDbEntity
  8
0
  6
CONTINUOUS
 62
     7
100
AcDbLine
 10
239.92075
 20
149.642043
 30
0.0
 11
239.247406
 21
149.642043
 31
0.0
  0
LINE
  5
824
330
1F
100
AcDbEntity
  8
0
  6
CONTINUOUS
 62
     7
100
AcDbLine
 10
239.92075
 20
149.642043
 30
0.0
 11
239.92075
 21
149.367266
 31
0.0
  0
LINE
  5
825
330
1F
100
AcDbEntity
  8
0
  6
CONTINUOUS
 62
     7
100
AcDbLine
 10
239.92075
 20
149.367266
 30
0.0
 11
239.92075
 21
149.342038
 31
0.0
  0
LINE
  5
826
330
1F
100
AcDbEntity
  8
0
  6
CONTINUOUS
 62
     7
100
AcDbLine
 10
239.92075
 20
149.342038
 30
0.0
 11
239.62075
 21
149.342038
 31
0.0
  0
LINE
  5
827
330
1F
100
AcDbEntity
  8
0
  6
CONTINUOUS
 62
     7
100
AcDbLine
 10
228.920751
 20
159.342044
 30
0.0
 11
228.920751
 21
149.642043
 31
0.0
  0
LINE
  5
828
330
1F
100
AcDbEntity
  8
0
  6
CONTINUOUS
 62
     7
100
AcDbLine
 10
239.92075
 20
159.342044
 30
0.0
 11
239.92075
 21
149.642043
 31
0.0
  0
INSERT
  5
82C
330
1F
100
AcDbEntity
  8
0
100
AcDbBlockReference
  2
BLKF047
 10
0.0
 20
0.0
 30
0.0
  0
INSERT
  5
83B
330
1F
100
AcDbEntity
  8
0
100
AcDbBlockReference
  2
BLKF048
 10
0.0
 20
0.0
 30
0.0
  0
ENDSEC
  0
SECTION
  2
OBJECTS
  0
DICTIONARY
  5
C
330
0
100
AcDbDictionary
  3
ACAD_GROUP
350
D
  3
ACAD_LAYOUT
350
1A
  3
ACAD_MLINESTYLE
350
17
  3
ACAD_PLOTSETTINGS
350
19
1001
ACAD
1000
TREAT_AS_HARD
1070
     0
  0
DICTIONARY
  5
D
102
{ACAD_REACTORS
330
C
102
}
330
C
100
AcDbDictionary
1001
ACAD
1000
TREAT_AS_HARD
1070
     0
  0
DICTIONARY
  5
1A
102
{ACAD_REACTORS
330
C
102
}
330
C
100
AcDbDictionary
1001
ACAD
1000
TREAT_AS_HARD
1070
     0
  0
DICTIONARY
  5
17
102
{ACAD_REACTORS
330
C
102
}
330
C
100
AcDbDictionary
  3
STANDARD
350
18
1001
ACAD
1000
TREAT_AS_HARD
1070
     0
  0
DICTIONARY
  5
19
102
{ACAD_REACTORS
330
C
102
}
330
C
100
AcDbDictionary
1001
ACAD
1000
TREAT_AS_HARD
1070
     0
  0
MLINESTYLE
  5
18
102
{ACAD_REACTORS
330
17
102
}
330
17
100
AcDbMlineStyle
  2
Standard
 70
     0
  3

 62
   256
 51
90.0
 52
90.0
 71
     2
 49
0.5
 62
   256
  6
BYLAYER
 49
-0.5
 62
   256
  6
BYLAYER
  0
ENDSEC
  0
EOF
