  0
SECTION
  2
HEADER
  9
$ACADVER
  1
AC1012
  9
$DWGCODEPAGE
  3
ansi_932
  9
$INSBASE
 10
0.0
 20
0.0
 30
0.0
  9
$EXTMIN
 10
0.0
 20
0.0
 30
0.0
  9
$EXTMAX
 10
271.063686
 20
110.691302
 30
0.0
  9
$LIMMIN
 10
0.0
 20
0.0
  9
$LIMMAX
 10
271.063686
 20
110.691302
  9
$ORTHOMODE
 70
     0
  9
$REGENMODE
 70
     1
  9
$FILLMODE
 70
     1
  9
$QTEXTMODE
 70
     0
  9
$MIRRTEXT
 70
     1
  9
$DRAGMODE
 70
     2
  9
$LTSCALE
 40
1.0
  9
$OSMODE
 70
    37
  9
$ATTMODE
 70
     1
  9
$TEXTSIZE
 40
0.2
  9
$TRACEWID
 40
0.05
  9
$TEXTSTYLE
  7
ED_VECTOR
  9
$CLAYER
  8
0
  9
$CELTYPE
  6
BYLAYER
  9
$CECOLOR
 62
   256
  9
$CELTSCALE
 40
1.0
  9
$DELOBJ
 70
     1
  9
$DISPSILH
 70
     0
  9
$DIMSCALE
 40
1.0
  9
$DIMASZ
 40
3.0
  9
$DIMEXO
 40
1.0
  9
$DIMDLI
 40
10.0
  9
$DIMRND
 40
0.0
  9
$DIMDLE
 40
5.0
  9
$DIMEXE
 40
1.0
  9
$DIMTP
 40
0.0
  9
$DIMTM
 40
0.0
  9
$DIMTXT
 40
4.0
  9
$DIMCEN
 40
2.5
  9
$DIMTSZ
 40
0.0
  9
$DIMTOL
 70
     0
  9
$DIMLIM
 70
     0
  9
$DIMTIH
 70
     0
  9
$DIMTOH
 70
     0
  9
$DIMSE1
 70
     0
  9
$DIMSE2
 70
     0
  9
$DIMTAD
 70
     1
  9
$DIMZIN
 70
     8
  9
$DIMBLK
  1

  9
$DIMASO
 70
     1
  9
$DIMSHO
 70
     1
  9
$DIMPOST
  1

  9
$DIMAPOST
  1

  9
$DIMALT
 70
     0
  9
$DIMALTD
 70
     3
  9
$DIMALTF
 40
0.03937
  9
$DIMLFAC
 40
1.0
  9
$DIMTOFL
 70
     1
  9
$DIMTVP
 40
0.0
  9
$DIMTIX
 70
     0
  9
$DIMSOXD
 70
     0
  9
$DIMSAH
 70
     1
  9
$DIMBLK1
  1
EDTIP_ARROW_S
  9
$DIMBLK2
  1
EDTIP_ARROW_E
  9
$DIMSTYLE
  2
EDDIMINFO
  9
$DIMCLRD
 70
     7
  9
$DIMCLRE
 70
     7
  9
$DIMCLRT
 70
     7
  9
$DIMTFAC
 40
1.0
  9
$DIMGAP
 40
1.0
  9
$DIMJUST
 70
     0
  9
$DIMSD1
 70
     0
  9
$DIMSD2
 70
     0
  9
$DIMTOLJ
 70
     0
  9
$DIMTZIN
 70
     8
  9
$DIMALTZ
 70
     0
  9
$DIMALTTZ
 70
     0
  9
$DIMFIT
 70
     3
  9
$DIMUPT
 70
     0
  9
$DIMUNIT
 70
     2
  9
$DIMDEC
 70
     2
  9
$DIMTDEC
 70
     2
  9
$DIMALTU
 70
     2
  9
$DIMALTTD
 70
     3
  9
$DIMTXSTY
  7
ED_VECTOR
  9
$DIMAUNIT
 70
     0
  9
$LUNITS
 70
     2
  9
$LUPREC
 70
     4
  9
$SKETCHINC
 40
0.1
  9
$FILLETRAD
 40
0.5
  9
$AUNITS
 70
     0
  9
$AUPREC
 70
     0
  9
$MENU
  1
.
  9
$ELEVATION
 40
0.0
  9
$PELEVATION
 40
0.0
  9
$THICKNESS
 40
0.0
  9
$LIMCHECK
 70
     0
  9
$CHAMFERA
 40
0.5
  9
$CHAMFERB
 40
0.5
  9
$CHAMFERC
 40
1.0
  9
$CHAMFERD
 40
0.0
  9
$SKPOLY
 70
     0
  9
$TDCREATE
 40
2456063.679483171
  9
$TDUPDATE
 40
2456063.679483183
  9
$TDINDWG
 40
0.0000000116
  9
$TDUSRTIMER
 40
0.0000000116
  9
$USRTIMER
 70
     1
  9
$ANGBASE
 50
0.0
  9
$ANGDIR
 70
     0
  9
$PDMODE
 70
     0
  9
$PDSIZE
 40
0.0
  9
$PLINEWID
 40
0.0
  9
$COORDS
 70
     1
  9
$SPLFRAME
 70
     0
  9
$SPLINETYPE
 70
     6
  9
$SPLINESEGS
 70
     8
  9
$ATTDIA
 70
     0
  9
$ATTREQ
 70
     1
  9
$HANDLING
 70
     1
  9
$HANDSEED
  5
6AC
  9
$SURFTAB1
 70
     6
  9
$SURFTAB2
 70
     6
  9
$SURFTYPE
 70
     6
  9
$SURFU
 70
     6
  9
$SURFV
 70
     6
  9
$UCSNAME
  2

  9
$UCSORG
 10
0.0
 20
0.0
 30
0.0
  9
$UCSXDIR
 10
1.0
 20
0.0
 30
0.0
  9
$UCSYDIR
 10
0.0
 20
1.0
 30
0.0
  9
$PUCSNAME
  2

  9
$PUCSORG
 10
0.0
 20
0.0
 30
0.0
  9
$PUCSXDIR
 10
1.0
 20
0.0
 30
0.0
  9
$PUCSYDIR
 10
0.0
 20
1.0
 30
0.0
  9
$USERI1
 70
     0
  9
$USERI2
 70
     0
  9
$USERI3
 70
     0
  9
$USERI4
 70
     0
  9
$USERI5
 70
     0
  9
$USERR1
 40
0.0
  9
$USERR2
 40
0.0
  9
$USERR3
 40
0.0
  9
$USERR4
 40
0.0
  9
$USERR5
 40
0.0
  9
$WORLDVIEW
 70
     1
  9
$SHADEDGE
 70
     3
  9
$SHADEDIF
 70
    70
  9
$TILEMODE
 70
     1
  9
$MAXACTVP
 70
    64
  9
$PINSBASE
 10
0.0
 20
0.0
 30
0.0
  9
$PLIMCHECK
 70
     0
  9
$PEXTMIN
 10
1.000000E+20
 20
1.000000E+20
 30
1.000000E+20
  9
$PEXTMAX
 10
-1.000000E+20
 20
-1.000000E+20
 30
-1.000000E+20
  9
$PLIMMIN
 10
0.0
 20
0.0
  9
$PLIMMAX
 10
12.0
 20
9.0
  9
$UNITMODE
 70
     0
  9
$VISRETAIN
 70
     1
  9
$PLINEGEN
 70
     0
  9
$PSLTSCALE
 70
     1
  9
$TREEDEPTH
 70
  3020
  9
$PICKSTYLE
 70
     1
  9
$CMLSTYLE
  2
STANDARD
  9
$CMLJUST
 70
     0
  9
$CMLSCALE
 40
1.0
  9
$SAVEIMAGES
 70
     1
  0
ENDSEC
  0
SECTION
  2
CLASSES
  0
CLASS
  1
ACDBDICTIONARYWDFLT
  2
AcDbDictionaryWithDefault
  3
ObjectDBX Classes
 90
    32768
280
     0
281
     0
  0
CLASS
  1
XRECORD
  2
AcDbXrecord
  3
AutoCAD 2000
 90
    32768
280
     0
281
     0
  0
CLASS
  1
LWPOLYLINE
  2
AcDbPolyline
  3
AutoCAD 2000
 90
    32768
280
     0
281
     1
  0
CLASS
  1
HATCH
  2
AcDbHatch
  3
AutoCAD 2000
 90
    32768
280
     0
281
     1
  0
CLASS
  1
ACDBPLACEHOLDER
  2
AcDbPlaceHolder
  3
ObjectDBX Classes
 90
        0
280
     0
281
     0
  0
CLASS
  1
LAYOUT
  2
AcDbLayout
  3
ObjectDBX Classes
 90
        0
280
     0
281
     0
  0
ENDSEC
  0
SECTION
  2
TABLES
  0
TABLE
  2
VPORT
  5
8
330
0
100
AcDbSymbolTable
 70
     1
  0
VPORT
  5
29
330
8
100
AcDbSymbolTableRecord
100
AcDbViewportTableRecord
  2
*ACTIVE
 70
     0
 10
0.0
 20
0.0
 11
1.0
 21
1.0
 12
135.531843
 22
55.345651
 13
0.0
 23
0.0
 14
0.5
 24
0.5
 15
0.5
 25
0.5
 16
0.0
 26
0.0
 36
1.0
 17
0.0
 27
0.0
 37
0.0
 40
110.691302
 41
2.448826
 42
50.0
 43
0.0
 44
0.0
 50
0.0
 51
0.0
 71
     0
 72
   100
 73
     1
 74
     3
 75
     0
 76
     0
 77
     0
 78
     0
  0
ENDTAB
  0
TABLE
  2
LTYPE
  5
5
330
0
100
AcDbSymbolTable
 70
     5
  0
LTYPE
  5
14
330
5
100
AcDbSymbolTableRecord
100
AcDbLinetypeTableRecord
  2
BYBLOCK
 70
     0
  3

 72
    65
 73
     0
 40
0.0
  0
LTYPE
  5
15
330
5
100
AcDbSymbolTableRecord
100
AcDbLinetypeTableRecord
  2
BYLAYER
 70
     0
  3

 72
    65
 73
     0
 40
0.0
  0
LTYPE
  5
16
330
5
100
AcDbSymbolTableRecord
100
AcDbLinetypeTableRecord
  2
CONTINUOUS
 70
     0
  3
--------------------
 72
    65
 73
     0
 40
0.0
  0
LTYPE
  5
2A
330
5
100
AcDbSymbolTableRecord
100
AcDbLinetypeTableRecord
  2
DASHED
 70
     0
  3
- - - - - - - - - - -
 72
    65
 73
     2
 40
19.1
 49
12.7
 74
     0
 49
-6.4
 74
     0
  0
LTYPE
  5
2B
330
5
100
AcDbSymbolTableRecord
100
AcDbLinetypeTableRecord
  2
CENTER
 70
     0
  3
- ･ - ･ - ･ - ･ - ･ - ･ - ･ - ･ - ･ - ･ -
 72
    65
 73
     4
 40
51.0
 49
31.8
 74
     0
 49
-6.4
 74
     0
 49
6.4
 74
     0
 49
-6.4
 74
     0
  0
LTYPE
  5
2C
330
5
100
AcDbSymbolTableRecord
100
AcDbLinetypeTableRecord
  2
PHANTOM
 70
     0
  3
- ･ ･ - ･ ･ - ･ ･ - ･ ･ - ･ ･ - ･ ･ - ･ ･ - 
 72
    65
 73
     6
 40
63.8
 49
31.8
 74
     0
 49
-6.4
 74
     0
 49
6.4
 74
     0
 49
-6.4
 74
     0
 49
6.4
 74
     0
 49
-6.4
 74
     0
  0
LTYPE
  5
2D
330
5
100
AcDbSymbolTableRecord
100
AcDbLinetypeTableRecord
  2
DOT
 70
     0
  3
・・・・・・・・・・・・・・・
 72
    65
 73
     2
 40
6.5
 49
0.1
 74
     0
 49
-6.4
 74
     0
  0
ENDTAB
  0
TABLE
  2
LAYER
  5
2
330
0
100
AcDbSymbolTable
 70
    16
  0
LAYER
  5
10
330
2
100
AcDbSymbolTableRecord
100
AcDbLayerTableRecord
  2
0
 70
     0
 62
     7
  6
CONTINUOUS
  0
LAYER
  5
2E
330
2
100
AcDbSymbolTableRecord
100
AcDbLayerTableRecord
  2
CSLAYER2
 70
     0
 62
     7
  6
CONTINUOUS
  0
ENDTAB
  0
TABLE
  2
STYLE
  5
3
330
0
100
AcDbSymbolTable
 70
     2
  0
STYLE
  5
11
330
3
100
AcDbSymbolTableRecord
100
AcDbTextStyleTableRecord
  2
STANDARD
 70
     0
 40
0.0
 41
1.0
 50
0.0
 71
     0
 42
0.2
  3
txt
  4

  0
STYLE
  5
3D
330
3
100
AcDbSymbolTableRecord
100
AcDbTextStyleTableRecord
  2
ED_VECTOR
 70
     0
 40
0.0
 41
1.0
 50
0.0
 71
     0
 42
0.2
  3
MONOTXT.SHX
  4
BIGFONT.SHX
  0
ENDTAB
  0
TABLE
  2
VIEW
  5
6
330
0
100
AcDbSymbolTable
 70
     0
  0
ENDTAB
  0
TABLE
  2
UCS
  5
7
330
0
100
AcDbSymbolTable
 70
     0
  0
ENDTAB
  0
TABLE
  2
APPID
  5
9
330
0
100
AcDbSymbolTable
 70
     1
  0
APPID
  5
12
330
9
100
AcDbSymbolTableRecord
100
AcDbRegAppTableRecord
  2
ACAD
 70
     0
  0
ENDTAB
  0
TABLE
  2
DIMSTYLE
  5
A
330
0
100
AcDbSymbolTable
 70
     2
  0
DIMSTYLE
105
27
330
A
100
AcDbSymbolTableRecord
100
AcDbDimStyleTableRecord
  2
STANDARD
 70
     0
  3

  4

  5

  6

  7

 40
1.0
 41
0.18
 42
0.0625
 43
0.38
 44
0.18
 45
0.0
 46
0.0
 47
0.0
 48
0.0
140
0.18
141
0.09
142
0.0
143
25.4
144
1.0
145
0.0
146
1.0
147
0.09
 71
     0
 72
     0
 73
     1
 74
     1
 75
     0
 76
     0
 77
     0
 78
     0
170
     0
171
     2
172
     0
173
     0
174
     0
175
     0
176
     0
177
     0
178
     0
270
     2
271
     4
272
     4
273
     2
274
     2
340
11
275
     0
280
     0
281
     0
282
     0
283
     1
284
     0
285
     0
286
     0
287
     3
288
     0
  0
DIMSTYLE
105
6E
330
A
100
AcDbSymbolTableRecord
100
AcDbDimStyleTableRecord
  2
EDDIMINFO
 70
     0
  3

  4

  5

  6
EDTIP_ARROW_S
  7
EDTIP_ARROW_E
 40
1.0
 41
3.0
 42
1.0
 43
10.0
 44
1.0
 45
0.0
 46
5.0
 47
0.0
 48
0.0
140
4.0
141
2.5
142
0.0
143
0.03937
144
1.0
145
0.0
146
1.0
147
1.0
 71
     0
 72
     0
 73
     0
 74
     0
 75
     0
 76
     0
 77
     1
 78
     8
170
     0
171
     3
172
     1
173
     1
174
     0
175
     0
176
     7
177
     7
178
     7
179
     2
270
     2
271
     2
272
     2
273
     2
274
     3
340
3D
275
     0
280
     0
281
     0
282
     0
283
     0
284
     8
285
     0
286
     0
287
     3
288
     0
  0
ENDTAB
  0
TABLE
  2
BLOCK_RECORD
  5
1
330
0
100
AcDbSymbolTable
 70
    50
  0
BLOCK_RECORD
  5
1F
330
1
100
AcDbSymbolTableRecord
100
AcDbBlockTableRecord
  2
*MODEL_SPACE
  0
BLOCK_RECORD
  5
1B
330
1
100
AcDbSymbolTableRecord
100
AcDbBlockTableRecord
  2
*PAPER_SPACE
  0
BLOCK_RECORD
  5
3E
330
1
100
AcDbSymbolTableRecord
100
AcDbBlockTableRecord
  2
EDTIP_ARROW_S
  0
BLOCK_RECORD
  5
44
330
1
100
AcDbSymbolTableRecord
100
AcDbBlockTableRecord
  2
EDTIP_ARROW_E
  0
BLOCK_RECORD
  5
4A
330
1
100
AcDbSymbolTableRecord
100
AcDbBlockTableRecord
  2
EDTIP_BLACKDOT_S
  0
BLOCK_RECORD
  5
50
330
1
100
AcDbSymbolTableRecord
100
AcDbBlockTableRecord
  2
EDTIP_BLACKDOT_E
  0
BLOCK_RECORD
  5
56
330
1
100
AcDbSymbolTableRecord
100
AcDbBlockTableRecord
  2
EDTIP_ARCHITECT_S
  0
BLOCK_RECORD
  5
5C
330
1
100
AcDbSymbolTableRecord
100
AcDbBlockTableRecord
  2
EDTIP_ARCHITECT_E
  0
BLOCK_RECORD
  5
62
330
1
100
AcDbSymbolTableRecord
100
AcDbBlockTableRecord
  2
EDTIP_CIVIL_S
  0
BLOCK_RECORD
  5
68
330
1
100
AcDbSymbolTableRecord
100
AcDbBlockTableRecord
  2
EDTIP_CIVIL_E
  0
BLOCK_RECORD
  5
C9
330
1
100
AcDbSymbolTableRecord
100
AcDbBlockTableRecord
  2
BLKF011
  0
BLOCK_RECORD
  5
D1
330
1
100
AcDbSymbolTableRecord
100
AcDbBlockTableRecord
  2
BLKF012
  0
BLOCK_RECORD
  5
DC
330
1
100
AcDbSymbolTableRecord
100
AcDbBlockTableRecord
  2
BLKF013
  0
BLOCK_RECORD
  5
E5
330
1
100
AcDbSymbolTableRecord
100
AcDbBlockTableRecord
  2
BLKF014
  0
BLOCK_RECORD
  5
124
330
1
100
AcDbSymbolTableRecord
100
AcDbBlockTableRecord
  2
BLKF015
  0
BLOCK_RECORD
  5
157
330
1
100
AcDbSymbolTableRecord
100
AcDbBlockTableRecord
  2
BLKF016
  0
BLOCK_RECORD
  5
295
330
1
100
AcDbSymbolTableRecord
100
AcDbBlockTableRecord
  2
BLKF017
  0
BLOCK_RECORD
  5
2A9
330
1
100
AcDbSymbolTableRecord
100
AcDbBlockTableRecord
  2
BLKF018
  0
BLOCK_RECORD
  5
2BC
330
1
100
AcDbSymbolTableRecord
100
AcDbBlockTableRecord
  2
BLKF019
  0
BLOCK_RECORD
  5
35A
330
1
100
AcDbSymbolTableRecord
100
AcDbBlockTableRecord
  2
BLKF020
  0
BLOCK_RECORD
  5
368
330
1
100
AcDbSymbolTableRecord
100
AcDbBlockTableRecord
  2
BLKF021
  0
BLOCK_RECORD
  5
3D8
330
1
100
AcDbSymbolTableRecord
100
AcDbBlockTableRecord
  2
BLKF022
  0
BLOCK_RECORD
  5
3EB
330
1
100
AcDbSymbolTableRecord
100
AcDbBlockTableRecord
  2
BLKF023
  0
BLOCK_RECORD
  5
489
330
1
100
AcDbSymbolTableRecord
100
AcDbBlockTableRecord
  2
BLKF024
  0
BLOCK_RECORD
  5
497
330
1
100
AcDbSymbolTableRecord
100
AcDbBlockTableRecord
  2
BLKF025
  0
BLOCK_RECORD
  5
50C
330
1
100
AcDbSymbolTableRecord
100
AcDbBlockTableRecord
  2
BLKF026
  0
BLOCK_RECORD
  5
51A
330
1
100
AcDbSymbolTableRecord
100
AcDbBlockTableRecord
  2
BLKF027
  0
BLOCK_RECORD
  5
528
330
1
100
AcDbSymbolTableRecord
100
AcDbBlockTableRecord
  2
BLKF028
  0
BLOCK_RECORD
  5
536
330
1
100
AcDbSymbolTableRecord
100
AcDbBlockTableRecord
  2
BLKF029
  0
BLOCK_RECORD
  5
544
330
1
100
AcDbSymbolTableRecord
100
AcDbBlockTableRecord
  2
BLKF030
  0
BLOCK_RECORD
  5
552
330
1
100
AcDbSymbolTableRecord
100
AcDbBlockTableRecord
  2
BLKF031
  0
BLOCK_RECORD
  5
562
330
1
100
AcDbSymbolTableRecord
100
AcDbBlockTableRecord
  2
BLKF032
  0
BLOCK_RECORD
  5
576
330
1
100
AcDbSymbolTableRecord
100
AcDbBlockTableRecord
  2
BLKF033
  0
BLOCK_RECORD
  5
587
330
1
100
AcDbSymbolTableRecord
100
AcDbBlockTableRecord
  2
BLKF034
  0
BLOCK_RECORD
  5
59B
330
1
100
AcDbSymbolTableRecord
100
AcDbBlockTableRecord
  2
BLKF035
  0
BLOCK_RECORD
  5
5AB
330
1
100
AcDbSymbolTableRecord
100
AcDbBlockTableRecord
  2
BLKF036
  0
BLOCK_RECORD
  5
5DB
330
1
100
AcDbSymbolTableRecord
100
AcDbBlockTableRecord
  2
BLKF037
  0
BLOCK_RECORD
  5
5ED
330
1
100
AcDbSymbolTableRecord
100
AcDbBlockTableRecord
  2
BLKF038
  0
BLOCK_RECORD
  5
5FF
330
1
100
AcDbSymbolTableRecord
100
AcDbBlockTableRecord
  2
BLKF039
  0
BLOCK_RECORD
  5
614
330
1
100
AcDbSymbolTableRecord
100
AcDbBlockTableRecord
  2
BLKF040
  0
BLOCK_RECORD
  5
623
330
1
100
AcDbSymbolTableRecord
100
AcDbBlockTableRecord
  2
BLKF041
  0
BLOCK_RECORD
  5
632
330
1
100
AcDbSymbolTableRecord
100
AcDbBlockTableRecord
  2
BLKF042
  0
BLOCK_RECORD
  5
640
330
1
100
AcDbSymbolTableRecord
100
AcDbBlockTableRecord
  2
BLKF043
  0
BLOCK_RECORD
  5
64E
330
1
100
AcDbSymbolTableRecord
100
AcDbBlockTableRecord
  2
BLKF044
  0
BLOCK_RECORD
  5
65C
330
1
100
AcDbSymbolTableRecord
100
AcDbBlockTableRecord
  2
BLKF045
  0
BLOCK_RECORD
  5
668
330
1
100
AcDbSymbolTableRecord
100
AcDbBlockTableRecord
  2
BLKF046
  0
BLOCK_RECORD
  5
670
330
1
100
AcDbSymbolTableRecord
100
AcDbBlockTableRecord
  2
BLKF047
  0
BLOCK_RECORD
  5
67C
330
1
100
AcDbSymbolTableRecord
100
AcDbBlockTableRecord
  2
BLKF048
  0
BLOCK_RECORD
  5
688
330
1
100
AcDbSymbolTableRecord
100
AcDbBlockTableRecord
  2
BLKF049
  0
BLOCK_RECORD
  5
694
330
1
100
AcDbSymbolTableRecord
100
AcDbBlockTableRecord
  2
BLKF050
  0
BLOCK_RECORD
  5
6A0
330
1
100
AcDbSymbolTableRecord
100
AcDbBlockTableRecord
  2
BLKF051
  0
ENDTAB
  0
ENDSEC
  0
SECTION
  2
BLOCKS
  0
BLOCK
  5
20
330
1F
100
AcDbEntity
  8
0
100
AcDbBlockBegin
  2
*MODEL_SPACE
 70
     0
 71
     0
 10
0.0
 20
0.0
 30
0.0
  3
*MODEL_SPACE
  1

  0
ENDBLK
  5
21
330
1F
100
AcDbEntity
  8
0
100
AcDbBlockEnd
  0
BLOCK
  5
1C
330
1B
100
AcDbEntity
 67
     1
  8
0
100
AcDbBlockBegin
  2
*PAPER_SPACE
 70
     0
 71
     0
 10
0.0
 20
0.0
 30
0.0
  3
*PAPER_SPACE
  1

  0
ENDBLK
  5
1D
330
1B
100
AcDbEntity
 67
     1
  8
0
100
AcDbBlockEnd
  0
BLOCK
  5
3F
330
3E
100
AcDbEntity
  8
0
100
AcDbBlockBegin
  2
EDTIP_ARROW_S
 70
     0
 71
     0
 10
0.0
 20
0.0
 30
0.0
  3
EDTIP_ARROW_S
  1

  0
LINE
  5
41
330
3E
100
AcDbEntity
  8
0
  6
CONTINUOUS
 62
     0
100
AcDbLine
 10
0.0
 20
0.0
 30
0.0
 11
-1.0
 21
0.0
 31
0.0
  0
LINE
  5
42
330
3E
100
AcDbEntity
  8
0
  6
CONTINUOUS
 62
     0
100
AcDbLine
 10
0.0
 20
0.0
 30
0.0
 11
-0.965926
 21
0.258819
 31
0.0
  0
LINE
  5
43
330
3E
100
AcDbEntity
  8
0
  6
CONTINUOUS
 62
     0
100
AcDbLine
 10
0.0
 20
0.0
 30
0.0
 11
-0.965926
 21
-0.258819
 31
0.0
  0
ENDBLK
  5
40
330
3E
100
AcDbEntity
  8
0
100
AcDbBlockEnd
  0
BLOCK
  5
45
330
44
100
AcDbEntity
  8
0
100
AcDbBlockBegin
  2
EDTIP_ARROW_E
 70
     0
 71
     0
 10
0.0
 20
0.0
 30
0.0
  3
EDTIP_ARROW_E
  1

  0
LINE
  5
47
330
44
100
AcDbEntity
  8
0
  6
CONTINUOUS
 62
     0
100
AcDbLine
 10
0.0
 20
0.0
 30
0.0
 11
-1.0
 21
0.0
 31
0.0
  0
LINE
  5
48
330
44
100
AcDbEntity
  8
0
  6
CONTINUOUS
 62
     0
100
AcDbLine
 10
0.0
 20
0.0
 30
0.0
 11
-0.965926
 21
-0.258819
 31
0.0
  0
LINE
  5
49
330
44
100
AcDbEntity
  8
0
  6
CONTINUOUS
 62
     0
100
AcDbLine
 10
0.0
 20
0.0
 30
0.0
 11
-0.965926
 21
0.258819
 31
0.0
  0
ENDBLK
  5
46
330
44
100
AcDbEntity
  8
0
100
AcDbBlockEnd
  0
BLOCK
  5
4B
330
4A
100
AcDbEntity
  8
0
100
AcDbBlockBegin
  2
EDTIP_BLACKDOT_S
 70
     0
 71
     0
 10
0.0
 20
0.0
 30
0.0
  3
EDTIP_BLACKDOT_S
  1

  0
LINE
  5
4D
330
4A
100
AcDbEntity
  8
0
  6
CONTINUOUS
 62
     0
100
AcDbLine
 10
0.0
 20
0.0
 30
0.0
 11
-1.0
 21
0.0
 31
0.0
  0
CIRCLE
  5
4E
330
4A
100
AcDbEntity
  8
0
  6
CONTINUOUS
 62
     0
100
AcDbCircle
 10
0.0
 20
0.0
 30
0.0
 40
0.5
  0
CIRCLE
  5
4F
330
4A
100
AcDbEntity
  8
0
  6
CONTINUOUS
 62
     0
100
AcDbCircle
 10
0.0
 20
0.0
 30
0.0
 40
0.25
  0
ENDBLK
  5
4C
330
4A
100
AcDbEntity
  8
0
100
AcDbBlockEnd
  0
BLOCK
  5
51
330
50
100
AcDbEntity
  8
0
100
AcDbBlockBegin
  2
EDTIP_BLACKDOT_E
 70
     0
 71
     0
 10
0.0
 20
0.0
 30
0.0
  3
EDTIP_BLACKDOT_E
  1

  0
LINE
  5
53
330
50
100
AcDbEntity
  8
0
  6
CONTINUOUS
 62
     0
100
AcDbLine
 10
0.0
 20
0.0
 30
0.0
 11
-1.0
 21
0.0
 31
0.0
  0
CIRCLE
  5
54
330
50
100
AcDbEntity
  8
0
  6
CONTINUOUS
 62
     0
100
AcDbCircle
 10
0.0
 20
0.0
 30
0.0
 40
0.5
  0
CIRCLE
  5
55
330
50
100
AcDbEntity
  8
0
  6
CONTINUOUS
 62
     0
100
AcDbCircle
 10
0.0
 20
0.0
 30
0.0
 40
0.25
  0
ENDBLK
  5
52
330
50
100
AcDbEntity
  8
0
100
AcDbBlockEnd
  0
BLOCK
  5
57
330
56
100
AcDbEntity
  8
0
100
AcDbBlockBegin
  2
EDTIP_ARCHITECT_S
 70
     0
 71
     0
 10
0.0
 20
0.0
 30
0.0
  3
EDTIP_ARCHITECT_S
  1

  0
LINE
  5
59
330
56
100
AcDbEntity
  8
0
  6
CONTINUOUS
 62
     0
100
AcDbLine
 10
0.0
 20
0.0
 30
0.0
 11
-1.0
 21
0.0
 31
0.0
  0
LINE
  5
5A
330
56
100
AcDbEntity
  8
0
  6
CONTINUOUS
 62
     0
100
AcDbLine
 10
0.0
 20
0.0
 30
0.0
 11
-0.707107
 21
-0.707107
 31
0.0
  0
LINE
  5
5B
330
56
100
AcDbEntity
  8
0
  6
CONTINUOUS
 62
     0
100
AcDbLine
 10
0.0
 20
0.0
 30
0.0
 11
0.707107
 21
0.707107
 31
0.0
  0
ENDBLK
  5
58
330
56
100
AcDbEntity
  8
0
100
AcDbBlockEnd
  0
BLOCK
  5
5D
330
5C
100
AcDbEntity
  8
0
100
AcDbBlockBegin
  2
EDTIP_ARCHITECT_E
 70
     0
 71
     0
 10
0.0
 20
0.0
 30
0.0
  3
EDTIP_ARCHITECT_E
  1

  0
LINE
  5
5F
330
5C
100
AcDbEntity
  8
0
  6
CONTINUOUS
 62
     0
100
AcDbLine
 10
0.0
 20
0.0
 30
0.0
 11
-1.0
 21
0.0
 31
0.0
  0
LINE
  5
60
330
5C
100
AcDbEntity
  8
0
  6
CONTINUOUS
 62
     0
100
AcDbLine
 10
0.0
 20
0.0
 30
0.0
 11
-0.707107
 21
-0.707107
 31
0.0
  0
LINE
  5
61
330
5C
100
AcDbEntity
  8
0
  6
CONTINUOUS
 62
     0
100
AcDbLine
 10
0.0
 20
0.0
 30
0.0
 11
0.707107
 21
0.707107
 31
0.0
  0
ENDBLK
  5
5E
330
5C
100
AcDbEntity
  8
0
100
AcDbBlockEnd
  0
BLOCK
  5
63
330
62
100
AcDbEntity
  8
0
100
AcDbBlockBegin
  2
EDTIP_CIVIL_S
 70
     0
 71
     0
 10
0.0
 20
0.0
 30
0.0
  3
EDTIP_CIVIL_S
  1

  0
LINE
  5
65
330
62
100
AcDbEntity
  8
0
  6
CONTINUOUS
 62
     0
100
AcDbLine
 10
0.0
 20
0.0
 30
0.0
 11
-1.0
 21
0.0
 31
0.0
  0
LINE
  5
66
330
62
100
AcDbEntity
  8
0
  6
CONTINUOUS
 62
     0
100
AcDbLine
 10
0.0
 20
-0.083333
 30
0.0
 11
-1.0
 21
-0.083333
 31
0.0
  0
LINE
  5
67
330
62
100
AcDbEntity
  8
0
  6
CONTINUOUS
 62
     0
100
AcDbLine
 10
0.0
 20
-0.166667
 30
0.0
 11
-1.0
 21
-0.166667
 31
0.0
  0
ENDBLK
  5
64
330
62
100
AcDbEntity
  8
0
100
AcDbBlockEnd
  0
BLOCK
  5
69
330
68
100
AcDbEntity
  8
0
100
AcDbBlockBegin
  2
EDTIP_CIVIL_E
 70
     0
 71
     0
 10
0.0
 20
0.0
 30
0.0
  3
EDTIP_CIVIL_E
  1

  0
LINE
  5
6B
330
68
100
AcDbEntity
  8
0
  6
CONTINUOUS
 62
     0
100
AcDbLine
 10
0.0
 20
0.0
 30
0.0
 11
-1.0
 21
0.0
 31
0.0
  0
LINE
  5
6C
330
68
100
AcDbEntity
  8
0
  6
CONTINUOUS
 62
     0
100
AcDbLine
 10
0.0
 20
0.083333
 30
0.0
 11
-1.0
 21
0.083333
 31
0.0
  0
LINE
  5
6D
330
68
100
AcDbEntity
  8
0
  6
CONTINUOUS
 62
     0
100
AcDbLine
 10
0.0
 20
0.166667
 30
0.0
 11
-1.0
 21
0.166667
 31
0.0
  0
ENDBLK
  5
6A
330
68
100
AcDbEntity
  8
0
100
AcDbBlockEnd
  0
BLOCK
  5
CA
330
C9
100
AcDbEntity
  8
0
100
AcDbBlockBegin
  2
BLKF011
 70
     0
 71
     0
 10
0.0
 20
0.0
 30
0.0
  3
BLKF011
  1

  0
LINE
  5
CD
330
C9
100
AcDbEntity
  8
0
  6
CONTINUOUS
 62
     7
100
AcDbLine
 10
171.362157
 20
77.342849
 30
0.0
 11
171.437124
 21
77.38019
 31
0.0
  0
LINE
  5
CE
330
C9
100
AcDbEntity
  8
0
  6
CONTINUOUS
 62
     7
100
AcDbLine
 10
171.437124
 20
77.38019
 30
0.0
 11
171.512112
 21
77.417447
 31
0.0
  0
LINE
  5
CF
330
C9
100
AcDbEntity
  8
0
  6
CONTINUOUS
 62
     7
100
AcDbLine
 10
171.512112
 20
77.417447
 30
0.0
 11
171.587121
 21
77.454621
 31
0.0
  0
LINE
  5
D0
330
C9
100
AcDbEntity
  8
0
  6
CONTINUOUS
 62
     7
100
AcDbLine
 10
171.587121
 20
77.454621
 30
0.0
 11
171.66215
 21
77.491712
 31
0.0
  0
ENDBLK
  5
CB
330
C9
100
AcDbEntity
  8
0
100
AcDbBlockEnd
  0
BLOCK
  5
D2
330
D1
100
AcDbEntity
  8
0
100
AcDbBlockBegin
  2
BLKF012
 70
     0
 71
     0
 10
0.0
 20
0.0
 30
0.0
  3
BLKF012
  1

  0
LINE
  5
D5
330
D1
100
AcDbEntity
  8
0
  6
CONTINUOUS
 62
     7
100
AcDbLine
 10
171.662157
 20
47.719077
 30
0.0
 11
171.587128
 21
47.756168
 31
0.0
  0
LINE
  5
D6
330
D1
100
AcDbEntity
  8
0
  6
CONTINUOUS
 62
     7
100
AcDbLine
 10
171.587128
 20
47.756168
 30
0.0
 11
171.512119
 21
47.793342
 31
0.0
  0
LINE
  5
D7
330
D1
100
AcDbEntity
  8
0
  6
CONTINUOUS
 62
     7
100
AcDbLine
 10
171.512119
 20
47.793342
 30
0.0
 11
171.437131
 21
47.8306
 31
0.0
  0
LINE
  5
D8
330
D1
100
AcDbEntity
  8
0
  6
CONTINUOUS
 62
     7
100
AcDbLine
 10
171.437131
 20
47.8306
 30
0.0
 11
171.362164
 21
47.867941
 31
0.0
  0
ENDBLK
  5
D3
330
D1
100
AcDbEntity
  8
0
100
AcDbBlockEnd
  0
BLOCK
  5
DD
330
DC
100
AcDbEntity
  8
0
100
AcDbBlockBegin
  2
BLKF013
 70
     0
 71
     0
 10
0.0
 20
0.0
 30
0.0
  3
BLKF013
  1

  0
LINE
  5
E0
330
DC
100
AcDbEntity
  8
0
  6
CONTINUOUS
 62
     7
100
AcDbLine
 10
181.362157
 20
47.867944
 30
0.0
 11
181.28719
 21
47.830603
 31
0.0
  0
LINE
  5
E1
330
DC
100
AcDbEntity
  8
0
  6
CONTINUOUS
 62
     7
100
AcDbLine
 10
181.28719
 20
47.830603
 30
0.0
 11
181.212202
 21
47.793346
 31
0.0
  0
LINE
  5
E2
330
DC
100
AcDbEntity
  8
0
  6
CONTINUOUS
 62
     7
100
AcDbLine
 10
181.212202
 20
47.793346
 30
0.0
 11
181.137193
 21
47.756172
 31
0.0
  0
LINE
  5
E3
330
DC
100
AcDbEntity
  8
0
  6
CONTINUOUS
 62
     7
100
AcDbLine
 10
181.137193
 20
47.756172
 30
0.0
 11
181.062164
 21
47.71908
 31
0.0
  0
ENDBLK
  5
DE
330
DC
100
AcDbEntity
  8
0
100
AcDbBlockEnd
  0
BLOCK
  5
E6
330
E5
100
AcDbEntity
  8
0
100
AcDbBlockBegin
  2
BLKF014
 70
     0
 71
     0
 10
0.0
 20
0.0
 30
0.0
  3
BLKF014
  1

  0
LINE
  5
E9
330
E5
100
AcDbEntity
  8
0
  6
CONTINUOUS
 62
     7
100
AcDbLine
 10
181.062157
 20
77.491716
 30
0.0
 11
181.137186
 21
77.454624
 31
0.0
  0
LINE
  5
EA
330
E5
100
AcDbEntity
  8
0
  6
CONTINUOUS
 62
     7
100
AcDbLine
 10
181.137186
 20
77.454624
 30
0.0
 11
181.212195
 21
77.41745
 31
0.0
  0
LINE
  5
EB
330
E5
100
AcDbEntity
  8
0
  6
CONTINUOUS
 62
     7
100
AcDbLine
 10
181.212195
 20
77.41745
 30
0.0
 11
181.287183
 21
77.380193
 31
0.0
  0
LINE
  5
EC
330
E5
100
AcDbEntity
  8
0
  6
CONTINUOUS
 62
     7
100
AcDbLine
 10
181.287183
 20
77.380193
 30
0.0
 11
181.36215
 21
77.342852
 31
0.0
  0
ENDBLK
  5
E7
330
E5
100
AcDbEntity
  8
0
100
AcDbBlockEnd
  0
BLOCK
  5
125
330
124
100
AcDbEntity
  8
0
100
AcDbBlockBegin
  2
BLKF015
 70
     0
 71
     0
 10
0.0
 20
0.0
 30
0.0
  3
BLKF015
  1

  0
LINE
  5
128
330
124
100
AcDbEntity
  8
0
  6
CONTINUOUS
 62
     7
100
AcDbLine
 10
223.712156
 20
72.017792
 30
0.0
 11
223.671422
 21
72.018004
 31
0.0
  0
LINE
  5
129
330
124
100
AcDbEntity
  8
0
  6
CONTINUOUS
 62
     7
100
AcDbLine
 10
223.671422
 20
72.018004
 30
0.0
 11
223.651087
 21
72.018127
 31
0.0
  0
LINE
  5
12A
330
124
100
AcDbEntity
  8
0
  6
CONTINUOUS
 62
     7
100
AcDbLine
 10
223.651087
 20
72.018127
 30
0.0
 11
223.630791
 21
72.018272
 31
0.0
  0
LINE
  5
12B
330
124
100
AcDbEntity
  8
0
  6
CONTINUOUS
 62
     7
100
AcDbLine
 10
223.630791
 20
72.018272
 30
0.0
 11
223.610547
 21
72.018445
 31
0.0
  0
LINE
  5
12C
330
124
100
AcDbEntity
  8
0
  6
CONTINUOUS
 62
     7
100
AcDbLine
 10
223.610547
 20
72.018445
 30
0.0
 11
223.590368
 21
72.018653
 31
0.0
  0
LINE
  5
12D
330
124
100
AcDbEntity
  8
0
  6
CONTINUOUS
 62
     7
100
AcDbLine
 10
223.590368
 20
72.018653
 30
0.0
 11
223.570266
 21
72.018904
 31
0.0
  0
LINE
  5
12E
330
124
100
AcDbEntity
  8
0
  6
CONTINUOUS
 62
     7
100
AcDbLine
 10
223.570266
 20
72.018904
 30
0.0
 11
223.550255
 21
72.019204
 31
0.0
  0
LINE
  5
12F
330
124
100
AcDbEntity
  8
0
  6
CONTINUOUS
 62
     7
100
AcDbLine
 10
223.550255
 20
72.019204
 30
0.0
 11
223.530844
 21
72.019549
 31
0.0
  0
LINE
  5
130
330
124
100
AcDbEntity
  8
0
  6
CONTINUOUS
 62
     7
100
AcDbLine
 10
223.530844
 20
72.019549
 30
0.0
 11
223.511545
 21
72.019946
 31
0.0
  0
LINE
  5
131
330
124
100
AcDbEntity
  8
0
  6
CONTINUOUS
 62
     7
100
AcDbLine
 10
223.511545
 20
72.019946
 30
0.0
 11
223.492373
 21
72.02039
 31
0.0
  0
LINE
  5
132
330
124
100
AcDbEntity
  8
0
  6
CONTINUOUS
 62
     7
100
AcDbLine
 10
223.492373
 20
72.02039
 30
0.0
 11
223.473342
 21
72.02088
 31
0.0
  0
LINE
  5
133
330
124
100
AcDbEntity
  8
0
  6
CONTINUOUS
 62
     7
100
AcDbLine
 10
223.473342
 20
72.02088
 30
0.0
 11
223.454466
 21
72.021413
 31
0.0
  0
LINE
  5
134
330
124
100
AcDbEntity
  8
0
  6
CONTINUOUS
 62
     7
100
AcDbLine
 10
223.454466
 20
72.021413
 30
0.0
 11
223.43576
 21
72.021986
 31
0.0
  0
LINE
  5
135
330
124
100
AcDbEntity
  8
0
  6
CONTINUOUS
 62
     7
100
AcDbLine
 10
223.43576
 20
72.021986
 30
0.0
 11
223.417237
 21
72.022595
 31
0.0
  0
LINE
  5
136
330
124
100
AcDbEntity
  8
0
  6
CONTINUOUS
 62
     7
100
AcDbLine
 10
223.417237
 20
72.022595
 30
0.0
 11
223.398912
 21
72.023239
 31
0.0
  0
LINE
  5
137
330
124
100
AcDbEntity
  8
0
  6
CONTINUOUS
 62
     7
100
AcDbLine
 10
223.398912
 20
72.023239
 30
0.0
 11
223.380032
 21
72.023945
 31
0.0
  0
LINE
  5
138
330
124
100
AcDbEntity
  8
0
  6
CONTINUOUS
 62
     7
100
AcDbLine
 10
223.380032
 20
72.023945
 30
0.0
 11
223.361387
 21
72.024682
 31
0.0
  0
LINE
  5
139
330
124
100
AcDbEntity
  8
0
  6
CONTINUOUS
 62
     7
100
AcDbLine
 10
223.361387
 20
72.024682
 30
0.0
 11
223.342983
 21
72.025448
 31
0.0
  0
LINE
  5
13A
330
124
100
AcDbEntity
  8
0
  6
CONTINUOUS
 62
     7
100
AcDbLine
 10
223.342983
 20
72.025448
 30
0.0
 11
223.324824
 21
72.026241
 31
0.0
  0
LINE
  5
13B
330
124
100
AcDbEntity
  8
0
  6
CONTINUOUS
 62
     7
100
AcDbLine
 10
223.324824
 20
72.026241
 30
0.0
 11
223.306915
 21
72.027059
 31
0.0
  0
LINE
  5
13C
330
124
100
AcDbEntity
  8
0
  6
CONTINUOUS
 62
     7
100
AcDbLine
 10
223.306915
 20
72.027059
 30
0.0
 11
223.289263
 21
72.027899
 31
0.0
  0
LINE
  5
13D
330
124
100
AcDbEntity
  8
0
  6
CONTINUOUS
 62
     7
100
AcDbLine
 10
223.289263
 20
72.027899
 30
0.0
 11
223.271871
 21
72.028758
 31
0.0
  0
LINE
  5
13E
330
124
100
AcDbEntity
  8
0
  6
CONTINUOUS
 62
     7
100
AcDbLine
 10
223.271871
 20
72.028758
 30
0.0
 11
223.254744
 21
72.029635
 31
0.0
  0
LINE
  5
13F
330
124
100
AcDbEntity
  8
0
  6
CONTINUOUS
 62
     7
100
AcDbLine
 10
223.254744
 20
72.029635
 30
0.0
 11
223.237889
 21
72.030526
 31
0.0
  0
LINE
  5
140
330
124
100
AcDbEntity
  8
0
  6
CONTINUOUS
 62
     7
100
AcDbLine
 10
223.237889
 20
72.030526
 30
0.0
 11
223.22131
 21
72.03143
 31
0.0
  0
LINE
  5
141
330
124
100
AcDbEntity
  8
0
  6
CONTINUOUS
 62
     7
100
AcDbLine
 10
223.22131
 20
72.03143
 30
0.0
 11
223.205011
 21
72.032343
 31
0.0
  0
LINE
  5
142
330
124
100
AcDbEntity
  8
0
  6
CONTINUOUS
 62
     7
100
AcDbLine
 10
223.205011
 20
72.032343
 30
0.0
 11
223.188999
 21
72.033264
 31
0.0
  0
LINE
  5
143
330
124
100
AcDbEntity
  8
0
  6
CONTINUOUS
 62
     7
100
AcDbLine
 10
223.188999
 20
72.033264
 30
0.0
 11
223.173277
 21
72.034189
 31
0.0
  0
LINE
  5
144
330
124
100
AcDbEntity
  8
0
  6
CONTINUOUS
 62
     7
100
AcDbLine
 10
223.173277
 20
72.034189
 30
0.0
 11
223.157852
 21
72.035117
 31
0.0
  0
LINE
  5
145
330
124
100
AcDbEntity
  8
0
  6
CONTINUOUS
 62
     7
100
AcDbLine
 10
223.157852
 20
72.035117
 30
0.0
 11
223.142729
 21
72.036045
 31
0.0
  0
LINE
  5
146
330
124
100
AcDbEntity
  8
0
  6
CONTINUOUS
 62
     7
100
AcDbLine
 10
223.142729
 20
72.036045
 30
0.0
 11
223.127912
 21
72.03697
 31
0.0
  0
LINE
  5
147
330
124
100
AcDbEntity
  8
0
  6
CONTINUOUS
 62
     7
100
AcDbLine
 10
223.127912
 20
72.03697
 30
0.0
 11
223.113366
 21
72.037893
 31
0.0
  0
LINE
  5
148
330
124
100
AcDbEntity
  8
0
  6
CONTINUOUS
 62
     7
100
AcDbLine
 10
223.113366
 20
72.037893
 30
0.0
 11
223.099145
 21
72.03881
 31
0.0
  0
LINE
  5
149
330
124
100
AcDbEntity
  8
0
  6
CONTINUOUS
 62
     7
100
AcDbLine
 10
223.099145
 20
72.03881
 30
0.0
 11
223.08526
 21
72.039718
 31
0.0
  0
LINE
  5
14A
330
124
100
AcDbEntity
  8
0
  6
CONTINUOUS
 62
     7
100
AcDbLine
 10
223.08526
 20
72.039718
 30
0.0
 11
223.071724
 21
72.040617
 31
0.0
  0
LINE
  5
14B
330
124
100
AcDbEntity
  8
0
  6
CONTINUOUS
 62
     7
100
AcDbLine
 10
223.071724
 20
72.040617
 30
0.0
 11
223.045741
 21
72.04238
 31
0.0
  0
LINE
  5
14C
330
124
100
AcDbEntity
  8
0
  6
CONTINUOUS
 62
     7
100
AcDbLine
 10
223.045741
 20
72.04238
 30
0.0
 11
223.021291
 21
72.044086
 31
0.0
  0
LINE
  5
14D
330
124
100
AcDbEntity
  8
0
  6
CONTINUOUS
 62
     7
100
AcDbLine
 10
223.021291
 20
72.044086
 30
0.0
 11
222.998465
 21
72.045723
 31
0.0
  0
LINE
  5
14E
330
124
100
AcDbEntity
  8
0
  6
CONTINUOUS
 62
     7
100
AcDbLine
 10
222.998465
 20
72.045723
 30
0.0
 11
222.977357
 21
72.047279
 31
0.0
  0
LINE
  5
14F
330
124
100
AcDbEntity
  8
0
  6
CONTINUOUS
 62
     7
100
AcDbLine
 10
222.977357
 20
72.047279
 30
0.0
 11
222.958059
 21
72.048742
 31
0.0
  0
LINE
  5
150
330
124
100
AcDbEntity
  8
0
  6
CONTINUOUS
 62
     7
100
AcDbLine
 10
222.958059
 20
72.048742
 30
0.0
 11
222.940664
 21
72.050099
 31
0.0
  0
LINE
  5
151
330
124
100
AcDbEntity
  8
0
  6
CONTINUOUS
 62
     7
100
AcDbLine
 10
222.940664
 20
72.050099
 30
0.0
 11
222.925788
 21
72.051294
 31
0.0
  0
LINE
  5
152
330
124
100
AcDbEntity
  8
0
  6
CONTINUOUS
 62
     7
100
AcDbLine
 10
222.925788
 20
72.051294
 30
0.0
 11
222.912921
 21
72.052355
 31
0.0
  0
LINE
  5
153
330
124
100
AcDbEntity
  8
0
  6
CONTINUOUS
 62
     7
100
AcDbLine
 10
222.912921
 20
72.052355
 30
0.0
 11
222.893829
 21
72.053982
 31
0.0
  0
LINE
  5
154
330
124
100
AcDbEntity
  8
0
  6
CONTINUOUS
 62
     7
100
AcDbLine
 10
222.893829
 20
72.053982
 30
0.0
 11
222.883423
 21
72.054905
 31
0.0
  0
LINE
  5
155
330
124
100
AcDbEntity
  8
0
  6
CONTINUOUS
 62
     7
100
AcDbLine
 10
222.883423
 20
72.054905
 30
0.0
 11
222.87822
 21
72.055395
 31
0.0
  0
ENDBLK
  5
126
330
124
100
AcDbEntity
  8
0
100
AcDbBlockEnd
  0
BLOCK
  5
158
330
157
100
AcDbEntity
  8
0
100
AcDbBlockBegin
  2
BLKF016
 70
     0
 71
     0
 10
0.0
 20
0.0
 30
0.0
  3
BLKF016
  1

  0
LINE
  5
15B
330
157
100
AcDbEntity
  8
0
  6
CONTINUOUS
 62
     7
100
AcDbLine
 10
224.54607
 20
72.055392
 30
0.0
 11
224.546115
 21
72.055396
 31
0.0
  0
LINE
  5
15C
330
157
100
AcDbEntity
  8
0
  6
CONTINUOUS
 62
     7
100
AcDbLine
 10
224.546115
 20
72.055396
 30
0.0
 11
224.54703
 21
72.055472
 31
0.0
  0
LINE
  5
15D
330
157
100
AcDbEntity
  8
0
  6
CONTINUOUS
 62
     7
100
AcDbLine
 10
224.54703
 20
72.055472
 30
0.0
 11
224.54761
 21
72.055518
 31
0.0
  0
LINE
  5
15E
330
157
100
AcDbEntity
  8
0
  6
CONTINUOUS
 62
     7
100
AcDbLine
 10
224.54761
 20
72.055518
 30
0.0
 11
224.547873
 21
72.055536
 31
0.0
  0
LINE
  5
15F
330
157
100
AcDbEntity
  8
0
  6
CONTINUOUS
 62
     7
100
AcDbLine
 10
224.547873
 20
72.055536
 30
0.0
 11
224.547837
 21
72.055528
 31
0.0
  0
LINE
  5
160
330
157
100
AcDbEntity
  8
0
  6
CONTINUOUS
 62
     7
100
AcDbLine
 10
224.547837
 20
72.055528
 30
0.0
 11
224.547519
 21
72.055495
 31
0.0
  0
LINE
  5
161
330
157
100
AcDbEntity
  8
0
  6
CONTINUOUS
 62
     7
100
AcDbLine
 10
224.547519
 20
72.055495
 30
0.0
 11
224.546937
 21
72.05544
 31
0.0
  0
LINE
  5
162
330
157
100
AcDbEntity
  8
0
  6
CONTINUOUS
 62
     7
100
AcDbLine
 10
224.546937
 20
72.05544
 30
0.0
 11
224.546108
 21
72.055363
 31
0.0
  0
LINE
  5
163
330
157
100
AcDbEntity
  8
0
  6
CONTINUOUS
 62
     7
100
AcDbLine
 10
224.546108
 20
72.055363
 30
0.0
 11
224.545052
 21
72.055267
 31
0.0
  0
LINE
  5
164
330
157
100
AcDbEntity
  8
0
  6
CONTINUOUS
 62
     7
100
AcDbLine
 10
224.545052
 20
72.055267
 30
0.0
 11
224.543784
 21
72.055152
 31
0.0
  0
LINE
  5
165
330
157
100
AcDbEntity
  8
0
  6
CONTINUOUS
 62
     7
100
AcDbLine
 10
224.543784
 20
72.055152
 30
0.0
 11
224.542323
 21
72.055021
 31
0.0
  0
LINE
  5
166
330
157
100
AcDbEntity
  8
0
  6
CONTINUOUS
 62
     7
100
AcDbLine
 10
224.542323
 20
72.055021
 30
0.0
 11
224.540686
 21
72.054875
 31
0.0
  0
LINE
  5
167
330
157
100
AcDbEntity
  8
0
  6
CONTINUOUS
 62
     7
100
AcDbLine
 10
224.540686
 20
72.054875
 30
0.0
 11
224.538892
 21
72.054715
 31
0.0
  0
LINE
  5
168
330
157
100
AcDbEntity
  8
0
  6
CONTINUOUS
 62
     7
100
AcDbLine
 10
224.538892
 20
72.054715
 30
0.0
 11
224.536958
 21
72.054544
 31
0.0
  0
LINE
  5
169
330
157
100
AcDbEntity
  8
0
  6
CONTINUOUS
 62
     7
100
AcDbLine
 10
224.536958
 20
72.054544
 30
0.0
 11
224.534901
 21
72.054363
 31
0.0
  0
LINE
  5
16A
330
157
100
AcDbEntity
  8
0
  6
CONTINUOUS
 62
     7
100
AcDbLine
 10
224.534901
 20
72.054363
 30
0.0
 11
224.532739
 21
72.054173
 31
0.0
  0
LINE
  5
16B
330
157
100
AcDbEntity
  8
0
  6
CONTINUOUS
 62
     7
100
AcDbLine
 10
224.532739
 20
72.054173
 30
0.0
 11
224.530491
 21
72.053977
 31
0.0
  0
LINE
  5
16C
330
157
100
AcDbEntity
  8
0
  6
CONTINUOUS
 62
     7
100
AcDbLine
 10
224.530491
 20
72.053977
 30
0.0
 11
224.528231
 21
72.05378
 31
0.0
  0
LINE
  5
16D
330
157
100
AcDbEntity
  8
0
  6
CONTINUOUS
 62
     7
100
AcDbLine
 10
224.528231
 20
72.05378
 30
0.0
 11
224.525901
 21
72.053578
 31
0.0
  0
LINE
  5
16E
330
157
100
AcDbEntity
  8
0
  6
CONTINUOUS
 62
     7
100
AcDbLine
 10
224.525901
 20
72.053578
 30
0.0
 11
224.523497
 21
72.053371
 31
0.0
  0
LINE
  5
16F
330
157
100
AcDbEntity
  8
0
  6
CONTINUOUS
 62
     7
100
AcDbLine
 10
224.523497
 20
72.053371
 30
0.0
 11
224.521015
 21
72.053158
 31
0.0
  0
LINE
  5
170
330
157
100
AcDbEntity
  8
0
  6
CONTINUOUS
 62
     7
100
AcDbLine
 10
224.521015
 20
72.053158
 30
0.0
 11
224.51845
 21
72.052939
 31
0.0
  0
LINE
  5
171
330
157
100
AcDbEntity
  8
0
  6
CONTINUOUS
 62
     7
100
AcDbLine
 10
224.51845
 20
72.052939
 30
0.0
 11
224.5158
 21
72.052714
 31
0.0
  0
LINE
  5
172
330
157
100
AcDbEntity
  8
0
  6
CONTINUOUS
 62
     7
100
AcDbLine
 10
224.5158
 20
72.052714
 30
0.0
 11
224.513059
 21
72.052484
 31
0.0
  0
LINE
  5
173
330
157
100
AcDbEntity
  8
0
  6
CONTINUOUS
 62
     7
100
AcDbLine
 10
224.513059
 20
72.052484
 30
0.0
 11
224.510223
 21
72.052246
 31
0.0
  0
LINE
  5
174
330
157
100
AcDbEntity
  8
0
  6
CONTINUOUS
 62
     7
100
AcDbLine
 10
224.510223
 20
72.052246
 30
0.0
 11
224.507289
 21
72.052002
 31
0.0
  0
LINE
  5
175
330
157
100
AcDbEntity
  8
0
  6
CONTINUOUS
 62
     7
100
AcDbLine
 10
224.507289
 20
72.052002
 30
0.0
 11
224.504252
 21
72.051751
 31
0.0
  0
LINE
  5
176
330
157
100
AcDbEntity
  8
0
  6
CONTINUOUS
 62
     7
100
AcDbLine
 10
224.504252
 20
72.051751
 30
0.0
 11
224.501108
 21
72.051494
 31
0.0
  0
LINE
  5
177
330
157
100
AcDbEntity
  8
0
  6
CONTINUOUS
 62
     7
100
AcDbLine
 10
224.501108
 20
72.051494
 30
0.0
 11
224.497853
 21
72.051229
 31
0.0
  0
LINE
  5
178
330
157
100
AcDbEntity
  8
0
  6
CONTINUOUS
 62
     7
100
AcDbLine
 10
224.497853
 20
72.051229
 30
0.0
 11
224.494483
 21
72.050956
 31
0.0
  0
LINE
  5
179
330
157
100
AcDbEntity
  8
0
  6
CONTINUOUS
 62
     7
100
AcDbLine
 10
224.494483
 20
72.050956
 30
0.0
 11
224.490994
 21
72.050676
 31
0.0
  0
LINE
  5
17A
330
157
100
AcDbEntity
  8
0
  6
CONTINUOUS
 62
     7
100
AcDbLine
 10
224.490994
 20
72.050676
 30
0.0
 11
224.489203
 21
72.050533
 31
0.0
  0
LINE
  5
17B
330
157
100
AcDbEntity
  8
0
  6
CONTINUOUS
 62
     7
100
AcDbLine
 10
224.489203
 20
72.050533
 30
0.0
 11
224.487382
 21
72.050388
 31
0.0
  0
LINE
  5
17C
330
157
100
AcDbEntity
  8
0
  6
CONTINUOUS
 62
     7
100
AcDbLine
 10
224.487382
 20
72.050388
 30
0.0
 11
224.485528
 21
72.050241
 31
0.0
  0
LINE
  5
17D
330
157
100
AcDbEntity
  8
0
  6
CONTINUOUS
 62
     7
100
AcDbLine
 10
224.485528
 20
72.050241
 30
0.0
 11
224.483642
 21
72.050092
 31
0.0
  0
LINE
  5
17E
330
157
100
AcDbEntity
  8
0
  6
CONTINUOUS
 62
     7
100
AcDbLine
 10
224.483642
 20
72.050092
 30
0.0
 11
224.481649
 21
72.049935
 31
0.0
  0
LINE
  5
17F
330
157
100
AcDbEntity
  8
0
  6
CONTINUOUS
 62
     7
100
AcDbLine
 10
224.481649
 20
72.049935
 30
0.0
 11
224.47962
 21
72.049776
 31
0.0
  0
LINE
  5
180
330
157
100
AcDbEntity
  8
0
  6
CONTINUOUS
 62
     7
100
AcDbLine
 10
224.47962
 20
72.049776
 30
0.0
 11
224.477557
 21
72.049615
 31
0.0
  0
LINE
  5
181
330
157
100
AcDbEntity
  8
0
  6
CONTINUOUS
 62
     7
100
AcDbLine
 10
224.477557
 20
72.049615
 30
0.0
 11
224.475459
 21
72.049452
 31
0.0
  0
LINE
  5
182
330
157
100
AcDbEntity
  8
0
  6
CONTINUOUS
 62
     7
100
AcDbLine
 10
224.475459
 20
72.049452
 30
0.0
 11
224.473327
 21
72.049286
 31
0.0
  0
LINE
  5
183
330
157
100
AcDbEntity
  8
0
  6
CONTINUOUS
 62
     7
100
AcDbLine
 10
224.473327
 20
72.049286
 30
0.0
 11
224.471161
 21
72.049119
 31
0.0
  0
LINE
  5
184
330
157
100
AcDbEntity
  8
0
  6
CONTINUOUS
 62
     7
100
AcDbLine
 10
224.471161
 20
72.049119
 30
0.0
 11
224.468961
 21
72.048949
 31
0.0
  0
LINE
  5
185
330
157
100
AcDbEntity
  8
0
  6
CONTINUOUS
 62
     7
100
AcDbLine
 10
224.468961
 20
72.048949
 30
0.0
 11
224.466727
 21
72.048778
 31
0.0
  0
LINE
  5
186
330
157
100
AcDbEntity
  8
0
  6
CONTINUOUS
 62
     7
100
AcDbLine
 10
224.466727
 20
72.048778
 30
0.0
 11
224.46446
 21
72.048604
 31
0.0
  0
LINE
  5
187
330
157
100
AcDbEntity
  8
0
  6
CONTINUOUS
 62
     7
100
AcDbLine
 10
224.46446
 20
72.048604
 30
0.0
 11
224.462159
 21
72.048429
 31
0.0
  0
LINE
  5
188
330
157
100
AcDbEntity
  8
0
  6
CONTINUOUS
 62
     7
100
AcDbLine
 10
224.462159
 20
72.048429
 30
0.0
 11
224.459827
 21
72.048251
 31
0.0
  0
LINE
  5
189
330
157
100
AcDbEntity
  8
0
  6
CONTINUOUS
 62
     7
100
AcDbLine
 10
224.459827
 20
72.048251
 30
0.0
 11
224.457461
 21
72.048072
 31
0.0
  0
LINE
  5
18A
330
157
100
AcDbEntity
  8
0
  6
CONTINUOUS
 62
     7
100
AcDbLine
 10
224.457461
 20
72.048072
 30
0.0
 11
224.455063
 21
72.047891
 31
0.0
  0
LINE
  5
18B
330
157
100
AcDbEntity
  8
0
  6
CONTINUOUS
 62
     7
100
AcDbLine
 10
224.455063
 20
72.047891
 30
0.0
 11
224.452634
 21
72.047708
 31
0.0
  0
LINE
  5
18C
330
157
100
AcDbEntity
  8
0
  6
CONTINUOUS
 62
     7
100
AcDbLine
 10
224.452634
 20
72.047708
 30
0.0
 11
224.450172
 21
72.047523
 31
0.0
  0
LINE
  5
18D
330
157
100
AcDbEntity
  8
0
  6
CONTINUOUS
 62
     7
100
AcDbLine
 10
224.450172
 20
72.047523
 30
0.0
 11
224.447679
 21
72.047337
 31
0.0
  0
LINE
  5
18E
330
157
100
AcDbEntity
  8
0
  6
CONTINUOUS
 62
     7
100
AcDbLine
 10
224.447679
 20
72.047337
 30
0.0
 11
224.445155
 21
72.047149
 31
0.0
  0
LINE
  5
18F
330
157
100
AcDbEntity
  8
0
  6
CONTINUOUS
 62
     7
100
AcDbLine
 10
224.445155
 20
72.047149
 30
0.0
 11
224.4426
 21
72.046959
 31
0.0
  0
LINE
  5
190
330
157
100
AcDbEntity
  8
0
  6
CONTINUOUS
 62
     7
100
AcDbLine
 10
224.4426
 20
72.046959
 30
0.0
 11
224.440015
 21
72.046768
 31
0.0
  0
LINE
  5
191
330
157
100
AcDbEntity
  8
0
  6
CONTINUOUS
 62
     7
100
AcDbLine
 10
224.440015
 20
72.046768
 30
0.0
 11
224.437398
 21
72.046574
 31
0.0
  0
LINE
  5
192
330
157
100
AcDbEntity
  8
0
  6
CONTINUOUS
 62
     7
100
AcDbLine
 10
224.437398
 20
72.046574
 30
0.0
 11
224.434752
 21
72.04638
 31
0.0
  0
LINE
  5
193
330
157
100
AcDbEntity
  8
0
  6
CONTINUOUS
 62
     7
100
AcDbLine
 10
224.434752
 20
72.04638
 30
0.0
 11
224.432076
 21
72.046183
 31
0.0
  0
LINE
  5
194
330
157
100
AcDbEntity
  8
0
  6
CONTINUOUS
 62
     7
100
AcDbLine
 10
224.432076
 20
72.046183
 30
0.0
 11
224.429371
 21
72.045986
 31
0.0
  0
LINE
  5
195
330
157
100
AcDbEntity
  8
0
  6
CONTINUOUS
 62
     7
100
AcDbLine
 10
224.429371
 20
72.045986
 30
0.0
 11
224.426636
 21
72.045786
 31
0.0
  0
LINE
  5
196
330
157
100
AcDbEntity
  8
0
  6
CONTINUOUS
 62
     7
100
AcDbLine
 10
224.426636
 20
72.045786
 30
0.0
 11
224.423872
 21
72.045585
 31
0.0
  0
LINE
  5
197
330
157
100
AcDbEntity
  8
0
  6
CONTINUOUS
 62
     7
100
AcDbLine
 10
224.423872
 20
72.045585
 30
0.0
 11
224.421079
 21
72.045383
 31
0.0
  0
LINE
  5
198
330
157
100
AcDbEntity
  8
0
  6
CONTINUOUS
 62
     7
100
AcDbLine
 10
224.421079
 20
72.045383
 30
0.0
 11
224.418258
 21
72.04518
 31
0.0
  0
LINE
  5
199
330
157
100
AcDbEntity
  8
0
  6
CONTINUOUS
 62
     7
100
AcDbLine
 10
224.418258
 20
72.04518
 30
0.0
 11
224.415408
 21
72.044975
 31
0.0
  0
LINE
  5
19A
330
157
100
AcDbEntity
  8
0
  6
CONTINUOUS
 62
     7
100
AcDbLine
 10
224.415408
 20
72.044975
 30
0.0
 11
224.41253
 21
72.044768
 31
0.0
  0
LINE
  5
19B
330
157
100
AcDbEntity
  8
0
  6
CONTINUOUS
 62
     7
100
AcDbLine
 10
224.41253
 20
72.044768
 30
0.0
 11
224.409625
 21
72.044561
 31
0.0
  0
LINE
  5
19C
330
157
100
AcDbEntity
  8
0
  6
CONTINUOUS
 62
     7
100
AcDbLine
 10
224.409625
 20
72.044561
 30
0.0
 11
224.406692
 21
72.044352
 31
0.0
  0
LINE
  5
19D
330
157
100
AcDbEntity
  8
0
  6
CONTINUOUS
 62
     7
100
AcDbLine
 10
224.406692
 20
72.044352
 30
0.0
 11
224.403732
 21
72.044141
 31
0.0
  0
LINE
  5
19E
330
157
100
AcDbEntity
  8
0
  6
CONTINUOUS
 62
     7
100
AcDbLine
 10
224.403732
 20
72.044141
 30
0.0
 11
224.400746
 21
72.04393
 31
0.0
  0
LINE
  5
19F
330
157
100
AcDbEntity
  8
0
  6
CONTINUOUS
 62
     7
100
AcDbLine
 10
224.400746
 20
72.04393
 30
0.0
 11
224.397732
 21
72.043717
 31
0.0
  0
LINE
  5
1A0
330
157
100
AcDbEntity
  8
0
  6
CONTINUOUS
 62
     7
100
AcDbLine
 10
224.397732
 20
72.043717
 30
0.0
 11
224.394692
 21
72.043504
 31
0.0
  0
LINE
  5
1A1
330
157
100
AcDbEntity
  8
0
  6
CONTINUOUS
 62
     7
100
AcDbLine
 10
224.394692
 20
72.043504
 30
0.0
 11
224.391626
 21
72.043289
 31
0.0
  0
LINE
  5
1A2
330
157
100
AcDbEntity
  8
0
  6
CONTINUOUS
 62
     7
100
AcDbLine
 10
224.391626
 20
72.043289
 30
0.0
 11
224.388534
 21
72.043073
 31
0.0
  0
LINE
  5
1A3
330
157
100
AcDbEntity
  8
0
  6
CONTINUOUS
 62
     7
100
AcDbLine
 10
224.388534
 20
72.043073
 30
0.0
 11
224.385417
 21
72.042856
 31
0.0
  0
LINE
  5
1A4
330
157
100
AcDbEntity
  8
0
  6
CONTINUOUS
 62
     7
100
AcDbLine
 10
224.385417
 20
72.042856
 30
0.0
 11
224.382274
 21
72.042638
 31
0.0
  0
LINE
  5
1A5
330
157
100
AcDbEntity
  8
0
  6
CONTINUOUS
 62
     7
100
AcDbLine
 10
224.382274
 20
72.042638
 30
0.0
 11
224.379106
 21
72.042419
 31
0.0
  0
LINE
  5
1A6
330
157
100
AcDbEntity
  8
0
  6
CONTINUOUS
 62
     7
100
AcDbLine
 10
224.379106
 20
72.042419
 30
0.0
 11
224.375913
 21
72.042199
 31
0.0
  0
LINE
  5
1A7
330
157
100
AcDbEntity
  8
0
  6
CONTINUOUS
 62
     7
100
AcDbLine
 10
224.375913
 20
72.042199
 30
0.0
 11
224.372696
 21
72.041978
 31
0.0
  0
LINE
  5
1A8
330
157
100
AcDbEntity
  8
0
  6
CONTINUOUS
 62
     7
100
AcDbLine
 10
224.372696
 20
72.041978
 30
0.0
 11
224.369455
 21
72.041756
 31
0.0
  0
LINE
  5
1A9
330
157
100
AcDbEntity
  8
0
  6
CONTINUOUS
 62
     7
100
AcDbLine
 10
224.369455
 20
72.041756
 30
0.0
 11
224.366189
 21
72.041533
 31
0.0
  0
LINE
  5
1AA
330
157
100
AcDbEntity
  8
0
  6
CONTINUOUS
 62
     7
100
AcDbLine
 10
224.366189
 20
72.041533
 30
0.0
 11
224.3629
 21
72.041309
 31
0.0
  0
LINE
  5
1AB
330
157
100
AcDbEntity
  8
0
  6
CONTINUOUS
 62
     7
100
AcDbLine
 10
224.3629
 20
72.041309
 30
0.0
 11
224.359587
 21
72.041085
 31
0.0
  0
LINE
  5
1AC
330
157
100
AcDbEntity
  8
0
  6
CONTINUOUS
 62
     7
100
AcDbLine
 10
224.359587
 20
72.041085
 30
0.0
 11
224.356252
 21
72.04086
 31
0.0
  0
LINE
  5
1AD
330
157
100
AcDbEntity
  8
0
  6
CONTINUOUS
 62
     7
100
AcDbLine
 10
224.356252
 20
72.04086
 30
0.0
 11
224.352893
 21
72.040634
 31
0.0
  0
LINE
  5
1AE
330
157
100
AcDbEntity
  8
0
  6
CONTINUOUS
 62
     7
100
AcDbLine
 10
224.352893
 20
72.040634
 30
0.0
 11
224.349511
 21
72.040407
 31
0.0
  0
LINE
  5
1AF
330
157
100
AcDbEntity
  8
0
  6
CONTINUOUS
 62
     7
100
AcDbLine
 10
224.349511
 20
72.040407
 30
0.0
 11
224.346108
 21
72.04018
 31
0.0
  0
LINE
  5
1B0
330
157
100
AcDbEntity
  8
0
  6
CONTINUOUS
 62
     7
100
AcDbLine
 10
224.346108
 20
72.04018
 30
0.0
 11
224.342682
 21
72.039952
 31
0.0
  0
LINE
  5
1B1
330
157
100
AcDbEntity
  8
0
  6
CONTINUOUS
 62
     7
100
AcDbLine
 10
224.342682
 20
72.039952
 30
0.0
 11
224.339234
 21
72.039723
 31
0.0
  0
LINE
  5
1B2
330
157
100
AcDbEntity
  8
0
  6
CONTINUOUS
 62
     7
100
AcDbLine
 10
224.339234
 20
72.039723
 30
0.0
 11
224.335765
 21
72.039494
 31
0.0
  0
LINE
  5
1B3
330
157
100
AcDbEntity
  8
0
  6
CONTINUOUS
 62
     7
100
AcDbLine
 10
224.335765
 20
72.039494
 30
0.0
 11
224.332274
 21
72.039264
 31
0.0
  0
LINE
  5
1B4
330
157
100
AcDbEntity
  8
0
  6
CONTINUOUS
 62
     7
100
AcDbLine
 10
224.332274
 20
72.039264
 30
0.0
 11
224.328762
 21
72.039034
 31
0.0
  0
LINE
  5
1B5
330
157
100
AcDbEntity
  8
0
  6
CONTINUOUS
 62
     7
100
AcDbLine
 10
224.328762
 20
72.039034
 30
0.0
 11
224.325229
 21
72.038803
 31
0.0
  0
LINE
  5
1B6
330
157
100
AcDbEntity
  8
0
  6
CONTINUOUS
 62
     7
100
AcDbLine
 10
224.325229
 20
72.038803
 30
0.0
 11
224.321676
 21
72.038572
 31
0.0
  0
LINE
  5
1B7
330
157
100
AcDbEntity
  8
0
  6
CONTINUOUS
 62
     7
100
AcDbLine
 10
224.321676
 20
72.038572
 30
0.0
 11
224.318103
 21
72.03834
 31
0.0
  0
LINE
  5
1B8
330
157
100
AcDbEntity
  8
0
  6
CONTINUOUS
 62
     7
100
AcDbLine
 10
224.318103
 20
72.03834
 30
0.0
 11
224.31451
 21
72.038108
 31
0.0
  0
LINE
  5
1B9
330
157
100
AcDbEntity
  8
0
  6
CONTINUOUS
 62
     7
100
AcDbLine
 10
224.31451
 20
72.038108
 30
0.0
 11
224.310896
 21
72.037876
 31
0.0
  0
LINE
  5
1BA
330
157
100
AcDbEntity
  8
0
  6
CONTINUOUS
 62
     7
100
AcDbLine
 10
224.310896
 20
72.037876
 30
0.0
 11
224.307264
 21
72.037643
 31
0.0
  0
LINE
  5
1BB
330
157
100
AcDbEntity
  8
0
  6
CONTINUOUS
 62
     7
100
AcDbLine
 10
224.307264
 20
72.037643
 30
0.0
 11
224.303612
 21
72.03741
 31
0.0
  0
LINE
  5
1BC
330
157
100
AcDbEntity
  8
0
  6
CONTINUOUS
 62
     7
100
AcDbLine
 10
224.303612
 20
72.03741
 30
0.0
 11
224.299941
 21
72.037177
 31
0.0
  0
LINE
  5
1BD
330
157
100
AcDbEntity
  8
0
  6
CONTINUOUS
 62
     7
100
AcDbLine
 10
224.299941
 20
72.037177
 30
0.0
 11
224.296252
 21
72.036943
 31
0.0
  0
LINE
  5
1BE
330
157
100
AcDbEntity
  8
0
  6
CONTINUOUS
 62
     7
100
AcDbLine
 10
224.296252
 20
72.036943
 30
0.0
 11
224.292557
 21
72.03671
 31
0.0
  0
LINE
  5
1BF
330
157
100
AcDbEntity
  8
0
  6
CONTINUOUS
 62
     7
100
AcDbLine
 10
224.292557
 20
72.03671
 30
0.0
 11
224.288843
 21
72.036477
 31
0.0
  0
LINE
  5
1C0
330
157
100
AcDbEntity
  8
0
  6
CONTINUOUS
 62
     7
100
AcDbLine
 10
224.288843
 20
72.036477
 30
0.0
 11
224.285111
 21
72.036243
 31
0.0
  0
LINE
  5
1C1
330
157
100
AcDbEntity
  8
0
  6
CONTINUOUS
 62
     7
100
AcDbLine
 10
224.285111
 20
72.036243
 30
0.0
 11
224.281361
 21
72.03601
 31
0.0
  0
LINE
  5
1C2
330
157
100
AcDbEntity
  8
0
  6
CONTINUOUS
 62
     7
100
AcDbLine
 10
224.281361
 20
72.03601
 30
0.0
 11
224.277593
 21
72.035776
 31
0.0
  0
LINE
  5
1C3
330
157
100
AcDbEntity
  8
0
  6
CONTINUOUS
 62
     7
100
AcDbLine
 10
224.277593
 20
72.035776
 30
0.0
 11
224.273807
 21
72.035543
 31
0.0
  0
LINE
  5
1C4
330
157
100
AcDbEntity
  8
0
  6
CONTINUOUS
 62
     7
100
AcDbLine
 10
224.273807
 20
72.035543
 30
0.0
 11
224.270003
 21
72.035309
 31
0.0
  0
LINE
  5
1C5
330
157
100
AcDbEntity
  8
0
  6
CONTINUOUS
 62
     7
100
AcDbLine
 10
224.270003
 20
72.035309
 30
0.0
 11
224.266181
 21
72.035075
 31
0.0
  0
LINE
  5
1C6
330
157
100
AcDbEntity
  8
0
  6
CONTINUOUS
 62
     7
100
AcDbLine
 10
224.266181
 20
72.035075
 30
0.0
 11
224.262341
 21
72.034842
 31
0.0
  0
LINE
  5
1C7
330
157
100
AcDbEntity
  8
0
  6
CONTINUOUS
 62
     7
100
AcDbLine
 10
224.262341
 20
72.034842
 30
0.0
 11
224.258484
 21
72.034609
 31
0.0
  0
LINE
  5
1C8
330
157
100
AcDbEntity
  8
0
  6
CONTINUOUS
 62
     7
100
AcDbLine
 10
224.258484
 20
72.034609
 30
0.0
 11
224.254608
 21
72.034375
 31
0.0
  0
LINE
  5
1C9
330
157
100
AcDbEntity
  8
0
  6
CONTINUOUS
 62
     7
100
AcDbLine
 10
224.254608
 20
72.034375
 30
0.0
 11
224.250715
 21
72.034142
 31
0.0
  0
LINE
  5
1CA
330
157
100
AcDbEntity
  8
0
  6
CONTINUOUS
 62
     7
100
AcDbLine
 10
224.250715
 20
72.034142
 30
0.0
 11
224.246805
 21
72.03391
 31
0.0
  0
LINE
  5
1CB
330
157
100
AcDbEntity
  8
0
  6
CONTINUOUS
 62
     7
100
AcDbLine
 10
224.246805
 20
72.03391
 30
0.0
 11
224.242877
 21
72.033677
 31
0.0
  0
LINE
  5
1CC
330
157
100
AcDbEntity
  8
0
  6
CONTINUOUS
 62
     7
100
AcDbLine
 10
224.242877
 20
72.033677
 30
0.0
 11
224.238931
 21
72.033445
 31
0.0
  0
LINE
  5
1CD
330
157
100
AcDbEntity
  8
0
  6
CONTINUOUS
 62
     7
100
AcDbLine
 10
224.238931
 20
72.033445
 30
0.0
 11
224.234967
 21
72.033213
 31
0.0
  0
LINE
  5
1CE
330
157
100
AcDbEntity
  8
0
  6
CONTINUOUS
 62
     7
100
AcDbLine
 10
224.234967
 20
72.033213
 30
0.0
 11
224.230987
 21
72.032981
 31
0.0
  0
LINE
  5
1CF
330
157
100
AcDbEntity
  8
0
  6
CONTINUOUS
 62
     7
100
AcDbLine
 10
224.230987
 20
72.032981
 30
0.0
 11
224.226989
 21
72.03275
 31
0.0
  0
LINE
  5
1D0
330
157
100
AcDbEntity
  8
0
  6
CONTINUOUS
 62
     7
100
AcDbLine
 10
224.226989
 20
72.03275
 30
0.0
 11
224.222973
 21
72.03252
 31
0.0
  0
LINE
  5
1D1
330
157
100
AcDbEntity
  8
0
  6
CONTINUOUS
 62
     7
100
AcDbLine
 10
224.222973
 20
72.03252
 30
0.0
 11
224.218941
 21
72.032289
 31
0.0
  0
LINE
  5
1D2
330
157
100
AcDbEntity
  8
0
  6
CONTINUOUS
 62
     7
100
AcDbLine
 10
224.218941
 20
72.032289
 30
0.0
 11
224.214891
 21
72.03206
 31
0.0
  0
LINE
  5
1D3
330
157
100
AcDbEntity
  8
0
  6
CONTINUOUS
 62
     7
100
AcDbLine
 10
224.214891
 20
72.03206
 30
0.0
 11
224.210824
 21
72.031831
 31
0.0
  0
LINE
  5
1D4
330
157
100
AcDbEntity
  8
0
  6
CONTINUOUS
 62
     7
100
AcDbLine
 10
224.210824
 20
72.031831
 30
0.0
 11
224.206739
 21
72.031602
 31
0.0
  0
LINE
  5
1D5
330
157
100
AcDbEntity
  8
0
  6
CONTINUOUS
 62
     7
100
AcDbLine
 10
224.206739
 20
72.031602
 30
0.0
 11
224.202638
 21
72.031374
 31
0.0
  0
LINE
  5
1D6
330
157
100
AcDbEntity
  8
0
  6
CONTINUOUS
 62
     7
100
AcDbLine
 10
224.202638
 20
72.031374
 30
0.0
 11
224.19852
 21
72.031147
 31
0.0
  0
LINE
  5
1D7
330
157
100
AcDbEntity
  8
0
  6
CONTINUOUS
 62
     7
100
AcDbLine
 10
224.19852
 20
72.031147
 30
0.0
 11
224.194385
 21
72.03092
 31
0.0
  0
LINE
  5
1D8
330
157
100
AcDbEntity
  8
0
  6
CONTINUOUS
 62
     7
100
AcDbLine
 10
224.194385
 20
72.03092
 30
0.0
 11
224.190233
 21
72.030695
 31
0.0
  0
LINE
  5
1D9
330
157
100
AcDbEntity
  8
0
  6
CONTINUOUS
 62
     7
100
AcDbLine
 10
224.190233
 20
72.030695
 30
0.0
 11
224.186064
 21
72.030469
 31
0.0
  0
LINE
  5
1DA
330
157
100
AcDbEntity
  8
0
  6
CONTINUOUS
 62
     7
100
AcDbLine
 10
224.186064
 20
72.030469
 30
0.0
 11
224.183973
 21
72.030357
 31
0.0
  0
LINE
  5
1DB
330
157
100
AcDbEntity
  8
0
  6
CONTINUOUS
 62
     7
100
AcDbLine
 10
224.183973
 20
72.030357
 30
0.0
 11
224.181878
 21
72.030245
 31
0.0
  0
LINE
  5
1DC
330
157
100
AcDbEntity
  8
0
  6
CONTINUOUS
 62
     7
100
AcDbLine
 10
224.181878
 20
72.030245
 30
0.0
 11
224.179779
 21
72.030133
 31
0.0
  0
LINE
  5
1DD
330
157
100
AcDbEntity
  8
0
  6
CONTINUOUS
 62
     7
100
AcDbLine
 10
224.179779
 20
72.030133
 30
0.0
 11
224.177675
 21
72.030022
 31
0.0
  0
LINE
  5
1DE
330
157
100
AcDbEntity
  8
0
  6
CONTINUOUS
 62
     7
100
AcDbLine
 10
224.177675
 20
72.030022
 30
0.0
 11
224.175568
 21
72.029911
 31
0.0
  0
LINE
  5
1DF
330
157
100
AcDbEntity
  8
0
  6
CONTINUOUS
 62
     7
100
AcDbLine
 10
224.175568
 20
72.029911
 30
0.0
 11
224.173456
 21
72.029799
 31
0.0
  0
LINE
  5
1E0
330
157
100
AcDbEntity
  8
0
  6
CONTINUOUS
 62
     7
100
AcDbLine
 10
224.173456
 20
72.029799
 30
0.0
 11
224.17134
 21
72.029688
 31
0.0
  0
LINE
  5
1E1
330
157
100
AcDbEntity
  8
0
  6
CONTINUOUS
 62
     7
100
AcDbLine
 10
224.17134
 20
72.029688
 30
0.0
 11
224.16922
 21
72.029578
 31
0.0
  0
LINE
  5
1E2
330
157
100
AcDbEntity
  8
0
  6
CONTINUOUS
 62
     7
100
AcDbLine
 10
224.16922
 20
72.029578
 30
0.0
 11
224.167096
 21
72.029467
 31
0.0
  0
LINE
  5
1E3
330
157
100
AcDbEntity
  8
0
  6
CONTINUOUS
 62
     7
100
AcDbLine
 10
224.167096
 20
72.029467
 30
0.0
 11
224.164968
 21
72.029357
 31
0.0
  0
LINE
  5
1E4
330
157
100
AcDbEntity
  8
0
  6
CONTINUOUS
 62
     7
100
AcDbLine
 10
224.164968
 20
72.029357
 30
0.0
 11
224.162835
 21
72.029247
 31
0.0
  0
LINE
  5
1E5
330
157
100
AcDbEntity
  8
0
  6
CONTINUOUS
 62
     7
100
AcDbLine
 10
224.162835
 20
72.029247
 30
0.0
 11
224.160699
 21
72.029138
 31
0.0
  0
LINE
  5
1E6
330
157
100
AcDbEntity
  8
0
  6
CONTINUOUS
 62
     7
100
AcDbLine
 10
224.160699
 20
72.029138
 30
0.0
 11
224.158558
 21
72.029028
 31
0.0
  0
LINE
  5
1E7
330
157
100
AcDbEntity
  8
0
  6
CONTINUOUS
 62
     7
100
AcDbLine
 10
224.158558
 20
72.029028
 30
0.0
 11
224.156413
 21
72.028919
 31
0.0
  0
LINE
  5
1E8
330
157
100
AcDbEntity
  8
0
  6
CONTINUOUS
 62
     7
100
AcDbLine
 10
224.156413
 20
72.028919
 30
0.0
 11
224.154264
 21
72.02881
 31
0.0
  0
LINE
  5
1E9
330
157
100
AcDbEntity
  8
0
  6
CONTINUOUS
 62
     7
100
AcDbLine
 10
224.154264
 20
72.02881
 30
0.0
 11
224.152111
 21
72.028701
 31
0.0
  0
LINE
  5
1EA
330
157
100
AcDbEntity
  8
0
  6
CONTINUOUS
 62
     7
100
AcDbLine
 10
224.152111
 20
72.028701
 30
0.0
 11
224.149954
 21
72.028593
 31
0.0
  0
LINE
  5
1EB
330
157
100
AcDbEntity
  8
0
  6
CONTINUOUS
 62
     7
100
AcDbLine
 10
224.149954
 20
72.028593
 30
0.0
 11
224.147793
 21
72.028485
 31
0.0
  0
LINE
  5
1EC
330
157
100
AcDbEntity
  8
0
  6
CONTINUOUS
 62
     7
100
AcDbLine
 10
224.147793
 20
72.028485
 30
0.0
 11
224.145628
 21
72.028377
 31
0.0
  0
LINE
  5
1ED
330
157
100
AcDbEntity
  8
0
  6
CONTINUOUS
 62
     7
100
AcDbLine
 10
224.145628
 20
72.028377
 30
0.0
 11
224.143458
 21
72.02827
 31
0.0
  0
LINE
  5
1EE
330
157
100
AcDbEntity
  8
0
  6
CONTINUOUS
 62
     7
100
AcDbLine
 10
224.143458
 20
72.02827
 30
0.0
 11
224.141285
 21
72.028163
 31
0.0
  0
LINE
  5
1EF
330
157
100
AcDbEntity
  8
0
  6
CONTINUOUS
 62
     7
100
AcDbLine
 10
224.141285
 20
72.028163
 30
0.0
 11
224.139107
 21
72.028056
 31
0.0
  0
LINE
  5
1F0
330
157
100
AcDbEntity
  8
0
  6
CONTINUOUS
 62
     7
100
AcDbLine
 10
224.139107
 20
72.028056
 30
0.0
 11
224.136926
 21
72.027949
 31
0.0
  0
LINE
  5
1F1
330
157
100
AcDbEntity
  8
0
  6
CONTINUOUS
 62
     7
100
AcDbLine
 10
224.136926
 20
72.027949
 30
0.0
 11
224.13474
 21
72.027843
 31
0.0
  0
LINE
  5
1F2
330
157
100
AcDbEntity
  8
0
  6
CONTINUOUS
 62
     7
100
AcDbLine
 10
224.13474
 20
72.027843
 30
0.0
 11
224.132551
 21
72.027737
 31
0.0
  0
LINE
  5
1F3
330
157
100
AcDbEntity
  8
0
  6
CONTINUOUS
 62
     7
100
AcDbLine
 10
224.132551
 20
72.027737
 30
0.0
 11
224.130357
 21
72.027631
 31
0.0
  0
LINE
  5
1F4
330
157
100
AcDbEntity
  8
0
  6
CONTINUOUS
 62
     7
100
AcDbLine
 10
224.130357
 20
72.027631
 30
0.0
 11
224.128159
 21
72.027526
 31
0.0
  0
LINE
  5
1F5
330
157
100
AcDbEntity
  8
0
  6
CONTINUOUS
 62
     7
100
AcDbLine
 10
224.128159
 20
72.027526
 30
0.0
 11
224.125958
 21
72.027421
 31
0.0
  0
LINE
  5
1F6
330
157
100
AcDbEntity
  8
0
  6
CONTINUOUS
 62
     7
100
AcDbLine
 10
224.125958
 20
72.027421
 30
0.0
 11
224.123752
 21
72.027316
 31
0.0
  0
LINE
  5
1F7
330
157
100
AcDbEntity
  8
0
  6
CONTINUOUS
 62
     7
100
AcDbLine
 10
224.123752
 20
72.027316
 30
0.0
 11
224.121542
 21
72.027212
 31
0.0
  0
LINE
  5
1F8
330
157
100
AcDbEntity
  8
0
  6
CONTINUOUS
 62
     7
100
AcDbLine
 10
224.121542
 20
72.027212
 30
0.0
 11
224.119328
 21
72.027108
 31
0.0
  0
LINE
  5
1F9
330
157
100
AcDbEntity
  8
0
  6
CONTINUOUS
 62
     7
100
AcDbLine
 10
224.119328
 20
72.027108
 30
0.0
 11
224.117111
 21
72.027004
 31
0.0
  0
LINE
  5
1FA
330
157
100
AcDbEntity
  8
0
  6
CONTINUOUS
 62
     7
100
AcDbLine
 10
224.117111
 20
72.027004
 30
0.0
 11
224.114889
 21
72.026901
 31
0.0
  0
LINE
  5
1FB
330
157
100
AcDbEntity
  8
0
  6
CONTINUOUS
 62
     7
100
AcDbLine
 10
224.114889
 20
72.026901
 30
0.0
 11
224.112663
 21
72.026798
 31
0.0
  0
LINE
  5
1FC
330
157
100
AcDbEntity
  8
0
  6
CONTINUOUS
 62
     7
100
AcDbLine
 10
224.112663
 20
72.026798
 30
0.0
 11
224.110434
 21
72.026695
 31
0.0
  0
LINE
  5
1FD
330
157
100
AcDbEntity
  8
0
  6
CONTINUOUS
 62
     7
100
AcDbLine
 10
224.110434
 20
72.026695
 30
0.0
 11
224.1082
 21
72.026593
 31
0.0
  0
LINE
  5
1FE
330
157
100
AcDbEntity
  8
0
  6
CONTINUOUS
 62
     7
100
AcDbLine
 10
224.1082
 20
72.026593
 30
0.0
 11
224.105962
 21
72.026491
 31
0.0
  0
LINE
  5
1FF
330
157
100
AcDbEntity
  8
0
  6
CONTINUOUS
 62
     7
100
AcDbLine
 10
224.105962
 20
72.026491
 30
0.0
 11
224.103721
 21
72.026389
 31
0.0
  0
LINE
  5
200
330
157
100
AcDbEntity
  8
0
  6
CONTINUOUS
 62
     7
100
AcDbLine
 10
224.103721
 20
72.026389
 30
0.0
 11
224.101475
 21
72.026288
 31
0.0
  0
LINE
  5
201
330
157
100
AcDbEntity
  8
0
  6
CONTINUOUS
 62
     7
100
AcDbLine
 10
224.101475
 20
72.026288
 30
0.0
 11
224.099226
 21
72.026188
 31
0.0
  0
LINE
  5
202
330
157
100
AcDbEntity
  8
0
  6
CONTINUOUS
 62
     7
100
AcDbLine
 10
224.099226
 20
72.026188
 30
0.0
 11
224.096972
 21
72.026087
 31
0.0
  0
LINE
  5
203
330
157
100
AcDbEntity
  8
0
  6
CONTINUOUS
 62
     7
100
AcDbLine
 10
224.096972
 20
72.026087
 30
0.0
 11
224.094715
 21
72.025987
 31
0.0
  0
LINE
  5
204
330
157
100
AcDbEntity
  8
0
  6
CONTINUOUS
 62
     7
100
AcDbLine
 10
224.094715
 20
72.025987
 30
0.0
 11
224.092454
 21
72.025888
 31
0.0
  0
LINE
  5
205
330
157
100
AcDbEntity
  8
0
  6
CONTINUOUS
 62
     7
100
AcDbLine
 10
224.092454
 20
72.025888
 30
0.0
 11
224.090189
 21
72.025788
 31
0.0
  0
LINE
  5
206
330
157
100
AcDbEntity
  8
0
  6
CONTINUOUS
 62
     7
100
AcDbLine
 10
224.090189
 20
72.025788
 30
0.0
 11
224.087919
 21
72.02569
 31
0.0
  0
LINE
  5
207
330
157
100
AcDbEntity
  8
0
  6
CONTINUOUS
 62
     7
100
AcDbLine
 10
224.087919
 20
72.02569
 30
0.0
 11
224.085646
 21
72.025591
 31
0.0
  0
LINE
  5
208
330
157
100
AcDbEntity
  8
0
  6
CONTINUOUS
 62
     7
100
AcDbLine
 10
224.085646
 20
72.025591
 30
0.0
 11
224.08337
 21
72.025493
 31
0.0
  0
LINE
  5
209
330
157
100
AcDbEntity
  8
0
  6
CONTINUOUS
 62
     7
100
AcDbLine
 10
224.08337
 20
72.025493
 30
0.0
 11
224.081089
 21
72.025396
 31
0.0
  0
LINE
  5
20A
330
157
100
AcDbEntity
  8
0
  6
CONTINUOUS
 62
     7
100
AcDbLine
 10
224.081089
 20
72.025396
 30
0.0
 11
224.078804
 21
72.025299
 31
0.0
  0
LINE
  5
20B
330
157
100
AcDbEntity
  8
0
  6
CONTINUOUS
 62
     7
100
AcDbLine
 10
224.078804
 20
72.025299
 30
0.0
 11
224.076516
 21
72.025202
 31
0.0
  0
LINE
  5
20C
330
157
100
AcDbEntity
  8
0
  6
CONTINUOUS
 62
     7
100
AcDbLine
 10
224.076516
 20
72.025202
 30
0.0
 11
224.074223
 21
72.025106
 31
0.0
  0
LINE
  5
20D
330
157
100
AcDbEntity
  8
0
  6
CONTINUOUS
 62
     7
100
AcDbLine
 10
224.074223
 20
72.025106
 30
0.0
 11
224.071927
 21
72.02501
 31
0.0
  0
LINE
  5
20E
330
157
100
AcDbEntity
  8
0
  6
CONTINUOUS
 62
     7
100
AcDbLine
 10
224.071927
 20
72.02501
 30
0.0
 11
224.069627
 21
72.024915
 31
0.0
  0
LINE
  5
20F
330
157
100
AcDbEntity
  8
0
  6
CONTINUOUS
 62
     7
100
AcDbLine
 10
224.069627
 20
72.024915
 30
0.0
 11
224.067323
 21
72.02482
 31
0.0
  0
LINE
  5
210
330
157
100
AcDbEntity
  8
0
  6
CONTINUOUS
 62
     7
100
AcDbLine
 10
224.067323
 20
72.02482
 30
0.0
 11
224.065015
 21
72.024725
 31
0.0
  0
LINE
  5
211
330
157
100
AcDbEntity
  8
0
  6
CONTINUOUS
 62
     7
100
AcDbLine
 10
224.065015
 20
72.024725
 30
0.0
 11
224.062703
 21
72.024631
 31
0.0
  0
LINE
  5
212
330
157
100
AcDbEntity
  8
0
  6
CONTINUOUS
 62
     7
100
AcDbLine
 10
224.062703
 20
72.024631
 30
0.0
 11
224.060388
 21
72.024537
 31
0.0
  0
LINE
  5
213
330
157
100
AcDbEntity
  8
0
  6
CONTINUOUS
 62
     7
100
AcDbLine
 10
224.060388
 20
72.024537
 30
0.0
 11
224.058068
 21
72.024444
 31
0.0
  0
LINE
  5
214
330
157
100
AcDbEntity
  8
0
  6
CONTINUOUS
 62
     7
100
AcDbLine
 10
224.058068
 20
72.024444
 30
0.0
 11
224.055745
 21
72.024352
 31
0.0
  0
LINE
  5
215
330
157
100
AcDbEntity
  8
0
  6
CONTINUOUS
 62
     7
100
AcDbLine
 10
224.055745
 20
72.024352
 30
0.0
 11
224.053418
 21
72.02426
 31
0.0
  0
LINE
  5
216
330
157
100
AcDbEntity
  8
0
  6
CONTINUOUS
 62
     7
100
AcDbLine
 10
224.053418
 20
72.02426
 30
0.0
 11
224.051088
 21
72.024168
 31
0.0
  0
LINE
  5
217
330
157
100
AcDbEntity
  8
0
  6
CONTINUOUS
 62
     7
100
AcDbLine
 10
224.051088
 20
72.024168
 30
0.0
 11
224.048753
 21
72.024077
 31
0.0
  0
LINE
  5
218
330
157
100
AcDbEntity
  8
0
  6
CONTINUOUS
 62
     7
100
AcDbLine
 10
224.048753
 20
72.024077
 30
0.0
 11
224.046415
 21
72.023986
 31
0.0
  0
LINE
  5
219
330
157
100
AcDbEntity
  8
0
  6
CONTINUOUS
 62
     7
100
AcDbLine
 10
224.046415
 20
72.023986
 30
0.0
 11
224.044073
 21
72.023896
 31
0.0
  0
LINE
  5
21A
330
157
100
AcDbEntity
  8
0
  6
CONTINUOUS
 62
     7
100
AcDbLine
 10
224.044073
 20
72.023896
 30
0.0
 11
224.041727
 21
72.023806
 31
0.0
  0
LINE
  5
21B
330
157
100
AcDbEntity
  8
0
  6
CONTINUOUS
 62
     7
100
AcDbLine
 10
224.041727
 20
72.023806
 30
0.0
 11
224.039377
 21
72.023717
 31
0.0
  0
LINE
  5
21C
330
157
100
AcDbEntity
  8
0
  6
CONTINUOUS
 62
     7
100
AcDbLine
 10
224.039377
 20
72.023717
 30
0.0
 11
224.037023
 21
72.023628
 31
0.0
  0
LINE
  5
21D
330
157
100
AcDbEntity
  8
0
  6
CONTINUOUS
 62
     7
100
AcDbLine
 10
224.037023
 20
72.023628
 30
0.0
 11
224.034666
 21
72.02354
 31
0.0
  0
LINE
  5
21E
330
157
100
AcDbEntity
  8
0
  6
CONTINUOUS
 62
     7
100
AcDbLine
 10
224.034666
 20
72.02354
 30
0.0
 11
224.032305
 21
72.023452
 31
0.0
  0
LINE
  5
21F
330
157
100
AcDbEntity
  8
0
  6
CONTINUOUS
 62
     7
100
AcDbLine
 10
224.032305
 20
72.023452
 30
0.0
 11
224.029941
 21
72.023365
 31
0.0
  0
LINE
  5
220
330
157
100
AcDbEntity
  8
0
  6
CONTINUOUS
 62
     7
100
AcDbLine
 10
224.029941
 20
72.023365
 30
0.0
 11
224.027572
 21
72.023278
 31
0.0
  0
LINE
  5
221
330
157
100
AcDbEntity
  8
0
  6
CONTINUOUS
 62
     7
100
AcDbLine
 10
224.027572
 20
72.023278
 30
0.0
 11
224.0252
 21
72.023192
 31
0.0
  0
LINE
  5
222
330
157
100
AcDbEntity
  8
0
  6
CONTINUOUS
 62
     7
100
AcDbLine
 10
224.0252
 20
72.023192
 30
0.0
 11
224.022924
 21
72.02311
 31
0.0
  0
LINE
  5
223
330
157
100
AcDbEntity
  8
0
  6
CONTINUOUS
 62
     7
100
AcDbLine
 10
224.022924
 20
72.02311
 30
0.0
 11
224.020644
 21
72.023028
 31
0.0
  0
LINE
  5
224
330
157
100
AcDbEntity
  8
0
  6
CONTINUOUS
 62
     7
100
AcDbLine
 10
224.020644
 20
72.023028
 30
0.0
 11
224.018361
 21
72.022947
 31
0.0
  0
LINE
  5
225
330
157
100
AcDbEntity
  8
0
  6
CONTINUOUS
 62
     7
100
AcDbLine
 10
224.018361
 20
72.022947
 30
0.0
 11
224.016075
 21
72.022867
 31
0.0
  0
LINE
  5
226
330
157
100
AcDbEntity
  8
0
  6
CONTINUOUS
 62
     7
100
AcDbLine
 10
224.016075
 20
72.022867
 30
0.0
 11
224.013785
 21
72.022787
 31
0.0
  0
LINE
  5
227
330
157
100
AcDbEntity
  8
0
  6
CONTINUOUS
 62
     7
100
AcDbLine
 10
224.013785
 20
72.022787
 30
0.0
 11
224.011492
 21
72.022707
 31
0.0
  0
LINE
  5
228
330
157
100
AcDbEntity
  8
0
  6
CONTINUOUS
 62
     7
100
AcDbLine
 10
224.011492
 20
72.022707
 30
0.0
 11
224.009196
 21
72.022628
 31
0.0
  0
LINE
  5
229
330
157
100
AcDbEntity
  8
0
  6
CONTINUOUS
 62
     7
100
AcDbLine
 10
224.009196
 20
72.022628
 30
0.0
 11
224.006897
 21
72.02255
 31
0.0
  0
LINE
  5
22A
330
157
100
AcDbEntity
  8
0
  6
CONTINUOUS
 62
     7
100
AcDbLine
 10
224.006897
 20
72.02255
 30
0.0
 11
224.004594
 21
72.022472
 31
0.0
  0
LINE
  5
22B
330
157
100
AcDbEntity
  8
0
  6
CONTINUOUS
 62
     7
100
AcDbLine
 10
224.004594
 20
72.022472
 30
0.0
 11
224.002288
 21
72.022394
 31
0.0
  0
LINE
  5
22C
330
157
100
AcDbEntity
  8
0
  6
CONTINUOUS
 62
     7
100
AcDbLine
 10
224.002288
 20
72.022394
 30
0.0
 11
223.999979
 21
72.022318
 31
0.0
  0
LINE
  5
22D
330
157
100
AcDbEntity
  8
0
  6
CONTINUOUS
 62
     7
100
AcDbLine
 10
223.999979
 20
72.022318
 30
0.0
 11
223.997668
 21
72.022241
 31
0.0
  0
LINE
  5
22E
330
157
100
AcDbEntity
  8
0
  6
CONTINUOUS
 62
     7
100
AcDbLine
 10
223.997668
 20
72.022241
 30
0.0
 11
223.995353
 21
72.022166
 31
0.0
  0
LINE
  5
22F
330
157
100
AcDbEntity
  8
0
  6
CONTINUOUS
 62
     7
100
AcDbLine
 10
223.995353
 20
72.022166
 30
0.0
 11
223.993035
 21
72.02209
 31
0.0
  0
LINE
  5
230
330
157
100
AcDbEntity
  8
0
  6
CONTINUOUS
 62
     7
100
AcDbLine
 10
223.993035
 20
72.02209
 30
0.0
 11
223.990713
 21
72.022016
 31
0.0
  0
LINE
  5
231
330
157
100
AcDbEntity
  8
0
  6
CONTINUOUS
 62
     7
100
AcDbLine
 10
223.990713
 20
72.022016
 30
0.0
 11
223.98839
 21
72.021942
 31
0.0
  0
LINE
  5
232
330
157
100
AcDbEntity
  8
0
  6
CONTINUOUS
 62
     7
100
AcDbLine
 10
223.98839
 20
72.021942
 30
0.0
 11
223.986063
 21
72.021868
 31
0.0
  0
LINE
  5
233
330
157
100
AcDbEntity
  8
0
  6
CONTINUOUS
 62
     7
100
AcDbLine
 10
223.986063
 20
72.021868
 30
0.0
 11
223.983733
 21
72.021795
 31
0.0
  0
LINE
  5
234
330
157
100
AcDbEntity
  8
0
  6
CONTINUOUS
 62
     7
100
AcDbLine
 10
223.983733
 20
72.021795
 30
0.0
 11
223.9814
 21
72.021723
 31
0.0
  0
LINE
  5
235
330
157
100
AcDbEntity
  8
0
  6
CONTINUOUS
 62
     7
100
AcDbLine
 10
223.9814
 20
72.021723
 30
0.0
 11
223.979064
 21
72.021651
 31
0.0
  0
LINE
  5
236
330
157
100
AcDbEntity
  8
0
  6
CONTINUOUS
 62
     7
100
AcDbLine
 10
223.979064
 20
72.021651
 30
0.0
 11
223.976726
 21
72.02158
 31
0.0
  0
LINE
  5
237
330
157
100
AcDbEntity
  8
0
  6
CONTINUOUS
 62
     7
100
AcDbLine
 10
223.976726
 20
72.02158
 30
0.0
 11
223.974385
 21
72.02151
 31
0.0
  0
LINE
  5
238
330
157
100
AcDbEntity
  8
0
  6
CONTINUOUS
 62
     7
100
AcDbLine
 10
223.974385
 20
72.02151
 30
0.0
 11
223.972041
 21
72.02144
 31
0.0
  0
LINE
  5
239
330
157
100
AcDbEntity
  8
0
  6
CONTINUOUS
 62
     7
100
AcDbLine
 10
223.972041
 20
72.02144
 30
0.0
 11
223.969694
 21
72.021371
 31
0.0
  0
LINE
  5
23A
330
157
100
AcDbEntity
  8
0
  6
CONTINUOUS
 62
     7
100
AcDbLine
 10
223.969694
 20
72.021371
 30
0.0
 11
223.967345
 21
72.021302
 31
0.0
  0
LINE
  5
23B
330
157
100
AcDbEntity
  8
0
  6
CONTINUOUS
 62
     7
100
AcDbLine
 10
223.967345
 20
72.021302
 30
0.0
 11
223.964993
 21
72.021234
 31
0.0
  0
LINE
  5
23C
330
157
100
AcDbEntity
  8
0
  6
CONTINUOUS
 62
     7
100
AcDbLine
 10
223.964993
 20
72.021234
 30
0.0
 11
223.962638
 21
72.021166
 31
0.0
  0
LINE
  5
23D
330
157
100
AcDbEntity
  8
0
  6
CONTINUOUS
 62
     7
100
AcDbLine
 10
223.962638
 20
72.021166
 30
0.0
 11
223.960281
 21
72.0211
 31
0.0
  0
LINE
  5
23E
330
157
100
AcDbEntity
  8
0
  6
CONTINUOUS
 62
     7
100
AcDbLine
 10
223.960281
 20
72.0211
 30
0.0
 11
223.957921
 21
72.021034
 31
0.0
  0
LINE
  5
23F
330
157
100
AcDbEntity
  8
0
  6
CONTINUOUS
 62
     7
100
AcDbLine
 10
223.957921
 20
72.021034
 30
0.0
 11
223.955558
 21
72.020968
 31
0.0
  0
LINE
  5
240
330
157
100
AcDbEntity
  8
0
  6
CONTINUOUS
 62
     7
100
AcDbLine
 10
223.955558
 20
72.020968
 30
0.0
 11
223.953194
 21
72.020903
 31
0.0
  0
LINE
  5
241
330
157
100
AcDbEntity
  8
0
  6
CONTINUOUS
 62
     7
100
AcDbLine
 10
223.953194
 20
72.020903
 30
0.0
 11
223.950826
 21
72.020839
 31
0.0
  0
LINE
  5
242
330
157
100
AcDbEntity
  8
0
  6
CONTINUOUS
 62
     7
100
AcDbLine
 10
223.950826
 20
72.020839
 30
0.0
 11
223.948456
 21
72.020776
 31
0.0
  0
LINE
  5
243
330
157
100
AcDbEntity
  8
0
  6
CONTINUOUS
 62
     7
100
AcDbLine
 10
223.948456
 20
72.020776
 30
0.0
 11
223.946084
 21
72.020713
 31
0.0
  0
LINE
  5
244
330
157
100
AcDbEntity
  8
0
  6
CONTINUOUS
 62
     7
100
AcDbLine
 10
223.946084
 20
72.020713
 30
0.0
 11
223.943709
 21
72.020651
 31
0.0
  0
LINE
  5
245
330
157
100
AcDbEntity
  8
0
  6
CONTINUOUS
 62
     7
100
AcDbLine
 10
223.943709
 20
72.020651
 30
0.0
 11
223.941332
 21
72.02059
 31
0.0
  0
LINE
  5
246
330
157
100
AcDbEntity
  8
0
  6
CONTINUOUS
 62
     7
100
AcDbLine
 10
223.941332
 20
72.02059
 30
0.0
 11
223.938952
 21
72.020529
 31
0.0
  0
LINE
  5
247
330
157
100
AcDbEntity
  8
0
  6
CONTINUOUS
 62
     7
100
AcDbLine
 10
223.938952
 20
72.020529
 30
0.0
 11
223.936571
 21
72.020469
 31
0.0
  0
LINE
  5
248
330
157
100
AcDbEntity
  8
0
  6
CONTINUOUS
 62
     7
100
AcDbLine
 10
223.936571
 20
72.020469
 30
0.0
 11
223.934187
 21
72.020409
 31
0.0
  0
LINE
  5
249
330
157
100
AcDbEntity
  8
0
  6
CONTINUOUS
 62
     7
100
AcDbLine
 10
223.934187
 20
72.020409
 30
0.0
 11
223.9318
 21
72.020351
 31
0.0
  0
LINE
  5
24A
330
157
100
AcDbEntity
  8
0
  6
CONTINUOUS
 62
     7
100
AcDbLine
 10
223.9318
 20
72.020351
 30
0.0
 11
223.929412
 21
72.020293
 31
0.0
  0
LINE
  5
24B
330
157
100
AcDbEntity
  8
0
  6
CONTINUOUS
 62
     7
100
AcDbLine
 10
223.929412
 20
72.020293
 30
0.0
 11
223.927021
 21
72.020236
 31
0.0
  0
LINE
  5
24C
330
157
100
AcDbEntity
  8
0
  6
CONTINUOUS
 62
     7
100
AcDbLine
 10
223.927021
 20
72.020236
 30
0.0
 11
223.924628
 21
72.020179
 31
0.0
  0
LINE
  5
24D
330
157
100
AcDbEntity
  8
0
  6
CONTINUOUS
 62
     7
100
AcDbLine
 10
223.924628
 20
72.020179
 30
0.0
 11
223.922233
 21
72.020123
 31
0.0
  0
LINE
  5
24E
330
157
100
AcDbEntity
  8
0
  6
CONTINUOUS
 62
     7
100
AcDbLine
 10
223.922233
 20
72.020123
 30
0.0
 11
223.919836
 21
72.020068
 31
0.0
  0
LINE
  5
24F
330
157
100
AcDbEntity
  8
0
  6
CONTINUOUS
 62
     7
100
AcDbLine
 10
223.919836
 20
72.020068
 30
0.0
 11
223.917437
 21
72.020014
 31
0.0
  0
LINE
  5
250
330
157
100
AcDbEntity
  8
0
  6
CONTINUOUS
 62
     7
100
AcDbLine
 10
223.917437
 20
72.020014
 30
0.0
 11
223.915036
 21
72.019961
 31
0.0
  0
LINE
  5
251
330
157
100
AcDbEntity
  8
0
  6
CONTINUOUS
 62
     7
100
AcDbLine
 10
223.915036
 20
72.019961
 30
0.0
 11
223.912632
 21
72.019908
 31
0.0
  0
LINE
  5
252
330
157
100
AcDbEntity
  8
0
  6
CONTINUOUS
 62
     7
100
AcDbLine
 10
223.912632
 20
72.019908
 30
0.0
 11
223.910227
 21
72.019856
 31
0.0
  0
LINE
  5
253
330
157
100
AcDbEntity
  8
0
  6
CONTINUOUS
 62
     7
100
AcDbLine
 10
223.910227
 20
72.019856
 30
0.0
 11
223.90782
 21
72.019805
 31
0.0
  0
LINE
  5
254
330
157
100
AcDbEntity
  8
0
  6
CONTINUOUS
 62
     7
100
AcDbLine
 10
223.90782
 20
72.019805
 30
0.0
 11
223.905411
 21
72.019754
 31
0.0
  0
LINE
  5
255
330
157
100
AcDbEntity
  8
0
  6
CONTINUOUS
 62
     7
100
AcDbLine
 10
223.905411
 20
72.019754
 30
0.0
 11
223.903
 21
72.019704
 31
0.0
  0
LINE
  5
256
330
157
100
AcDbEntity
  8
0
  6
CONTINUOUS
 62
     7
100
AcDbLine
 10
223.903
 20
72.019704
 30
0.0
 11
223.900587
 21
72.019656
 31
0.0
  0
LINE
  5
257
330
157
100
AcDbEntity
  8
0
  6
CONTINUOUS
 62
     7
100
AcDbLine
 10
223.900587
 20
72.019656
 30
0.0
 11
223.898172
 21
72.019607
 31
0.0
  0
LINE
  5
258
330
157
100
AcDbEntity
  8
0
  6
CONTINUOUS
 62
     7
100
AcDbLine
 10
223.898172
 20
72.019607
 30
0.0
 11
223.895756
 21
72.01956
 31
0.0
  0
LINE
  5
259
330
157
100
AcDbEntity
  8
0
  6
CONTINUOUS
 62
     7
100
AcDbLine
 10
223.895756
 20
72.01956
 30
0.0
 11
223.893337
 21
72.019514
 31
0.0
  0
LINE
  5
25A
330
157
100
AcDbEntity
  8
0
  6
CONTINUOUS
 62
     7
100
AcDbLine
 10
223.893337
 20
72.019514
 30
0.0
 11
223.890917
 21
72.019468
 31
0.0
  0
LINE
  5
25B
330
157
100
AcDbEntity
  8
0
  6
CONTINUOUS
 62
     7
100
AcDbLine
 10
223.890917
 20
72.019468
 30
0.0
 11
223.888496
 21
72.019423
 31
0.0
  0
LINE
  5
25C
330
157
100
AcDbEntity
  8
0
  6
CONTINUOUS
 62
     7
100
AcDbLine
 10
223.888496
 20
72.019423
 30
0.0
 11
223.886072
 21
72.019379
 31
0.0
  0
LINE
  5
25D
330
157
100
AcDbEntity
  8
0
  6
CONTINUOUS
 62
     7
100
AcDbLine
 10
223.886072
 20
72.019379
 30
0.0
 11
223.883647
 21
72.019335
 31
0.0
  0
LINE
  5
25E
330
157
100
AcDbEntity
  8
0
  6
CONTINUOUS
 62
     7
100
AcDbLine
 10
223.883647
 20
72.019335
 30
0.0
 11
223.88122
 21
72.019293
 31
0.0
  0
LINE
  5
25F
330
157
100
AcDbEntity
  8
0
  6
CONTINUOUS
 62
     7
100
AcDbLine
 10
223.88122
 20
72.019293
 30
0.0
 11
223.878792
 21
72.019251
 31
0.0
  0
LINE
  5
260
330
157
100
AcDbEntity
  8
0
  6
CONTINUOUS
 62
     7
100
AcDbLine
 10
223.878792
 20
72.019251
 30
0.0
 11
223.876362
 21
72.01921
 31
0.0
  0
LINE
  5
261
330
157
100
AcDbEntity
  8
0
  6
CONTINUOUS
 62
     7
100
AcDbLine
 10
223.876362
 20
72.01921
 30
0.0
 11
223.873931
 21
72.019171
 31
0.0
  0
LINE
  5
262
330
157
100
AcDbEntity
  8
0
  6
CONTINUOUS
 62
     7
100
AcDbLine
 10
223.873931
 20
72.019171
 30
0.0
 11
223.871436
 21
72.01913
 31
0.0
  0
LINE
  5
263
330
157
100
AcDbEntity
  8
0
  6
CONTINUOUS
 62
     7
100
AcDbLine
 10
223.871436
 20
72.01913
 30
0.0
 11
223.86894
 21
72.019091
 31
0.0
  0
LINE
  5
264
330
157
100
AcDbEntity
  8
0
  6
CONTINUOUS
 62
     7
100
AcDbLine
 10
223.86894
 20
72.019091
 30
0.0
 11
223.866442
 21
72.019053
 31
0.0
  0
LINE
  5
265
330
157
100
AcDbEntity
  8
0
  6
CONTINUOUS
 62
     7
100
AcDbLine
 10
223.866442
 20
72.019053
 30
0.0
 11
223.863942
 21
72.019015
 31
0.0
  0
LINE
  5
266
330
157
100
AcDbEntity
  8
0
  6
CONTINUOUS
 62
     7
100
AcDbLine
 10
223.863942
 20
72.019015
 30
0.0
 11
223.861442
 21
72.018979
 31
0.0
  0
LINE
  5
267
330
157
100
AcDbEntity
  8
0
  6
CONTINUOUS
 62
     7
100
AcDbLine
 10
223.861442
 20
72.018979
 30
0.0
 11
223.858939
 21
72.018943
 31
0.0
  0
LINE
  5
268
330
157
100
AcDbEntity
  8
0
  6
CONTINUOUS
 62
     7
100
AcDbLine
 10
223.858939
 20
72.018943
 30
0.0
 11
223.856436
 21
72.018908
 31
0.0
  0
LINE
  5
269
330
157
100
AcDbEntity
  8
0
  6
CONTINUOUS
 62
     7
100
AcDbLine
 10
223.856436
 20
72.018908
 30
0.0
 11
223.85393
 21
72.018873
 31
0.0
  0
LINE
  5
26A
330
157
100
AcDbEntity
  8
0
  6
CONTINUOUS
 62
     7
100
AcDbLine
 10
223.85393
 20
72.018873
 30
0.0
 11
223.851424
 21
72.01884
 31
0.0
  0
LINE
  5
26B
330
157
100
AcDbEntity
  8
0
  6
CONTINUOUS
 62
     7
100
AcDbLine
 10
223.851424
 20
72.01884
 30
0.0
 11
223.848916
 21
72.018807
 31
0.0
  0
LINE
  5
26C
330
157
100
AcDbEntity
  8
0
  6
CONTINUOUS
 62
     7
100
AcDbLine
 10
223.848916
 20
72.018807
 30
0.0
 11
223.846407
 21
72.018775
 31
0.0
  0
LINE
  5
26D
330
157
100
AcDbEntity
  8
0
  6
CONTINUOUS
 62
     7
100
AcDbLine
 10
223.846407
 20
72.018775
 30
0.0
 11
223.843896
 21
72.018744
 31
0.0
  0
LINE
  5
26E
330
157
100
AcDbEntity
  8
0
  6
CONTINUOUS
 62
     7
100
AcDbLine
 10
223.843896
 20
72.018744
 30
0.0
 11
223.841384
 21
72.018714
 31
0.0
  0
LINE
  5
26F
330
157
100
AcDbEntity
  8
0
  6
CONTINUOUS
 62
     7
100
AcDbLine
 10
223.841384
 20
72.018714
 30
0.0
 11
223.838871
 21
72.018684
 31
0.0
  0
LINE
  5
270
330
157
100
AcDbEntity
  8
0
  6
CONTINUOUS
 62
     7
100
AcDbLine
 10
223.838871
 20
72.018684
 30
0.0
 11
223.836357
 21
72.018655
 31
0.0
  0
LINE
  5
271
330
157
100
AcDbEntity
  8
0
  6
CONTINUOUS
 62
     7
100
AcDbLine
 10
223.836357
 20
72.018655
 30
0.0
 11
223.833841
 21
72.018626
 31
0.0
  0
LINE
  5
272
330
157
100
AcDbEntity
  8
0
  6
CONTINUOUS
 62
     7
100
AcDbLine
 10
223.833841
 20
72.018626
 30
0.0
 11
223.831325
 21
72.018599
 31
0.0
  0
LINE
  5
273
330
157
100
AcDbEntity
  8
0
  6
CONTINUOUS
 62
     7
100
AcDbLine
 10
223.831325
 20
72.018599
 30
0.0
 11
223.828807
 21
72.018571
 31
0.0
  0
LINE
  5
274
330
157
100
AcDbEntity
  8
0
  6
CONTINUOUS
 62
     7
100
AcDbLine
 10
223.828807
 20
72.018571
 30
0.0
 11
223.826288
 21
72.018545
 31
0.0
  0
LINE
  5
275
330
157
100
AcDbEntity
  8
0
  6
CONTINUOUS
 62
     7
100
AcDbLine
 10
223.826288
 20
72.018545
 30
0.0
 11
223.823768
 21
72.018519
 31
0.0
  0
LINE
  5
276
330
157
100
AcDbEntity
  8
0
  6
CONTINUOUS
 62
     7
100
AcDbLine
 10
223.823768
 20
72.018519
 30
0.0
 11
223.821247
 21
72.018494
 31
0.0
  0
LINE
  5
277
330
157
100
AcDbEntity
  8
0
  6
CONTINUOUS
 62
     7
100
AcDbLine
 10
223.821247
 20
72.018494
 30
0.0
 11
223.818724
 21
72.018469
 31
0.0
  0
LINE
  5
278
330
157
100
AcDbEntity
  8
0
  6
CONTINUOUS
 62
     7
100
AcDbLine
 10
223.818724
 20
72.018469
 30
0.0
 11
223.816201
 21
72.018445
 31
0.0
  0
LINE
  5
279
330
157
100
AcDbEntity
  8
0
  6
CONTINUOUS
 62
     7
100
AcDbLine
 10
223.816201
 20
72.018445
 30
0.0
 11
223.813677
 21
72.018422
 31
0.0
  0
LINE
  5
27A
330
157
100
AcDbEntity
  8
0
  6
CONTINUOUS
 62
     7
100
AcDbLine
 10
223.813677
 20
72.018422
 30
0.0
 11
223.811151
 21
72.018399
 31
0.0
  0
LINE
  5
27B
330
157
100
AcDbEntity
  8
0
  6
CONTINUOUS
 62
     7
100
AcDbLine
 10
223.811151
 20
72.018399
 30
0.0
 11
223.808625
 21
72.018377
 31
0.0
  0
LINE
  5
27C
330
157
100
AcDbEntity
  8
0
  6
CONTINUOUS
 62
     7
100
AcDbLine
 10
223.808625
 20
72.018377
 30
0.0
 11
223.806098
 21
72.018355
 31
0.0
  0
LINE
  5
27D
330
157
100
AcDbEntity
  8
0
  6
CONTINUOUS
 62
     7
100
AcDbLine
 10
223.806098
 20
72.018355
 30
0.0
 11
223.80357
 21
72.018334
 31
0.0
  0
LINE
  5
27E
330
157
100
AcDbEntity
  8
0
  6
CONTINUOUS
 62
     7
100
AcDbLine
 10
223.80357
 20
72.018334
 30
0.0
 11
223.801041
 21
72.018313
 31
0.0
  0
LINE
  5
27F
330
157
100
AcDbEntity
  8
0
  6
CONTINUOUS
 62
     7
100
AcDbLine
 10
223.801041
 20
72.018313
 30
0.0
 11
223.798511
 21
72.018292
 31
0.0
  0
LINE
  5
280
330
157
100
AcDbEntity
  8
0
  6
CONTINUOUS
 62
     7
100
AcDbLine
 10
223.798511
 20
72.018292
 30
0.0
 11
223.79598
 21
72.018273
 31
0.0
  0
LINE
  5
281
330
157
100
AcDbEntity
  8
0
  6
CONTINUOUS
 62
     7
100
AcDbLine
 10
223.79598
 20
72.018273
 30
0.0
 11
223.793448
 21
72.018253
 31
0.0
  0
LINE
  5
282
330
157
100
AcDbEntity
  8
0
  6
CONTINUOUS
 62
     7
100
AcDbLine
 10
223.793448
 20
72.018253
 30
0.0
 11
223.790916
 21
72.018234
 31
0.0
  0
LINE
  5
283
330
157
100
AcDbEntity
  8
0
  6
CONTINUOUS
 62
     7
100
AcDbLine
 10
223.790916
 20
72.018234
 30
0.0
 11
223.788383
 21
72.018216
 31
0.0
  0
LINE
  5
284
330
157
100
AcDbEntity
  8
0
  6
CONTINUOUS
 62
     7
100
AcDbLine
 10
223.788383
 20
72.018216
 30
0.0
 11
223.785849
 21
72.018198
 31
0.0
  0
LINE
  5
285
330
157
100
AcDbEntity
  8
0
  6
CONTINUOUS
 62
     7
100
AcDbLine
 10
223.785849
 20
72.018198
 30
0.0
 11
223.783315
 21
72.01818
 31
0.0
  0
LINE
  5
286
330
157
100
AcDbEntity
  8
0
  6
CONTINUOUS
 62
     7
100
AcDbLine
 10
223.783315
 20
72.01818
 30
0.0
 11
223.780779
 21
72.018163
 31
0.0
  0
LINE
  5
287
330
157
100
AcDbEntity
  8
0
  6
CONTINUOUS
 62
     7
100
AcDbLine
 10
223.780779
 20
72.018163
 30
0.0
 11
223.778243
 21
72.018146
 31
0.0
  0
LINE
  5
288
330
157
100
AcDbEntity
  8
0
  6
CONTINUOUS
 62
     7
100
AcDbLine
 10
223.778243
 20
72.018146
 30
0.0
 11
223.775707
 21
72.018129
 31
0.0
  0
LINE
  5
289
330
157
100
AcDbEntity
  8
0
  6
CONTINUOUS
 62
     7
100
AcDbLine
 10
223.775707
 20
72.018129
 30
0.0
 11
223.77317
 21
72.018113
 31
0.0
  0
LINE
  5
28A
330
157
100
AcDbEntity
  8
0
  6
CONTINUOUS
 62
     7
100
AcDbLine
 10
223.77317
 20
72.018113
 30
0.0
 11
223.768094
 21
72.018082
 31
0.0
  0
LINE
  5
28B
330
157
100
AcDbEntity
  8
0
  6
CONTINUOUS
 62
     7
100
AcDbLine
 10
223.768094
 20
72.018082
 30
0.0
 11
223.763015
 21
72.018051
 31
0.0
  0
LINE
  5
28C
330
157
100
AcDbEntity
  8
0
  6
CONTINUOUS
 62
     7
100
AcDbLine
 10
223.763015
 20
72.018051
 30
0.0
 11
223.757935
 21
72.018022
 31
0.0
  0
LINE
  5
28D
330
157
100
AcDbEntity
  8
0
  6
CONTINUOUS
 62
     7
100
AcDbLine
 10
223.757935
 20
72.018022
 30
0.0
 11
223.752853
 21
72.017994
 31
0.0
  0
LINE
  5
28E
330
157
100
AcDbEntity
  8
0
  6
CONTINUOUS
 62
     7
100
AcDbLine
 10
223.752853
 20
72.017994
 30
0.0
 11
223.747769
 21
72.017967
 31
0.0
  0
LINE
  5
28F
330
157
100
AcDbEntity
  8
0
  6
CONTINUOUS
 62
     7
100
AcDbLine
 10
223.747769
 20
72.017967
 30
0.0
 11
223.742684
 21
72.017941
 31
0.0
  0
LINE
  5
290
330
157
100
AcDbEntity
  8
0
  6
CONTINUOUS
 62
     7
100
AcDbLine
 10
223.742684
 20
72.017941
 30
0.0
 11
223.737598
 21
72.017915
 31
0.0
  0
LINE
  5
291
330
157
100
AcDbEntity
  8
0
  6
CONTINUOUS
 62
     7
100
AcDbLine
 10
223.737598
 20
72.017915
 30
0.0
 11
223.732511
 21
72.01789
 31
0.0
  0
LINE
  5
292
330
157
100
AcDbEntity
  8
0
  6
CONTINUOUS
 62
     7
100
AcDbLine
 10
223.732511
 20
72.01789
 30
0.0
 11
223.727423
 21
72.017865
 31
0.0
  0
LINE
  5
293
330
157
100
AcDbEntity
  8
0
  6
CONTINUOUS
 62
     7
100
AcDbLine
 10
223.727423
 20
72.017865
 30
0.0
 11
223.722334
 21
72.01784
 31
0.0
  0
LINE
  5
294
330
157
100
AcDbEntity
  8
0
  6
CONTINUOUS
 62
     7
100
AcDbLine
 10
223.722334
 20
72.01784
 30
0.0
 11
223.712156
 21
72.017792
 31
0.0
  0
ENDBLK
  5
159
330
157
100
AcDbEntity
  8
0
100
AcDbBlockEnd
  0
BLOCK
  5
296
330
295
100
AcDbEntity
  8
0
100
AcDbBlockBegin
  2
BLKF017
 70
     0
 71
     0
 10
0.0
 20
0.0
 30
0.0
  3
BLKF017
  1

  0
LINE
  5
299
330
295
100
AcDbEntity
  8
0
  6
CONTINUOUS
 62
     7
100
AcDbLine
 10
222.878287
 20
53.155404
 30
0.0
 11
222.878205
 21
53.155397
 31
0.0
  0
LINE
  5
29A
330
295
100
AcDbEntity
  8
0
  6
CONTINUOUS
 62
     7
100
AcDbLine
 10
222.878205
 20
53.155397
 30
0.0
 11
222.893829
 21
53.156828
 31
0.0
  0
LINE
  5
29B
330
295
100
AcDbEntity
  8
0
  6
CONTINUOUS
 62
     7
100
AcDbLine
 10
222.893829
 20
53.156828
 30
0.0
 11
222.940716
 21
53.160727
 31
0.0
  0
LINE
  5
29C
330
295
100
AcDbEntity
  8
0
  6
CONTINUOUS
 62
     7
100
AcDbLine
 10
222.940716
 20
53.160727
 30
0.0
 11
223.128239
 21
53.173889
 31
0.0
  0
LINE
  5
29D
330
295
100
AcDbEntity
  8
0
  6
CONTINUOUS
 62
     7
100
AcDbLine
 10
223.128239
 20
53.173889
 30
0.0
 11
223.398979
 21
53.187588
 31
0.0
  0
LINE
  5
29E
330
295
100
AcDbEntity
  8
0
  6
CONTINUOUS
 62
     7
100
AcDbLine
 10
223.398979
 20
53.187588
 30
0.0
 11
223.550412
 21
53.191605
 31
0.0
  0
LINE
  5
29F
330
295
100
AcDbEntity
  8
0
  6
CONTINUOUS
 62
     7
100
AcDbLine
 10
223.550412
 20
53.191605
 30
0.0
 11
223.712551
 21
53.193001
 31
0.0
  0
LINE
  5
2A0
330
295
100
AcDbEntity
  8
0
  6
CONTINUOUS
 62
     7
100
AcDbLine
 10
223.712551
 20
53.193001
 30
0.0
 11
223.874184
 21
53.191609
 31
0.0
  0
LINE
  5
2A1
330
295
100
AcDbEntity
  8
0
  6
CONTINUOUS
 62
     7
100
AcDbLine
 10
223.874184
 20
53.191609
 30
0.0
 11
224.025409
 21
53.18758
 31
0.0
  0
LINE
  5
2A2
330
295
100
AcDbEntity
  8
0
  6
CONTINUOUS
 62
     7
100
AcDbLine
 10
224.025409
 20
53.18758
 30
0.0
 11
224.29661
 21
53.173826
 31
0.0
  0
LINE
  5
2A3
330
295
100
AcDbEntity
  8
0
  6
CONTINUOUS
 62
     7
100
AcDbLine
 10
224.29661
 20
53.173826
 30
0.0
 11
224.483791
 21
53.160696
 31
0.0
  0
LINE
  5
2A4
330
295
100
AcDbEntity
  8
0
  6
CONTINUOUS
 62
     7
100
AcDbLine
 10
224.483791
 20
53.160696
 30
0.0
 11
224.530558
 21
53.156812
 31
0.0
  0
LINE
  5
2A5
330
295
100
AcDbEntity
  8
0
  6
CONTINUOUS
 62
     7
100
AcDbLine
 10
224.530558
 20
53.156812
 30
0.0
 11
224.546115
 21
53.155397
 31
0.0
  0
ENDBLK
  5
297
330
295
100
AcDbEntity
  8
0
100
AcDbBlockEnd
  0
BLOCK
  5
2AA
330
2A9
100
AcDbEntity
  8
0
100
AcDbBlockBegin
  2
BLKF018
 70
     0
 71
     0
 10
0.0
 20
0.0
 30
0.0
  3
BLKF018
  1

  0
LINE
  5
2AD
330
2A9
100
AcDbEntity
  8
0
  6
CONTINUOUS
 62
     7
100
AcDbLine
 10
145.288547
 20
72.038259
 30
0.0
 11
145.311261
 21
72.036898
 31
0.0
  0
LINE
  5
2AE
330
2A9
100
AcDbEntity
  8
0
  6
CONTINUOUS
 62
     7
100
AcDbLine
 10
145.311261
 20
72.036898
 30
0.0
 11
145.334156
 21
72.035557
 31
0.0
  0
LINE
  5
2AF
330
2A9
100
AcDbEntity
  8
0
  6
CONTINUOUS
 62
     7
100
AcDbLine
 10
145.334156
 20
72.035557
 30
0.0
 11
145.345728
 21
72.034901
 31
0.0
  0
LINE
  5
2B0
330
2A9
100
AcDbEntity
  8
0
  6
CONTINUOUS
 62
     7
100
AcDbLine
 10
145.345728
 20
72.034901
 30
0.0
 11
145.357413
 21
72.034259
 31
0.0
  0
LINE
  5
2B1
330
2A9
100
AcDbEntity
  8
0
  6
CONTINUOUS
 62
     7
100
AcDbLine
 10
145.357413
 20
72.034259
 30
0.0
 11
145.369233
 21
72.033631
 31
0.0
  0
LINE
  5
2B2
330
2A9
100
AcDbEntity
  8
0
  6
CONTINUOUS
 62
     7
100
AcDbLine
 10
145.369233
 20
72.033631
 30
0.0
 11
145.381212
 21
72.033022
 31
0.0
  0
LINE
  5
2B3
330
2A9
100
AcDbEntity
  8
0
  6
CONTINUOUS
 62
     7
100
AcDbLine
 10
145.381212
 20
72.033022
 30
0.0
 11
145.393372
 21
72.032434
 31
0.0
  0
LINE
  5
2B4
330
2A9
100
AcDbEntity
  8
0
  6
CONTINUOUS
 62
     7
100
AcDbLine
 10
145.393372
 20
72.032434
 30
0.0
 11
145.405735
 21
72.031869
 31
0.0
  0
LINE
  5
2B5
330
2A9
100
AcDbEntity
  8
0
  6
CONTINUOUS
 62
     7
100
AcDbLine
 10
145.405735
 20
72.031869
 30
0.0
 11
145.418324
 21
72.031329
 31
0.0
  0
LINE
  5
2B6
330
2A9
100
AcDbEntity
  8
0
  6
CONTINUOUS
 62
     7
100
AcDbLine
 10
145.418324
 20
72.031329
 30
0.0
 11
145.431161
 21
72.030819
 31
0.0
  0
LINE
  5
2B7
330
2A9
100
AcDbEntity
  8
0
  6
CONTINUOUS
 62
     7
100
AcDbLine
 10
145.431161
 20
72.030819
 30
0.0
 11
145.44427
 21
72.03034
 31
0.0
  0
LINE
  5
2B8
330
2A9
100
AcDbEntity
  8
0
  6
CONTINUOUS
 62
     7
100
AcDbLine
 10
145.44427
 20
72.03034
 30
0.0
 11
145.457673
 21
72.029894
 31
0.0
  0
LINE
  5
2B9
330
2A9
100
AcDbEntity
  8
0
  6
CONTINUOUS
 62
     7
100
AcDbLine
 10
145.457673
 20
72.029894
 30
0.0
 11
145.471393
 21
72.029485
 31
0.0
  0
LINE
  5
2BA
330
2A9
100
AcDbEntity
  8
0
  6
CONTINUOUS
 62
     7
100
AcDbLine
 10
145.471393
 20
72.029485
 30
0.0
 11
145.485451
 21
72.029114
 31
0.0
  0
LINE
  5
2BB
330
2A9
100
AcDbEntity
  8
0
  6
CONTINUOUS
 62
     7
100
AcDbLine
 10
145.485451
 20
72.029114
 30
0.0
 11
145.493629
 21
72.028919
 31
0.0
  0
ENDBLK
  5
2AB
330
2A9
100
AcDbEntity
  8
0
100
AcDbBlockEnd
  0
BLOCK
  5
2BD
330
2BC
100
AcDbEntity
  8
0
100
AcDbBlockBegin
  2
BLKF019
 70
     0
 71
     0
 10
0.0
 20
0.0
 30
0.0
  3
BLKF019
  1

  0
LINE
  5
2C0
330
2BC
100
AcDbEntity
  8
0
  6
CONTINUOUS
 62
     7
100
AcDbLine
 10
146.684352
 20
72.055176
 30
0.0
 11
146.686963
 21
72.055381
 31
0.0
  0
LINE
  5
2C1
330
2BC
100
AcDbEntity
  8
0
  6
CONTINUOUS
 62
     7
100
AcDbLine
 10
146.686963
 20
72.055381
 30
0.0
 11
146.688791
 21
72.055515
 31
0.0
  0
LINE
  5
2C2
330
2BC
100
AcDbEntity
  8
0
  6
CONTINUOUS
 62
     7
100
AcDbLine
 10
146.688791
 20
72.055515
 30
0.0
 11
146.679461
 21
72.054771
 31
0.0
  0
LINE
  5
2C3
330
2BC
100
AcDbEntity
  8
0
  6
CONTINUOUS
 62
     7
100
AcDbLine
 10
146.679461
 20
72.054771
 30
0.0
 11
146.661773
 21
72.053388
 31
0.0
  0
LINE
  5
2C4
330
2BC
100
AcDbEntity
  8
0
  6
CONTINUOUS
 62
     7
100
AcDbLine
 10
146.661773
 20
72.053388
 30
0.0
 11
146.650668
 21
72.052531
 31
0.0
  0
LINE
  5
2C5
330
2BC
100
AcDbEntity
  8
0
  6
CONTINUOUS
 62
     7
100
AcDbLine
 10
146.650668
 20
72.052531
 30
0.0
 11
146.638523
 21
72.051605
 31
0.0
  0
LINE
  5
2C6
330
2BC
100
AcDbEntity
  8
0
  6
CONTINUOUS
 62
     7
100
AcDbLine
 10
146.638523
 20
72.051605
 30
0.0
 11
146.625607
 21
72.050632
 31
0.0
  0
LINE
  5
2C7
330
2BC
100
AcDbEntity
  8
0
  6
CONTINUOUS
 62
     7
100
AcDbLine
 10
146.625607
 20
72.050632
 30
0.0
 11
146.611942
 21
72.04962
 31
0.0
  0
LINE
  5
2C8
330
2BC
100
AcDbEntity
  8
0
  6
CONTINUOUS
 62
     7
100
AcDbLine
 10
146.611942
 20
72.04962
 30
0.0
 11
146.59747
 21
72.048568
 31
0.0
  0
LINE
  5
2C9
330
2BC
100
AcDbEntity
  8
0
  6
CONTINUOUS
 62
     7
100
AcDbLine
 10
146.59747
 20
72.048568
 30
0.0
 11
146.582134
 21
72.047478
 31
0.0
  0
LINE
  5
2CA
330
2BC
100
AcDbEntity
  8
0
  6
CONTINUOUS
 62
     7
100
AcDbLine
 10
146.582134
 20
72.047478
 30
0.0
 11
146.574124
 21
72.046919
 31
0.0
  0
LINE
  5
2CB
330
2BC
100
AcDbEntity
  8
0
  6
CONTINUOUS
 62
     7
100
AcDbLine
 10
146.574124
 20
72.046919
 30
0.0
 11
146.565877
 21
72.04635
 31
0.0
  0
LINE
  5
2CC
330
2BC
100
AcDbEntity
  8
0
  6
CONTINUOUS
 62
     7
100
AcDbLine
 10
146.565877
 20
72.04635
 30
0.0
 11
146.557385
 21
72.045773
 31
0.0
  0
LINE
  5
2CD
330
2BC
100
AcDbEntity
  8
0
  6
CONTINUOUS
 62
     7
100
AcDbLine
 10
146.557385
 20
72.045773
 30
0.0
 11
146.548642
 21
72.045186
 31
0.0
  0
LINE
  5
2CE
330
2BC
100
AcDbEntity
  8
0
  6
CONTINUOUS
 62
     7
100
AcDbLine
 10
146.548642
 20
72.045186
 30
0.0
 11
146.53964
 21
72.044589
 31
0.0
  0
LINE
  5
2CF
330
2BC
100
AcDbEntity
  8
0
  6
CONTINUOUS
 62
     7
100
AcDbLine
 10
146.53964
 20
72.044589
 30
0.0
 11
146.530371
 21
72.043984
 31
0.0
  0
LINE
  5
2D0
330
2BC
100
AcDbEntity
  8
0
  6
CONTINUOUS
 62
     7
100
AcDbLine
 10
146.530371
 20
72.043984
 30
0.0
 11
146.520829
 21
72.04337
 31
0.0
  0
LINE
  5
2D1
330
2BC
100
AcDbEntity
  8
0
  6
CONTINUOUS
 62
     7
100
AcDbLine
 10
146.520829
 20
72.04337
 30
0.0
 11
146.511007
 21
72.042747
 31
0.0
  0
LINE
  5
2D2
330
2BC
100
AcDbEntity
  8
0
  6
CONTINUOUS
 62
     7
100
AcDbLine
 10
146.511007
 20
72.042747
 30
0.0
 11
146.500599
 21
72.042097
 31
0.0
  0
LINE
  5
2D3
330
2BC
100
AcDbEntity
  8
0
  6
CONTINUOUS
 62
     7
100
AcDbLine
 10
146.500599
 20
72.042097
 30
0.0
 11
146.489895
 21
72.041438
 31
0.0
  0
LINE
  5
2D4
330
2BC
100
AcDbEntity
  8
0
  6
CONTINUOUS
 62
     7
100
AcDbLine
 10
146.489895
 20
72.041438
 30
0.0
 11
146.478903
 21
72.040773
 31
0.0
  0
LINE
  5
2D5
330
2BC
100
AcDbEntity
  8
0
  6
CONTINUOUS
 62
     7
100
AcDbLine
 10
146.478903
 20
72.040773
 30
0.0
 11
146.467633
 21
72.040103
 31
0.0
  0
LINE
  5
2D6
330
2BC
100
AcDbEntity
  8
0
  6
CONTINUOUS
 62
     7
100
AcDbLine
 10
146.467633
 20
72.040103
 30
0.0
 11
146.456094
 21
72.039429
 31
0.0
  0
LINE
  5
2D7
330
2BC
100
AcDbEntity
  8
0
  6
CONTINUOUS
 62
     7
100
AcDbLine
 10
146.456094
 20
72.039429
 30
0.0
 11
146.444293
 21
72.038753
 31
0.0
  0
LINE
  5
2D8
330
2BC
100
AcDbEntity
  8
0
  6
CONTINUOUS
 62
     7
100
AcDbLine
 10
146.444293
 20
72.038753
 30
0.0
 11
146.432241
 21
72.038075
 31
0.0
  0
LINE
  5
2D9
330
2BC
100
AcDbEntity
  8
0
  6
CONTINUOUS
 62
     7
100
AcDbLine
 10
146.432241
 20
72.038075
 30
0.0
 11
146.419944
 21
72.037398
 31
0.0
  0
LINE
  5
2DA
330
2BC
100
AcDbEntity
  8
0
  6
CONTINUOUS
 62
     7
100
AcDbLine
 10
146.419944
 20
72.037398
 30
0.0
 11
146.407413
 21
72.036722
 31
0.0
  0
LINE
  5
2DB
330
2BC
100
AcDbEntity
  8
0
  6
CONTINUOUS
 62
     7
100
AcDbLine
 10
146.407413
 20
72.036722
 30
0.0
 11
146.394657
 21
72.036049
 31
0.0
  0
LINE
  5
2DC
330
2BC
100
AcDbEntity
  8
0
  6
CONTINUOUS
 62
     7
100
AcDbLine
 10
146.394657
 20
72.036049
 30
0.0
 11
146.381682
 21
72.035381
 31
0.0
  0
LINE
  5
2DD
330
2BC
100
AcDbEntity
  8
0
  6
CONTINUOUS
 62
     7
100
AcDbLine
 10
146.381682
 20
72.035381
 30
0.0
 11
146.3685
 21
72.034718
 31
0.0
  0
LINE
  5
2DE
330
2BC
100
AcDbEntity
  8
0
  6
CONTINUOUS
 62
     7
100
AcDbLine
 10
146.3685
 20
72.034718
 30
0.0
 11
146.355117
 21
72.034063
 31
0.0
  0
LINE
  5
2DF
330
2BC
100
AcDbEntity
  8
0
  6
CONTINUOUS
 62
     7
100
AcDbLine
 10
146.355117
 20
72.034063
 30
0.0
 11
146.341544
 21
72.033416
 31
0.0
  0
LINE
  5
2E0
330
2BC
100
AcDbEntity
  8
0
  6
CONTINUOUS
 62
     7
100
AcDbLine
 10
146.341544
 20
72.033416
 30
0.0
 11
146.327788
 21
72.032778
 31
0.0
  0
LINE
  5
2E1
330
2BC
100
AcDbEntity
  8
0
  6
CONTINUOUS
 62
     7
100
AcDbLine
 10
146.327788
 20
72.032778
 30
0.0
 11
146.313859
 21
72.032152
 31
0.0
  0
LINE
  5
2E2
330
2BC
100
AcDbEntity
  8
0
  6
CONTINUOUS
 62
     7
100
AcDbLine
 10
146.313859
 20
72.032152
 30
0.0
 11
146.299189
 21
72.031514
 31
0.0
  0
LINE
  5
2E3
330
2BC
100
AcDbEntity
  8
0
  6
CONTINUOUS
 62
     7
100
AcDbLine
 10
146.299189
 20
72.031514
 30
0.0
 11
146.284346
 21
72.03089
 31
0.0
  0
LINE
  5
2E4
330
2BC
100
AcDbEntity
  8
0
  6
CONTINUOUS
 62
     7
100
AcDbLine
 10
146.284346
 20
72.03089
 30
0.0
 11
146.269337
 21
72.030281
 31
0.0
  0
LINE
  5
2E5
330
2BC
100
AcDbEntity
  8
0
  6
CONTINUOUS
 62
     7
100
AcDbLine
 10
146.269337
 20
72.030281
 30
0.0
 11
146.254167
 21
72.029689
 31
0.0
  0
LINE
  5
2E6
330
2BC
100
AcDbEntity
  8
0
  6
CONTINUOUS
 62
     7
100
AcDbLine
 10
146.254167
 20
72.029689
 30
0.0
 11
146.238842
 21
72.029113
 31
0.0
  0
LINE
  5
2E7
330
2BC
100
AcDbEntity
  8
0
  6
CONTINUOUS
 62
     7
100
AcDbLine
 10
146.238842
 20
72.029113
 30
0.0
 11
146.223368
 21
72.028555
 31
0.0
  0
LINE
  5
2E8
330
2BC
100
AcDbEntity
  8
0
  6
CONTINUOUS
 62
     7
100
AcDbLine
 10
146.223368
 20
72.028555
 30
0.0
 11
146.20775
 21
72.028015
 31
0.0
  0
LINE
  5
2E9
330
2BC
100
AcDbEntity
  8
0
  6
CONTINUOUS
 62
     7
100
AcDbLine
 10
146.20775
 20
72.028015
 30
0.0
 11
146.191995
 21
72.027494
 31
0.0
  0
LINE
  5
2EA
330
2BC
100
AcDbEntity
  8
0
  6
CONTINUOUS
 62
     7
100
AcDbLine
 10
146.191995
 20
72.027494
 30
0.0
 11
146.176108
 21
72.026994
 31
0.0
  0
LINE
  5
2EB
330
2BC
100
AcDbEntity
  8
0
  6
CONTINUOUS
 62
     7
100
AcDbLine
 10
146.176108
 20
72.026994
 30
0.0
 11
146.160095
 21
72.026514
 31
0.0
  0
LINE
  5
2EC
330
2BC
100
AcDbEntity
  8
0
  6
CONTINUOUS
 62
     7
100
AcDbLine
 10
146.160095
 20
72.026514
 30
0.0
 11
146.143962
 21
72.026056
 31
0.0
  0
LINE
  5
2ED
330
2BC
100
AcDbEntity
  8
0
  6
CONTINUOUS
 62
     7
100
AcDbLine
 10
146.143962
 20
72.026056
 30
0.0
 11
146.127715
 21
72.02562
 31
0.0
  0
LINE
  5
2EE
330
2BC
100
AcDbEntity
  8
0
  6
CONTINUOUS
 62
     7
100
AcDbLine
 10
146.127715
 20
72.02562
 30
0.0
 11
146.11136
 21
72.025208
 31
0.0
  0
LINE
  5
2EF
330
2BC
100
AcDbEntity
  8
0
  6
CONTINUOUS
 62
     7
100
AcDbLine
 10
146.11136
 20
72.025208
 30
0.0
 11
146.094902
 21
72.02482
 31
0.0
  0
LINE
  5
2F0
330
2BC
100
AcDbEntity
  8
0
  6
CONTINUOUS
 62
     7
100
AcDbLine
 10
146.094902
 20
72.02482
 30
0.0
 11
146.086637
 21
72.024635
 31
0.0
  0
LINE
  5
2F1
330
2BC
100
AcDbEntity
  8
0
  6
CONTINUOUS
 62
     7
100
AcDbLine
 10
146.086637
 20
72.024635
 30
0.0
 11
146.078348
 21
72.024456
 31
0.0
  0
LINE
  5
2F2
330
2BC
100
AcDbEntity
  8
0
  6
CONTINUOUS
 62
     7
100
AcDbLine
 10
146.078348
 20
72.024456
 30
0.0
 11
146.070036
 21
72.024284
 31
0.0
  0
LINE
  5
2F3
330
2BC
100
AcDbEntity
  8
0
  6
CONTINUOUS
 62
     7
100
AcDbLine
 10
146.070036
 20
72.024284
 30
0.0
 11
146.061703
 21
72.024119
 31
0.0
  0
LINE
  5
2F4
330
2BC
100
AcDbEntity
  8
0
  6
CONTINUOUS
 62
     7
100
AcDbLine
 10
146.061703
 20
72.024119
 30
0.0
 11
146.053072
 21
72.023954
 31
0.0
  0
LINE
  5
2F5
330
2BC
100
AcDbEntity
  8
0
  6
CONTINUOUS
 62
     7
100
AcDbLine
 10
146.053072
 20
72.023954
 30
0.0
 11
146.04442
 21
72.023797
 31
0.0
  0
LINE
  5
2F6
330
2BC
100
AcDbEntity
  8
0
  6
CONTINUOUS
 62
     7
100
AcDbLine
 10
146.04442
 20
72.023797
 30
0.0
 11
146.035748
 21
72.023648
 31
0.0
  0
LINE
  5
2F7
330
2BC
100
AcDbEntity
  8
0
  6
CONTINUOUS
 62
     7
100
AcDbLine
 10
146.035748
 20
72.023648
 30
0.0
 11
146.027056
 21
72.023505
 31
0.0
  0
LINE
  5
2F8
330
2BC
100
AcDbEntity
  8
0
  6
CONTINUOUS
 62
     7
100
AcDbLine
 10
146.027056
 20
72.023505
 30
0.0
 11
146.018345
 21
72.023369
 31
0.0
  0
LINE
  5
2F9
330
2BC
100
AcDbEntity
  8
0
  6
CONTINUOUS
 62
     7
100
AcDbLine
 10
146.018345
 20
72.023369
 30
0.0
 11
146.009616
 21
72.023241
 31
0.0
  0
LINE
  5
2FA
330
2BC
100
AcDbEntity
  8
0
  6
CONTINUOUS
 62
     7
100
AcDbLine
 10
146.009616
 20
72.023241
 30
0.0
 11
146.000871
 21
72.023119
 31
0.0
  0
LINE
  5
2FB
330
2BC
100
AcDbEntity
  8
0
  6
CONTINUOUS
 62
     7
100
AcDbLine
 10
146.000871
 20
72.023119
 30
0.0
 11
145.99211
 21
72.023005
 31
0.0
  0
LINE
  5
2FC
330
2BC
100
AcDbEntity
  8
0
  6
CONTINUOUS
 62
     7
100
AcDbLine
 10
145.99211
 20
72.023005
 30
0.0
 11
145.983335
 21
72.022899
 31
0.0
  0
LINE
  5
2FD
330
2BC
100
AcDbEntity
  8
0
  6
CONTINUOUS
 62
     7
100
AcDbLine
 10
145.983335
 20
72.022899
 30
0.0
 11
145.974546
 21
72.022799
 31
0.0
  0
LINE
  5
2FE
330
2BC
100
AcDbEntity
  8
0
  6
CONTINUOUS
 62
     7
100
AcDbLine
 10
145.974546
 20
72.022799
 30
0.0
 11
145.965745
 21
72.022707
 31
0.0
  0
LINE
  5
2FF
330
2BC
100
AcDbEntity
  8
0
  6
CONTINUOUS
 62
     7
100
AcDbLine
 10
145.965745
 20
72.022707
 30
0.0
 11
145.956932
 21
72.022622
 31
0.0
  0
LINE
  5
300
330
2BC
100
AcDbEntity
  8
0
  6
CONTINUOUS
 62
     7
100
AcDbLine
 10
145.956932
 20
72.022622
 30
0.0
 11
145.948108
 21
72.022545
 31
0.0
  0
LINE
  5
301
330
2BC
100
AcDbEntity
  8
0
  6
CONTINUOUS
 62
     7
100
AcDbLine
 10
145.948108
 20
72.022545
 30
0.0
 11
145.939275
 21
72.022475
 31
0.0
  0
LINE
  5
302
330
2BC
100
AcDbEntity
  8
0
  6
CONTINUOUS
 62
     7
100
AcDbLine
 10
145.939275
 20
72.022475
 30
0.0
 11
145.930433
 21
72.022412
 31
0.0
  0
LINE
  5
303
330
2BC
100
AcDbEntity
  8
0
  6
CONTINUOUS
 62
     7
100
AcDbLine
 10
145.930433
 20
72.022412
 30
0.0
 11
145.921584
 21
72.022357
 31
0.0
  0
LINE
  5
304
330
2BC
100
AcDbEntity
  8
0
  6
CONTINUOUS
 62
     7
100
AcDbLine
 10
145.921584
 20
72.022357
 30
0.0
 11
145.912728
 21
72.022309
 31
0.0
  0
LINE
  5
305
330
2BC
100
AcDbEntity
  8
0
  6
CONTINUOUS
 62
     7
100
AcDbLine
 10
145.912728
 20
72.022309
 30
0.0
 11
145.903867
 21
72.022268
 31
0.0
  0
LINE
  5
306
330
2BC
100
AcDbEntity
  8
0
  6
CONTINUOUS
 62
     7
100
AcDbLine
 10
145.903867
 20
72.022268
 30
0.0
 11
145.895001
 21
72.022235
 31
0.0
  0
LINE
  5
307
330
2BC
100
AcDbEntity
  8
0
  6
CONTINUOUS
 62
     7
100
AcDbLine
 10
145.895001
 20
72.022235
 30
0.0
 11
145.886132
 21
72.02221
 31
0.0
  0
LINE
  5
308
330
2BC
100
AcDbEntity
  8
0
  6
CONTINUOUS
 62
     7
100
AcDbLine
 10
145.886132
 20
72.02221
 30
0.0
 11
145.87726
 21
72.022192
 31
0.0
  0
LINE
  5
309
330
2BC
100
AcDbEntity
  8
0
  6
CONTINUOUS
 62
     7
100
AcDbLine
 10
145.87726
 20
72.022192
 30
0.0
 11
145.868387
 21
72.022182
 31
0.0
  0
LINE
  5
30A
330
2BC
100
AcDbEntity
  8
0
  6
CONTINUOUS
 62
     7
100
AcDbLine
 10
145.868387
 20
72.022182
 30
0.0
 11
145.859513
 21
72.022179
 31
0.0
  0
LINE
  5
30B
330
2BC
100
AcDbEntity
  8
0
  6
CONTINUOUS
 62
     7
100
AcDbLine
 10
145.859513
 20
72.022179
 30
0.0
 11
145.85064
 21
72.022184
 31
0.0
  0
LINE
  5
30C
330
2BC
100
AcDbEntity
  8
0
  6
CONTINUOUS
 62
     7
100
AcDbLine
 10
145.85064
 20
72.022184
 30
0.0
 11
145.841768
 21
72.022197
 31
0.0
  0
LINE
  5
30D
330
2BC
100
AcDbEntity
  8
0
  6
CONTINUOUS
 62
     7
100
AcDbLine
 10
145.841768
 20
72.022197
 30
0.0
 11
145.832899
 21
72.022217
 31
0.0
  0
LINE
  5
30E
330
2BC
100
AcDbEntity
  8
0
  6
CONTINUOUS
 62
     7
100
AcDbLine
 10
145.832899
 20
72.022217
 30
0.0
 11
145.824033
 21
72.022245
 31
0.0
  0
LINE
  5
30F
330
2BC
100
AcDbEntity
  8
0
  6
CONTINUOUS
 62
     7
100
AcDbLine
 10
145.824033
 20
72.022245
 30
0.0
 11
145.815172
 21
72.022281
 31
0.0
  0
LINE
  5
310
330
2BC
100
AcDbEntity
  8
0
  6
CONTINUOUS
 62
     7
100
AcDbLine
 10
145.815172
 20
72.022281
 30
0.0
 11
145.806317
 21
72.022324
 31
0.0
  0
LINE
  5
311
330
2BC
100
AcDbEntity
  8
0
  6
CONTINUOUS
 62
     7
100
AcDbLine
 10
145.806317
 20
72.022324
 30
0.0
 11
145.797468
 21
72.022375
 31
0.0
  0
LINE
  5
312
330
2BC
100
AcDbEntity
  8
0
  6
CONTINUOUS
 62
     7
100
AcDbLine
 10
145.797468
 20
72.022375
 30
0.0
 11
145.788627
 21
72.022434
 31
0.0
  0
LINE
  5
313
330
2BC
100
AcDbEntity
  8
0
  6
CONTINUOUS
 62
     7
100
AcDbLine
 10
145.788627
 20
72.022434
 30
0.0
 11
145.779794
 21
72.022501
 31
0.0
  0
LINE
  5
314
330
2BC
100
AcDbEntity
  8
0
  6
CONTINUOUS
 62
     7
100
AcDbLine
 10
145.779794
 20
72.022501
 30
0.0
 11
145.770838
 21
72.022577
 31
0.0
  0
LINE
  5
315
330
2BC
100
AcDbEntity
  8
0
  6
CONTINUOUS
 62
     7
100
AcDbLine
 10
145.770838
 20
72.022577
 30
0.0
 11
145.761893
 21
72.02266
 31
0.0
  0
LINE
  5
316
330
2BC
100
AcDbEntity
  8
0
  6
CONTINUOUS
 62
     7
100
AcDbLine
 10
145.761893
 20
72.02266
 30
0.0
 11
145.75296
 21
72.022752
 31
0.0
  0
LINE
  5
317
330
2BC
100
AcDbEntity
  8
0
  6
CONTINUOUS
 62
     7
100
AcDbLine
 10
145.75296
 20
72.022752
 30
0.0
 11
145.744039
 21
72.022851
 31
0.0
  0
LINE
  5
318
330
2BC
100
AcDbEntity
  8
0
  6
CONTINUOUS
 62
     7
100
AcDbLine
 10
145.744039
 20
72.022851
 30
0.0
 11
145.735132
 21
72.022959
 31
0.0
  0
LINE
  5
319
330
2BC
100
AcDbEntity
  8
0
  6
CONTINUOUS
 62
     7
100
AcDbLine
 10
145.735132
 20
72.022959
 30
0.0
 11
145.72624
 21
72.023074
 31
0.0
  0
LINE
  5
31A
330
2BC
100
AcDbEntity
  8
0
  6
CONTINUOUS
 62
     7
100
AcDbLine
 10
145.72624
 20
72.023074
 30
0.0
 11
145.717362
 21
72.023196
 31
0.0
  0
LINE
  5
31B
330
2BC
100
AcDbEntity
  8
0
  6
CONTINUOUS
 62
     7
100
AcDbLine
 10
145.717362
 20
72.023196
 30
0.0
 11
145.708501
 21
72.023326
 31
0.0
  0
LINE
  5
31C
330
2BC
100
AcDbEntity
  8
0
  6
CONTINUOUS
 62
     7
100
AcDbLine
 10
145.708501
 20
72.023326
 30
0.0
 11
145.699657
 21
72.023463
 31
0.0
  0
LINE
  5
31D
330
2BC
100
AcDbEntity
  8
0
  6
CONTINUOUS
 62
     7
100
AcDbLine
 10
145.699657
 20
72.023463
 30
0.0
 11
145.69083
 21
72.023608
 31
0.0
  0
LINE
  5
31E
330
2BC
100
AcDbEntity
  8
0
  6
CONTINUOUS
 62
     7
100
AcDbLine
 10
145.69083
 20
72.023608
 30
0.0
 11
145.682023
 21
72.02376
 31
0.0
  0
LINE
  5
31F
330
2BC
100
AcDbEntity
  8
0
  6
CONTINUOUS
 62
     7
100
AcDbLine
 10
145.682023
 20
72.02376
 30
0.0
 11
145.673235
 21
72.023919
 31
0.0
  0
LINE
  5
320
330
2BC
100
AcDbEntity
  8
0
  6
CONTINUOUS
 62
     7
100
AcDbLine
 10
145.673235
 20
72.023919
 30
0.0
 11
145.664469
 21
72.024085
 31
0.0
  0
LINE
  5
321
330
2BC
100
AcDbEntity
  8
0
  6
CONTINUOUS
 62
     7
100
AcDbLine
 10
145.664469
 20
72.024085
 30
0.0
 11
145.655723
 21
72.024258
 31
0.0
  0
LINE
  5
322
330
2BC
100
AcDbEntity
  8
0
  6
CONTINUOUS
 62
     7
100
AcDbLine
 10
145.655723
 20
72.024258
 30
0.0
 11
145.647
 21
72.024439
 31
0.0
  0
LINE
  5
323
330
2BC
100
AcDbEntity
  8
0
  6
CONTINUOUS
 62
     7
100
AcDbLine
 10
145.647
 20
72.024439
 30
0.0
 11
145.638301
 21
72.024626
 31
0.0
  0
LINE
  5
324
330
2BC
100
AcDbEntity
  8
0
  6
CONTINUOUS
 62
     7
100
AcDbLine
 10
145.638301
 20
72.024626
 30
0.0
 11
145.629626
 21
72.024819
 31
0.0
  0
LINE
  5
325
330
2BC
100
AcDbEntity
  8
0
  6
CONTINUOUS
 62
     7
100
AcDbLine
 10
145.629626
 20
72.024819
 30
0.0
 11
145.620976
 21
72.02502
 31
0.0
  0
LINE
  5
326
330
2BC
100
AcDbEntity
  8
0
  6
CONTINUOUS
 62
     7
100
AcDbLine
 10
145.620976
 20
72.02502
 30
0.0
 11
145.612352
 21
72.025227
 31
0.0
  0
LINE
  5
327
330
2BC
100
AcDbEntity
  8
0
  6
CONTINUOUS
 62
     7
100
AcDbLine
 10
145.612352
 20
72.025227
 30
0.0
 11
145.603755
 21
72.02544
 31
0.0
  0
LINE
  5
328
330
2BC
100
AcDbEntity
  8
0
  6
CONTINUOUS
 62
     7
100
AcDbLine
 10
145.603755
 20
72.02544
 30
0.0
 11
145.595186
 21
72.02566
 31
0.0
  0
LINE
  5
329
330
2BC
100
AcDbEntity
  8
0
  6
CONTINUOUS
 62
     7
100
AcDbLine
 10
145.595186
 20
72.02566
 30
0.0
 11
145.586645
 21
72.025887
 31
0.0
  0
LINE
  5
32A
330
2BC
100
AcDbEntity
  8
0
  6
CONTINUOUS
 62
     7
100
AcDbLine
 10
145.586645
 20
72.025887
 30
0.0
 11
145.578135
 21
72.026119
 31
0.0
  0
LINE
  5
32B
330
2BC
100
AcDbEntity
  8
0
  6
CONTINUOUS
 62
     7
100
AcDbLine
 10
145.578135
 20
72.026119
 30
0.0
 11
145.569655
 21
72.026358
 31
0.0
  0
LINE
  5
32C
330
2BC
100
AcDbEntity
  8
0
  6
CONTINUOUS
 62
     7
100
AcDbLine
 10
145.569655
 20
72.026358
 30
0.0
 11
145.561206
 21
72.026603
 31
0.0
  0
LINE
  5
32D
330
2BC
100
AcDbEntity
  8
0
  6
CONTINUOUS
 62
     7
100
AcDbLine
 10
145.561206
 20
72.026603
 30
0.0
 11
145.55279
 21
72.026854
 31
0.0
  0
LINE
  5
32E
330
2BC
100
AcDbEntity
  8
0
  6
CONTINUOUS
 62
     7
100
AcDbLine
 10
145.55279
 20
72.026854
 30
0.0
 11
145.544407
 21
72.027111
 31
0.0
  0
LINE
  5
32F
330
2BC
100
AcDbEntity
  8
0
  6
CONTINUOUS
 62
     7
100
AcDbLine
 10
145.544407
 20
72.027111
 30
0.0
 11
145.536058
 21
72.027374
 31
0.0
  0
LINE
  5
330
330
2BC
100
AcDbEntity
  8
0
  6
CONTINUOUS
 62
     7
100
AcDbLine
 10
145.536058
 20
72.027374
 30
0.0
 11
145.527744
 21
72.027642
 31
0.0
  0
LINE
  5
331
330
2BC
100
AcDbEntity
  8
0
  6
CONTINUOUS
 62
     7
100
AcDbLine
 10
145.527744
 20
72.027642
 30
0.0
 11
145.519466
 21
72.027917
 31
0.0
  0
LINE
  5
332
330
2BC
100
AcDbEntity
  8
0
  6
CONTINUOUS
 62
     7
100
AcDbLine
 10
145.519466
 20
72.027917
 30
0.0
 11
145.511225
 21
72.028196
 31
0.0
  0
LINE
  5
333
330
2BC
100
AcDbEntity
  8
0
  6
CONTINUOUS
 62
     7
100
AcDbLine
 10
145.511225
 20
72.028196
 30
0.0
 11
145.503022
 21
72.028482
 31
0.0
  0
LINE
  5
334
330
2BC
100
AcDbEntity
  8
0
  6
CONTINUOUS
 62
     7
100
AcDbLine
 10
145.503022
 20
72.028482
 30
0.0
 11
145.486823
 21
72.029066
 31
0.0
  0
LINE
  5
335
330
2BC
100
AcDbEntity
  8
0
  6
CONTINUOUS
 62
     7
100
AcDbLine
 10
145.486823
 20
72.029066
 30
0.0
 11
145.470786
 21
72.029669
 31
0.0
  0
LINE
  5
336
330
2BC
100
AcDbEntity
  8
0
  6
CONTINUOUS
 62
     7
100
AcDbLine
 10
145.470786
 20
72.029669
 30
0.0
 11
145.454923
 21
72.030292
 31
0.0
  0
LINE
  5
337
330
2BC
100
AcDbEntity
  8
0
  6
CONTINUOUS
 62
     7
100
AcDbLine
 10
145.454923
 20
72.030292
 30
0.0
 11
145.439242
 21
72.030931
 31
0.0
  0
LINE
  5
338
330
2BC
100
AcDbEntity
  8
0
  6
CONTINUOUS
 62
     7
100
AcDbLine
 10
145.439242
 20
72.030931
 30
0.0
 11
145.423754
 21
72.031586
 31
0.0
  0
LINE
  5
339
330
2BC
100
AcDbEntity
  8
0
  6
CONTINUOUS
 62
     7
100
AcDbLine
 10
145.423754
 20
72.031586
 30
0.0
 11
145.408468
 21
72.032255
 31
0.0
  0
LINE
  5
33A
330
2BC
100
AcDbEntity
  8
0
  6
CONTINUOUS
 62
     7
100
AcDbLine
 10
145.408468
 20
72.032255
 30
0.0
 11
145.393395
 21
72.032936
 31
0.0
  0
LINE
  5
33B
330
2BC
100
AcDbEntity
  8
0
  6
CONTINUOUS
 62
     7
100
AcDbLine
 10
145.393395
 20
72.032936
 30
0.0
 11
145.378545
 21
72.033628
 31
0.0
  0
LINE
  5
33C
330
2BC
100
AcDbEntity
  8
0
  6
CONTINUOUS
 62
     7
100
AcDbLine
 10
145.378545
 20
72.033628
 30
0.0
 11
145.363927
 21
72.03433
 31
0.0
  0
LINE
  5
33D
330
2BC
100
AcDbEntity
  8
0
  6
CONTINUOUS
 62
     7
100
AcDbLine
 10
145.363927
 20
72.03433
 30
0.0
 11
145.349552
 21
72.035039
 31
0.0
  0
LINE
  5
33E
330
2BC
100
AcDbEntity
  8
0
  6
CONTINUOUS
 62
     7
100
AcDbLine
 10
145.349552
 20
72.035039
 30
0.0
 11
145.335429
 21
72.035755
 31
0.0
  0
LINE
  5
33F
330
2BC
100
AcDbEntity
  8
0
  6
CONTINUOUS
 62
     7
100
AcDbLine
 10
145.335429
 20
72.035755
 30
0.0
 11
145.321568
 21
72.036475
 31
0.0
  0
LINE
  5
340
330
2BC
100
AcDbEntity
  8
0
  6
CONTINUOUS
 62
     7
100
AcDbLine
 10
145.321568
 20
72.036475
 30
0.0
 11
145.30798
 21
72.037199
 31
0.0
  0
LINE
  5
341
330
2BC
100
AcDbEntity
  8
0
  6
CONTINUOUS
 62
     7
100
AcDbLine
 10
145.30798
 20
72.037199
 30
0.0
 11
145.294674
 21
72.037925
 31
0.0
  0
LINE
  5
342
330
2BC
100
AcDbEntity
  8
0
  6
CONTINUOUS
 62
     7
100
AcDbLine
 10
145.294674
 20
72.037925
 30
0.0
 11
145.281661
 21
72.03865
 31
0.0
  0
LINE
  5
343
330
2BC
100
AcDbEntity
  8
0
  6
CONTINUOUS
 62
     7
100
AcDbLine
 10
145.281661
 20
72.03865
 30
0.0
 11
145.268949
 21
72.039375
 31
0.0
  0
LINE
  5
344
330
2BC
100
AcDbEntity
  8
0
  6
CONTINUOUS
 62
     7
100
AcDbLine
 10
145.268949
 20
72.039375
 30
0.0
 11
145.256871
 21
72.040077
 31
0.0
  0
LINE
  5
345
330
2BC
100
AcDbEntity
  8
0
  6
CONTINUOUS
 62
     7
100
AcDbLine
 10
145.256871
 20
72.040077
 30
0.0
 11
145.245085
 21
72.040777
 31
0.0
  0
LINE
  5
346
330
2BC
100
AcDbEntity
  8
0
  6
CONTINUOUS
 62
     7
100
AcDbLine
 10
145.245085
 20
72.040777
 30
0.0
 11
145.23359
 21
72.041472
 31
0.0
  0
LINE
  5
347
330
2BC
100
AcDbEntity
  8
0
  6
CONTINUOUS
 62
     7
100
AcDbLine
 10
145.23359
 20
72.041472
 30
0.0
 11
145.22238
 21
72.042163
 31
0.0
  0
LINE
  5
348
330
2BC
100
AcDbEntity
  8
0
  6
CONTINUOUS
 62
     7
100
AcDbLine
 10
145.22238
 20
72.042163
 30
0.0
 11
145.211455
 21
72.042849
 31
0.0
  0
LINE
  5
349
330
2BC
100
AcDbEntity
  8
0
  6
CONTINUOUS
 62
     7
100
AcDbLine
 10
145.211455
 20
72.042849
 30
0.0
 11
145.200809
 21
72.043528
 31
0.0
  0
LINE
  5
34A
330
2BC
100
AcDbEntity
  8
0
  6
CONTINUOUS
 62
     7
100
AcDbLine
 10
145.200809
 20
72.043528
 30
0.0
 11
145.190441
 21
72.044202
 31
0.0
  0
LINE
  5
34B
330
2BC
100
AcDbEntity
  8
0
  6
CONTINUOUS
 62
     7
100
AcDbLine
 10
145.190441
 20
72.044202
 30
0.0
 11
145.180348
 21
72.044868
 31
0.0
  0
LINE
  5
34C
330
2BC
100
AcDbEntity
  8
0
  6
CONTINUOUS
 62
     7
100
AcDbLine
 10
145.180348
 20
72.044868
 30
0.0
 11
145.170525
 21
72.045527
 31
0.0
  0
LINE
  5
34D
330
2BC
100
AcDbEntity
  8
0
  6
CONTINUOUS
 62
     7
100
AcDbLine
 10
145.170525
 20
72.045527
 30
0.0
 11
145.16097
 21
72.046177
 31
0.0
  0
LINE
  5
34E
330
2BC
100
AcDbEntity
  8
0
  6
CONTINUOUS
 62
     7
100
AcDbLine
 10
145.16097
 20
72.046177
 30
0.0
 11
145.151681
 21
72.046818
 31
0.0
  0
LINE
  5
34F
330
2BC
100
AcDbEntity
  8
0
  6
CONTINUOUS
 62
     7
100
AcDbLine
 10
145.151681
 20
72.046818
 30
0.0
 11
145.142653
 21
72.04745
 31
0.0
  0
LINE
  5
350
330
2BC
100
AcDbEntity
  8
0
  6
CONTINUOUS
 62
     7
100
AcDbLine
 10
145.142653
 20
72.04745
 30
0.0
 11
145.133884
 21
72.048072
 31
0.0
  0
LINE
  5
351
330
2BC
100
AcDbEntity
  8
0
  6
CONTINUOUS
 62
     7
100
AcDbLine
 10
145.133884
 20
72.048072
 30
0.0
 11
145.125371
 21
72.048682
 31
0.0
  0
LINE
  5
352
330
2BC
100
AcDbEntity
  8
0
  6
CONTINUOUS
 62
     7
100
AcDbLine
 10
145.125371
 20
72.048682
 30
0.0
 11
145.109099
 21
72.049869
 31
0.0
  0
LINE
  5
353
330
2BC
100
AcDbEntity
  8
0
  6
CONTINUOUS
 62
     7
100
AcDbLine
 10
145.109099
 20
72.049869
 30
0.0
 11
145.094466
 21
72.050956
 31
0.0
  0
LINE
  5
354
330
2BC
100
AcDbEntity
  8
0
  6
CONTINUOUS
 62
     7
100
AcDbLine
 10
145.094466
 20
72.050956
 30
0.0
 11
145.081009
 21
72.051971
 31
0.0
  0
LINE
  5
355
330
2BC
100
AcDbEntity
  8
0
  6
CONTINUOUS
 62
     7
100
AcDbLine
 10
145.081009
 20
72.051971
 30
0.0
 11
145.068997
 21
72.05289
 31
0.0
  0
LINE
  5
356
330
2BC
100
AcDbEntity
  8
0
  6
CONTINUOUS
 62
     7
100
AcDbLine
 10
145.068997
 20
72.05289
 30
0.0
 11
145.058698
 21
72.053687
 31
0.0
  0
LINE
  5
357
330
2BC
100
AcDbEntity
  8
0
  6
CONTINUOUS
 62
     7
100
AcDbLine
 10
145.058698
 20
72.053687
 30
0.0
 11
145.04432
 21
72.054819
 31
0.0
  0
LINE
  5
358
330
2BC
100
AcDbEntity
  8
0
  6
CONTINUOUS
 62
     7
100
AcDbLine
 10
145.04432
 20
72.054819
 30
0.0
 11
145.040026
 21
72.055166
 31
0.0
  0
LINE
  5
359
330
2BC
100
AcDbEntity
  8
0
  6
CONTINUOUS
 62
     7
100
AcDbLine
 10
145.040026
 20
72.055166
 30
0.0
 11
145.045508
 21
72.054733
 31
0.0
  0
ENDBLK
  5
2BE
330
2BC
100
AcDbEntity
  8
0
100
AcDbBlockEnd
  0
BLOCK
  5
35B
330
35A
100
AcDbEntity
  8
0
100
AcDbBlockBegin
  2
BLKF020
 70
     0
 71
     0
 10
0.0
 20
0.0
 30
0.0
  3
BLKF020
  1

  0
LINE
  5
35E
330
35A
100
AcDbEntity
  8
0
  6
CONTINUOUS
 62
     7
100
AcDbLine
 10
145.288547
 20
53.172534
 30
0.0
 11
145.265993
 21
53.171163
 31
0.0
  0
LINE
  5
35F
330
35A
100
AcDbEntity
  8
0
  6
CONTINUOUS
 62
     7
100
AcDbLine
 10
145.265993
 20
53.171163
 30
0.0
 11
145.243814
 21
53.169811
 31
0.0
  0
LINE
  5
360
330
35A
100
AcDbEntity
  8
0
  6
CONTINUOUS
 62
     7
100
AcDbLine
 10
145.243814
 20
53.169811
 30
0.0
 11
145.222383
 21
53.168495
 31
0.0
  0
LINE
  5
361
330
35A
100
AcDbEntity
  8
0
  6
CONTINUOUS
 62
     7
100
AcDbLine
 10
145.222383
 20
53.168495
 30
0.0
 11
145.202076
 21
53.167235
 31
0.0
  0
LINE
  5
362
330
35A
100
AcDbEntity
  8
0
  6
CONTINUOUS
 62
     7
100
AcDbLine
 10
145.202076
 20
53.167235
 30
0.0
 11
145.183266
 21
53.166048
 31
0.0
  0
LINE
  5
363
330
35A
100
AcDbEntity
  8
0
  6
CONTINUOUS
 62
     7
100
AcDbLine
 10
145.183266
 20
53.166048
 30
0.0
 11
145.166329
 21
53.164954
 31
0.0
  0
LINE
  5
364
330
35A
100
AcDbEntity
  8
0
  6
CONTINUOUS
 62
     7
100
AcDbLine
 10
145.166329
 20
53.164954
 30
0.0
 11
145.151638
 21
53.16397
 31
0.0
  0
LINE
  5
365
330
35A
100
AcDbEntity
  8
0
  6
CONTINUOUS
 62
     7
100
AcDbLine
 10
145.151638
 20
53.16397
 30
0.0
 11
145.145251
 21
53.163525
 31
0.0
  0
LINE
  5
366
330
35A
100
AcDbEntity
  8
0
  6
CONTINUOUS
 62
     7
100
AcDbLine
 10
145.145251
 20
53.163525
 30
0.0
 11
145.139567
 21
53.163114
 31
0.0
  0
LINE
  5
367
330
35A
100
AcDbEntity
  8
0
  6
CONTINUOUS
 62
     7
100
AcDbLine
 10
145.139567
 20
53.163114
 30
0.0
 11
145.134867
 21
53.162762
 31
0.0
  0
ENDBLK
  5
35C
330
35A
100
AcDbEntity
  8
0
100
AcDbBlockEnd
  0
BLOCK
  5
369
330
368
100
AcDbEntity
  8
0
100
AcDbBlockBegin
  2
BLKF021
 70
     0
 71
     0
 10
0.0
 20
0.0
 30
0.0
  3
BLKF021
  1

  0
LINE
  5
36C
330
368
100
AcDbEntity
  8
0
  6
CONTINUOUS
 62
     7
100
AcDbLine
 10
145.048254
 20
53.156281
 30
0.0
 11
145.048202
 21
53.156278
 31
0.0
  0
LINE
  5
36D
330
368
100
AcDbEntity
  8
0
  6
CONTINUOUS
 62
     7
100
AcDbLine
 10
145.048202
 20
53.156278
 30
0.0
 11
145.058873
 21
53.157117
 31
0.0
  0
LINE
  5
36E
330
368
100
AcDbEntity
  8
0
  6
CONTINUOUS
 62
     7
100
AcDbLine
 10
145.058873
 20
53.157117
 30
0.0
 11
145.077401
 21
53.158546
 31
0.0
  0
LINE
  5
36F
330
368
100
AcDbEntity
  8
0
  6
CONTINUOUS
 62
     7
100
AcDbLine
 10
145.077401
 20
53.158546
 30
0.0
 11
145.089162
 21
53.159437
 31
0.0
  0
LINE
  5
370
330
368
100
AcDbEntity
  8
0
  6
CONTINUOUS
 62
     7
100
AcDbLine
 10
145.089162
 20
53.159437
 30
0.0
 11
145.102348
 21
53.160421
 31
0.0
  0
LINE
  5
371
330
368
100
AcDbEntity
  8
0
  6
CONTINUOUS
 62
     7
100
AcDbLine
 10
145.102348
 20
53.160421
 30
0.0
 11
145.11678
 21
53.161481
 31
0.0
  0
LINE
  5
372
330
368
100
AcDbEntity
  8
0
  6
CONTINUOUS
 62
     7
100
AcDbLine
 10
145.11678
 20
53.161481
 30
0.0
 11
145.132278
 21
53.162599
 31
0.0
  0
LINE
  5
373
330
368
100
AcDbEntity
  8
0
  6
CONTINUOUS
 62
     7
100
AcDbLine
 10
145.132278
 20
53.162599
 30
0.0
 11
145.148942
 21
53.163775
 31
0.0
  0
LINE
  5
374
330
368
100
AcDbEntity
  8
0
  6
CONTINUOUS
 62
     7
100
AcDbLine
 10
145.148942
 20
53.163775
 30
0.0
 11
145.166523
 21
53.164986
 31
0.0
  0
LINE
  5
375
330
368
100
AcDbEntity
  8
0
  6
CONTINUOUS
 62
     7
100
AcDbLine
 10
145.166523
 20
53.164986
 30
0.0
 11
145.185026
 21
53.166227
 31
0.0
  0
LINE
  5
376
330
368
100
AcDbEntity
  8
0
  6
CONTINUOUS
 62
     7
100
AcDbLine
 10
145.185026
 20
53.166227
 30
0.0
 11
145.204454
 21
53.167493
 31
0.0
  0
LINE
  5
377
330
368
100
AcDbEntity
  8
0
  6
CONTINUOUS
 62
     7
100
AcDbLine
 10
145.204454
 20
53.167493
 30
0.0
 11
145.224812
 21
53.168778
 31
0.0
  0
LINE
  5
378
330
368
100
AcDbEntity
  8
0
  6
CONTINUOUS
 62
     7
100
AcDbLine
 10
145.224812
 20
53.168778
 30
0.0
 11
145.246105
 21
53.170078
 31
0.0
  0
LINE
  5
379
330
368
100
AcDbEntity
  8
0
  6
CONTINUOUS
 62
     7
100
AcDbLine
 10
145.246105
 20
53.170078
 30
0.0
 11
145.257103
 21
53.170732
 31
0.0
  0
LINE
  5
37A
330
368
100
AcDbEntity
  8
0
  6
CONTINUOUS
 62
     7
100
AcDbLine
 10
145.257103
 20
53.170732
 30
0.0
 11
145.268336
 21
53.171387
 31
0.0
  0
LINE
  5
37B
330
368
100
AcDbEntity
  8
0
  6
CONTINUOUS
 62
     7
100
AcDbLine
 10
145.268336
 20
53.171387
 30
0.0
 11
145.279806
 21
53.172043
 31
0.0
  0
LINE
  5
37C
330
368
100
AcDbEntity
  8
0
  6
CONTINUOUS
 62
     7
100
AcDbLine
 10
145.279806
 20
53.172043
 30
0.0
 11
145.291511
 21
53.1727
 31
0.0
  0
LINE
  5
37D
330
368
100
AcDbEntity
  8
0
  6
CONTINUOUS
 62
     7
100
AcDbLine
 10
145.291511
 20
53.1727
 30
0.0
 11
145.303896
 21
53.17338
 31
0.0
  0
LINE
  5
37E
330
368
100
AcDbEntity
  8
0
  6
CONTINUOUS
 62
     7
100
AcDbLine
 10
145.303896
 20
53.17338
 30
0.0
 11
145.316529
 21
53.174058
 31
0.0
  0
LINE
  5
37F
330
368
100
AcDbEntity
  8
0
  6
CONTINUOUS
 62
     7
100
AcDbLine
 10
145.316529
 20
53.174058
 30
0.0
 11
145.3294
 21
53.174734
 31
0.0
  0
LINE
  5
380
330
368
100
AcDbEntity
  8
0
  6
CONTINUOUS
 62
     7
100
AcDbLine
 10
145.3294
 20
53.174734
 30
0.0
 11
145.342503
 21
53.175406
 31
0.0
  0
LINE
  5
381
330
368
100
AcDbEntity
  8
0
  6
CONTINUOUS
 62
     7
100
AcDbLine
 10
145.342503
 20
53.175406
 30
0.0
 11
145.355831
 21
53.176073
 31
0.0
  0
LINE
  5
382
330
368
100
AcDbEntity
  8
0
  6
CONTINUOUS
 62
     7
100
AcDbLine
 10
145.355831
 20
53.176073
 30
0.0
 11
145.369375
 21
53.176733
 31
0.0
  0
LINE
  5
383
330
368
100
AcDbEntity
  8
0
  6
CONTINUOUS
 62
     7
100
AcDbLine
 10
145.369375
 20
53.176733
 30
0.0
 11
145.383127
 21
53.177386
 31
0.0
  0
LINE
  5
384
330
368
100
AcDbEntity
  8
0
  6
CONTINUOUS
 62
     7
100
AcDbLine
 10
145.383127
 20
53.177386
 30
0.0
 11
145.397081
 21
53.17803
 31
0.0
  0
LINE
  5
385
330
368
100
AcDbEntity
  8
0
  6
CONTINUOUS
 62
     7
100
AcDbLine
 10
145.397081
 20
53.17803
 30
0.0
 11
145.411228
 21
53.178664
 31
0.0
  0
LINE
  5
386
330
368
100
AcDbEntity
  8
0
  6
CONTINUOUS
 62
     7
100
AcDbLine
 10
145.411228
 20
53.178664
 30
0.0
 11
145.425561
 21
53.179287
 31
0.0
  0
LINE
  5
387
330
368
100
AcDbEntity
  8
0
  6
CONTINUOUS
 62
     7
100
AcDbLine
 10
145.425561
 20
53.179287
 30
0.0
 11
145.440073
 21
53.179898
 31
0.0
  0
LINE
  5
388
330
368
100
AcDbEntity
  8
0
  6
CONTINUOUS
 62
     7
100
AcDbLine
 10
145.440073
 20
53.179898
 30
0.0
 11
145.454755
 21
53.180495
 31
0.0
  0
LINE
  5
389
330
368
100
AcDbEntity
  8
0
  6
CONTINUOUS
 62
     7
100
AcDbLine
 10
145.454755
 20
53.180495
 30
0.0
 11
145.4696
 21
53.181078
 31
0.0
  0
LINE
  5
38A
330
368
100
AcDbEntity
  8
0
  6
CONTINUOUS
 62
     7
100
AcDbLine
 10
145.4696
 20
53.181078
 30
0.0
 11
145.4846
 21
53.181645
 31
0.0
  0
LINE
  5
38B
330
368
100
AcDbEntity
  8
0
  6
CONTINUOUS
 62
     7
100
AcDbLine
 10
145.4846
 20
53.181645
 30
0.0
 11
145.499748
 21
53.182195
 31
0.0
  0
LINE
  5
38C
330
368
100
AcDbEntity
  8
0
  6
CONTINUOUS
 62
     7
100
AcDbLine
 10
145.499748
 20
53.182195
 30
0.0
 11
145.515036
 21
53.182726
 31
0.0
  0
LINE
  5
38D
330
368
100
AcDbEntity
  8
0
  6
CONTINUOUS
 62
     7
100
AcDbLine
 10
145.515036
 20
53.182726
 30
0.0
 11
145.531063
 21
53.183258
 31
0.0
  0
LINE
  5
38E
330
368
100
AcDbEntity
  8
0
  6
CONTINUOUS
 62
     7
100
AcDbLine
 10
145.531063
 20
53.183258
 30
0.0
 11
145.547226
 21
53.183768
 31
0.0
  0
LINE
  5
38F
330
368
100
AcDbEntity
  8
0
  6
CONTINUOUS
 62
     7
100
AcDbLine
 10
145.547226
 20
53.183768
 30
0.0
 11
145.563519
 21
53.184257
 31
0.0
  0
LINE
  5
390
330
368
100
AcDbEntity
  8
0
  6
CONTINUOUS
 62
     7
100
AcDbLine
 10
145.563519
 20
53.184257
 30
0.0
 11
145.579934
 21
53.184722
 31
0.0
  0
LINE
  5
391
330
368
100
AcDbEntity
  8
0
  6
CONTINUOUS
 62
     7
100
AcDbLine
 10
145.579934
 20
53.184722
 30
0.0
 11
145.596465
 21
53.185164
 31
0.0
  0
LINE
  5
392
330
368
100
AcDbEntity
  8
0
  6
CONTINUOUS
 62
     7
100
AcDbLine
 10
145.596465
 20
53.185164
 30
0.0
 11
145.613104
 21
53.185582
 31
0.0
  0
LINE
  5
393
330
368
100
AcDbEntity
  8
0
  6
CONTINUOUS
 62
     7
100
AcDbLine
 10
145.613104
 20
53.185582
 30
0.0
 11
145.629845
 21
53.185976
 31
0.0
  0
LINE
  5
394
330
368
100
AcDbEntity
  8
0
  6
CONTINUOUS
 62
     7
100
AcDbLine
 10
145.629845
 20
53.185976
 30
0.0
 11
145.646682
 21
53.186345
 31
0.0
  0
LINE
  5
395
330
368
100
AcDbEntity
  8
0
  6
CONTINUOUS
 62
     7
100
AcDbLine
 10
145.646682
 20
53.186345
 30
0.0
 11
145.663606
 21
53.186688
 31
0.0
  0
LINE
  5
396
330
368
100
AcDbEntity
  8
0
  6
CONTINUOUS
 62
     7
100
AcDbLine
 10
145.663606
 20
53.186688
 30
0.0
 11
145.680612
 21
53.187005
 31
0.0
  0
LINE
  5
397
330
368
100
AcDbEntity
  8
0
  6
CONTINUOUS
 62
     7
100
AcDbLine
 10
145.680612
 20
53.187005
 30
0.0
 11
145.697693
 21
53.187295
 31
0.0
  0
LINE
  5
398
330
368
100
AcDbEntity
  8
0
  6
CONTINUOUS
 62
     7
100
AcDbLine
 10
145.697693
 20
53.187295
 30
0.0
 11
145.714841
 21
53.187558
 31
0.0
  0
LINE
  5
399
330
368
100
AcDbEntity
  8
0
  6
CONTINUOUS
 62
     7
100
AcDbLine
 10
145.714841
 20
53.187558
 30
0.0
 11
145.73205
 21
53.187793
 31
0.0
  0
LINE
  5
39A
330
368
100
AcDbEntity
  8
0
  6
CONTINUOUS
 62
     7
100
AcDbLine
 10
145.73205
 20
53.187793
 30
0.0
 11
145.749313
 21
53.187999
 31
0.0
  0
LINE
  5
39B
330
368
100
AcDbEntity
  8
0
  6
CONTINUOUS
 62
     7
100
AcDbLine
 10
145.749313
 20
53.187999
 30
0.0
 11
145.766624
 21
53.188177
 31
0.0
  0
LINE
  5
39C
330
368
100
AcDbEntity
  8
0
  6
CONTINUOUS
 62
     7
100
AcDbLine
 10
145.766624
 20
53.188177
 30
0.0
 11
145.783974
 21
53.188324
 31
0.0
  0
LINE
  5
39D
330
368
100
AcDbEntity
  8
0
  6
CONTINUOUS
 62
     7
100
AcDbLine
 10
145.783974
 20
53.188324
 30
0.0
 11
145.801807
 21
53.188445
 31
0.0
  0
LINE
  5
39E
330
368
100
AcDbEntity
  8
0
  6
CONTINUOUS
 62
     7
100
AcDbLine
 10
145.801807
 20
53.188445
 30
0.0
 11
145.819667
 21
53.188533
 31
0.0
  0
LINE
  5
39F
330
368
100
AcDbEntity
  8
0
  6
CONTINUOUS
 62
     7
100
AcDbLine
 10
145.819667
 20
53.188533
 30
0.0
 11
145.837547
 21
53.18859
 31
0.0
  0
LINE
  5
3A0
330
368
100
AcDbEntity
  8
0
  6
CONTINUOUS
 62
     7
100
AcDbLine
 10
145.837547
 20
53.18859
 30
0.0
 11
145.85544
 21
53.188616
 31
0.0
  0
LINE
  5
3A1
330
368
100
AcDbEntity
  8
0
  6
CONTINUOUS
 62
     7
100
AcDbLine
 10
145.85544
 20
53.188616
 30
0.0
 11
145.873336
 21
53.18861
 31
0.0
  0
LINE
  5
3A2
330
368
100
AcDbEntity
  8
0
  6
CONTINUOUS
 62
     7
100
AcDbLine
 10
145.873336
 20
53.18861
 30
0.0
 11
145.891229
 21
53.188574
 31
0.0
  0
LINE
  5
3A3
330
368
100
AcDbEntity
  8
0
  6
CONTINUOUS
 62
     7
100
AcDbLine
 10
145.891229
 20
53.188574
 30
0.0
 11
145.909112
 21
53.188507
 31
0.0
  0
LINE
  5
3A4
330
368
100
AcDbEntity
  8
0
  6
CONTINUOUS
 62
     7
100
AcDbLine
 10
145.909112
 20
53.188507
 30
0.0
 11
145.926975
 21
53.188409
 31
0.0
  0
LINE
  5
3A5
330
368
100
AcDbEntity
  8
0
  6
CONTINUOUS
 62
     7
100
AcDbLine
 10
145.926975
 20
53.188409
 30
0.0
 11
145.944812
 21
53.188281
 31
0.0
  0
LINE
  5
3A6
330
368
100
AcDbEntity
  8
0
  6
CONTINUOUS
 62
     7
100
AcDbLine
 10
145.944812
 20
53.188281
 30
0.0
 11
145.962615
 21
53.188122
 31
0.0
  0
LINE
  5
3A7
330
368
100
AcDbEntity
  8
0
  6
CONTINUOUS
 62
     7
100
AcDbLine
 10
145.962615
 20
53.188122
 30
0.0
 11
145.980375
 21
53.187933
 31
0.0
  0
LINE
  5
3A8
330
368
100
AcDbEntity
  8
0
  6
CONTINUOUS
 62
     7
100
AcDbLine
 10
145.980375
 20
53.187933
 30
0.0
 11
145.998087
 21
53.187715
 31
0.0
  0
LINE
  5
3A9
330
368
100
AcDbEntity
  8
0
  6
CONTINUOUS
 62
     7
100
AcDbLine
 10
145.998087
 20
53.187715
 30
0.0
 11
146.01574
 21
53.187466
 31
0.0
  0
LINE
  5
3AA
330
368
100
AcDbEntity
  8
0
  6
CONTINUOUS
 62
     7
100
AcDbLine
 10
146.01574
 20
53.187466
 30
0.0
 11
146.033329
 21
53.187188
 31
0.0
  0
LINE
  5
3AB
330
368
100
AcDbEntity
  8
0
  6
CONTINUOUS
 62
     7
100
AcDbLine
 10
146.033329
 20
53.187188
 30
0.0
 11
146.050845
 21
53.186881
 31
0.0
  0
LINE
  5
3AC
330
368
100
AcDbEntity
  8
0
  6
CONTINUOUS
 62
     7
100
AcDbLine
 10
146.050845
 20
53.186881
 30
0.0
 11
146.06828
 21
53.186544
 31
0.0
  0
LINE
  5
3AD
330
368
100
AcDbEntity
  8
0
  6
CONTINUOUS
 62
     7
100
AcDbLine
 10
146.06828
 20
53.186544
 30
0.0
 11
146.085734
 21
53.186176
 31
0.0
  0
LINE
  5
3AE
330
368
100
AcDbEntity
  8
0
  6
CONTINUOUS
 62
     7
100
AcDbLine
 10
146.085734
 20
53.186176
 30
0.0
 11
146.10309
 21
53.185779
 31
0.0
  0
LINE
  5
3AF
330
368
100
AcDbEntity
  8
0
  6
CONTINUOUS
 62
     7
100
AcDbLine
 10
146.10309
 20
53.185779
 30
0.0
 11
146.120339
 21
53.185355
 31
0.0
  0
LINE
  5
3B0
330
368
100
AcDbEntity
  8
0
  6
CONTINUOUS
 62
     7
100
AcDbLine
 10
146.120339
 20
53.185355
 30
0.0
 11
146.137472
 21
53.184906
 31
0.0
  0
LINE
  5
3B1
330
368
100
AcDbEntity
  8
0
  6
CONTINUOUS
 62
     7
100
AcDbLine
 10
146.137472
 20
53.184906
 30
0.0
 11
146.154482
 21
53.184431
 31
0.0
  0
LINE
  5
3B2
330
368
100
AcDbEntity
  8
0
  6
CONTINUOUS
 62
     7
100
AcDbLine
 10
146.154482
 20
53.184431
 30
0.0
 11
146.171358
 21
53.183932
 31
0.0
  0
LINE
  5
3B3
330
368
100
AcDbEntity
  8
0
  6
CONTINUOUS
 62
     7
100
AcDbLine
 10
146.171358
 20
53.183932
 30
0.0
 11
146.188092
 21
53.18341
 31
0.0
  0
LINE
  5
3B4
330
368
100
AcDbEntity
  8
0
  6
CONTINUOUS
 62
     7
100
AcDbLine
 10
146.188092
 20
53.18341
 30
0.0
 11
146.204676
 21
53.182867
 31
0.0
  0
LINE
  5
3B5
330
368
100
AcDbEntity
  8
0
  6
CONTINUOUS
 62
     7
100
AcDbLine
 10
146.204676
 20
53.182867
 30
0.0
 11
146.2211
 21
53.182303
 31
0.0
  0
LINE
  5
3B6
330
368
100
AcDbEntity
  8
0
  6
CONTINUOUS
 62
     7
100
AcDbLine
 10
146.2211
 20
53.182303
 30
0.0
 11
146.237357
 21
53.18172
 31
0.0
  0
LINE
  5
3B7
330
368
100
AcDbEntity
  8
0
  6
CONTINUOUS
 62
     7
100
AcDbLine
 10
146.237357
 20
53.18172
 30
0.0
 11
146.253437
 21
53.181119
 31
0.0
  0
LINE
  5
3B8
330
368
100
AcDbEntity
  8
0
  6
CONTINUOUS
 62
     7
100
AcDbLine
 10
146.253437
 20
53.181119
 30
0.0
 11
146.269331
 21
53.1805
 31
0.0
  0
LINE
  5
3B9
330
368
100
AcDbEntity
  8
0
  6
CONTINUOUS
 62
     7
100
AcDbLine
 10
146.269331
 20
53.1805
 30
0.0
 11
146.285031
 21
53.179865
 31
0.0
  0
LINE
  5
3BA
330
368
100
AcDbEntity
  8
0
  6
CONTINUOUS
 62
     7
100
AcDbLine
 10
146.285031
 20
53.179865
 30
0.0
 11
146.300528
 21
53.179215
 31
0.0
  0
LINE
  5
3BB
330
368
100
AcDbEntity
  8
0
  6
CONTINUOUS
 62
     7
100
AcDbLine
 10
146.300528
 20
53.179215
 30
0.0
 11
146.315814
 21
53.178551
 31
0.0
  0
LINE
  5
3BC
330
368
100
AcDbEntity
  8
0
  6
CONTINUOUS
 62
     7
100
AcDbLine
 10
146.315814
 20
53.178551
 30
0.0
 11
146.330879
 21
53.177875
 31
0.0
  0
LINE
  5
3BD
330
368
100
AcDbEntity
  8
0
  6
CONTINUOUS
 62
     7
100
AcDbLine
 10
146.330879
 20
53.177875
 30
0.0
 11
146.345498
 21
53.177197
 31
0.0
  0
LINE
  5
3BE
330
368
100
AcDbEntity
  8
0
  6
CONTINUOUS
 62
     7
100
AcDbLine
 10
146.345498
 20
53.177197
 30
0.0
 11
146.359891
 21
53.176509
 31
0.0
  0
LINE
  5
3BF
330
368
100
AcDbEntity
  8
0
  6
CONTINUOUS
 62
     7
100
AcDbLine
 10
146.359891
 20
53.176509
 30
0.0
 11
146.374055
 21
53.175812
 31
0.0
  0
LINE
  5
3C0
330
368
100
AcDbEntity
  8
0
  6
CONTINUOUS
 62
     7
100
AcDbLine
 10
146.374055
 20
53.175812
 30
0.0
 11
146.387986
 21
53.175107
 31
0.0
  0
LINE
  5
3C1
330
368
100
AcDbEntity
  8
0
  6
CONTINUOUS
 62
     7
100
AcDbLine
 10
146.387986
 20
53.175107
 30
0.0
 11
146.40168
 21
53.174395
 31
0.0
  0
LINE
  5
3C2
330
368
100
AcDbEntity
  8
0
  6
CONTINUOUS
 62
     7
100
AcDbLine
 10
146.40168
 20
53.174395
 30
0.0
 11
146.415135
 21
53.173678
 31
0.0
  0
LINE
  5
3C3
330
368
100
AcDbEntity
  8
0
  6
CONTINUOUS
 62
     7
100
AcDbLine
 10
146.415135
 20
53.173678
 30
0.0
 11
146.428346
 21
53.172957
 31
0.0
  0
LINE
  5
3C4
330
368
100
AcDbEntity
  8
0
  6
CONTINUOUS
 62
     7
100
AcDbLine
 10
146.428346
 20
53.172957
 30
0.0
 11
146.44131
 21
53.172232
 31
0.0
  0
LINE
  5
3C5
330
368
100
AcDbEntity
  8
0
  6
CONTINUOUS
 62
     7
100
AcDbLine
 10
146.44131
 20
53.172232
 30
0.0
 11
146.454023
 21
53.171505
 31
0.0
  0
LINE
  5
3C6
330
368
100
AcDbEntity
  8
0
  6
CONTINUOUS
 62
     7
100
AcDbLine
 10
146.454023
 20
53.171505
 30
0.0
 11
146.466483
 21
53.170777
 31
0.0
  0
LINE
  5
3C7
330
368
100
AcDbEntity
  8
0
  6
CONTINUOUS
 62
     7
100
AcDbLine
 10
146.466483
 20
53.170777
 30
0.0
 11
146.478685
 21
53.170049
 31
0.0
  0
LINE
  5
3C8
330
368
100
AcDbEntity
  8
0
  6
CONTINUOUS
 62
     7
100
AcDbLine
 10
146.478685
 20
53.170049
 30
0.0
 11
146.490627
 21
53.169322
 31
0.0
  0
LINE
  5
3C9
330
368
100
AcDbEntity
  8
0
  6
CONTINUOUS
 62
     7
100
AcDbLine
 10
146.490627
 20
53.169322
 30
0.0
 11
146.502304
 21
53.168598
 31
0.0
  0
LINE
  5
3CA
330
368
100
AcDbEntity
  8
0
  6
CONTINUOUS
 62
     7
100
AcDbLine
 10
146.502304
 20
53.168598
 30
0.0
 11
146.513713
 21
53.167878
 31
0.0
  0
LINE
  5
3CB
330
368
100
AcDbEntity
  8
0
  6
CONTINUOUS
 62
     7
100
AcDbLine
 10
146.513713
 20
53.167878
 30
0.0
 11
146.524851
 21
53.167162
 31
0.0
  0
LINE
  5
3CC
330
368
100
AcDbEntity
  8
0
  6
CONTINUOUS
 62
     7
100
AcDbLine
 10
146.524851
 20
53.167162
 30
0.0
 11
146.535714
 21
53.166452
 31
0.0
  0
LINE
  5
3CD
330
368
100
AcDbEntity
  8
0
  6
CONTINUOUS
 62
     7
100
AcDbLine
 10
146.535714
 20
53.166452
 30
0.0
 11
146.555887
 21
53.165104
 31
0.0
  0
LINE
  5
3CE
330
368
100
AcDbEntity
  8
0
  6
CONTINUOUS
 62
     7
100
AcDbLine
 10
146.555887
 20
53.165104
 30
0.0
 11
146.574889
 21
53.163798
 31
0.0
  0
LINE
  5
3CF
330
368
100
AcDbEntity
  8
0
  6
CONTINUOUS
 62
     7
100
AcDbLine
 10
146.574889
 20
53.163798
 30
0.0
 11
146.592586
 21
53.162551
 31
0.0
  0
LINE
  5
3D0
330
368
100
AcDbEntity
  8
0
  6
CONTINUOUS
 62
     7
100
AcDbLine
 10
146.592586
 20
53.162551
 30
0.0
 11
146.608846
 21
53.161381
 31
0.0
  0
LINE
  5
3D1
330
368
100
AcDbEntity
  8
0
  6
CONTINUOUS
 62
     7
100
AcDbLine
 10
146.608846
 20
53.161381
 30
0.0
 11
146.623535
 21
53.160302
 31
0.0
  0
LINE
  5
3D2
330
368
100
AcDbEntity
  8
0
  6
CONTINUOUS
 62
     7
100
AcDbLine
 10
146.623535
 20
53.160302
 30
0.0
 11
146.636521
 21
53.159333
 31
0.0
  0
LINE
  5
3D3
330
368
100
AcDbEntity
  8
0
  6
CONTINUOUS
 62
     7
100
AcDbLine
 10
146.636521
 20
53.159333
 30
0.0
 11
146.656849
 21
53.157785
 31
0.0
  0
LINE
  5
3D4
330
368
100
AcDbEntity
  8
0
  6
CONTINUOUS
 62
     7
100
AcDbLine
 10
146.656849
 20
53.157785
 30
0.0
 11
146.673783
 21
53.15647
 31
0.0
  0
LINE
  5
3D5
330
368
100
AcDbEntity
  8
0
  6
CONTINUOUS
 62
     7
100
AcDbLine
 10
146.673783
 20
53.15647
 30
0.0
 11
146.680398
 21
53.155931
 31
0.0
  0
ENDBLK
  5
36A
330
368
100
AcDbEntity
  8
0
100
AcDbBlockEnd
  0
BLOCK
  5
3D9
330
3D8
100
AcDbEntity
  8
0
100
AcDbBlockBegin
  2
BLKF022
 70
     0
 71
     0
 10
0.0
 20
0.0
 30
0.0
  3
BLKF022
  1

  0
LINE
  5
3DC
330
3D8
100
AcDbEntity
  8
0
  6
CONTINUOUS
 62
     7
100
AcDbLine
 10
145.288547
 20
72.038259
 30
0.0
 11
145.311261
 21
72.036898
 31
0.0
  0
LINE
  5
3DD
330
3D8
100
AcDbEntity
  8
0
  6
CONTINUOUS
 62
     7
100
AcDbLine
 10
145.311261
 20
72.036898
 30
0.0
 11
145.334156
 21
72.035557
 31
0.0
  0
LINE
  5
3DE
330
3D8
100
AcDbEntity
  8
0
  6
CONTINUOUS
 62
     7
100
AcDbLine
 10
145.334156
 20
72.035557
 30
0.0
 11
145.345728
 21
72.034901
 31
0.0
  0
LINE
  5
3DF
330
3D8
100
AcDbEntity
  8
0
  6
CONTINUOUS
 62
     7
100
AcDbLine
 10
145.345728
 20
72.034901
 30
0.0
 11
145.357413
 21
72.034259
 31
0.0
  0
LINE
  5
3E0
330
3D8
100
AcDbEntity
  8
0
  6
CONTINUOUS
 62
     7
100
AcDbLine
 10
145.357413
 20
72.034259
 30
0.0
 11
145.369233
 21
72.033631
 31
0.0
  0
LINE
  5
3E1
330
3D8
100
AcDbEntity
  8
0
  6
CONTINUOUS
 62
     7
100
AcDbLine
 10
145.369233
 20
72.033631
 30
0.0
 11
145.381212
 21
72.033022
 31
0.0
  0
LINE
  5
3E2
330
3D8
100
AcDbEntity
  8
0
  6
CONTINUOUS
 62
     7
100
AcDbLine
 10
145.381212
 20
72.033022
 30
0.0
 11
145.393372
 21
72.032434
 31
0.0
  0
LINE
  5
3E3
330
3D8
100
AcDbEntity
  8
0
  6
CONTINUOUS
 62
     7
100
AcDbLine
 10
145.393372
 20
72.032434
 30
0.0
 11
145.405735
 21
72.031869
 31
0.0
  0
LINE
  5
3E4
330
3D8
100
AcDbEntity
  8
0
  6
CONTINUOUS
 62
     7
100
AcDbLine
 10
145.405735
 20
72.031869
 30
0.0
 11
145.418324
 21
72.031329
 31
0.0
  0
LINE
  5
3E5
330
3D8
100
AcDbEntity
  8
0
  6
CONTINUOUS
 62
     7
100
AcDbLine
 10
145.418324
 20
72.031329
 30
0.0
 11
145.431161
 21
72.030819
 31
0.0
  0
LINE
  5
3E6
330
3D8
100
AcDbEntity
  8
0
  6
CONTINUOUS
 62
     7
100
AcDbLine
 10
145.431161
 20
72.030819
 30
0.0
 11
145.44427
 21
72.03034
 31
0.0
  0
LINE
  5
3E7
330
3D8
100
AcDbEntity
  8
0
  6
CONTINUOUS
 62
     7
100
AcDbLine
 10
145.44427
 20
72.03034
 30
0.0
 11
145.457673
 21
72.029894
 31
0.0
  0
LINE
  5
3E8
330
3D8
100
AcDbEntity
  8
0
  6
CONTINUOUS
 62
     7
100
AcDbLine
 10
145.457673
 20
72.029894
 30
0.0
 11
145.471393
 21
72.029485
 31
0.0
  0
LINE
  5
3E9
330
3D8
100
AcDbEntity
  8
0
  6
CONTINUOUS
 62
     7
100
AcDbLine
 10
145.471393
 20
72.029485
 30
0.0
 11
145.485451
 21
72.029114
 31
0.0
  0
LINE
  5
3EA
330
3D8
100
AcDbEntity
  8
0
  6
CONTINUOUS
 62
     7
100
AcDbLine
 10
145.485451
 20
72.029114
 30
0.0
 11
145.493629
 21
72.028919
 31
0.0
  0
ENDBLK
  5
3DA
330
3D8
100
AcDbEntity
  8
0
100
AcDbBlockEnd
  0
BLOCK
  5
3EC
330
3EB
100
AcDbEntity
  8
0
100
AcDbBlockBegin
  2
BLKF023
 70
     0
 71
     0
 10
0.0
 20
0.0
 30
0.0
  3
BLKF023
  1

  0
LINE
  5
3EF
330
3EB
100
AcDbEntity
  8
0
  6
CONTINUOUS
 62
     7
100
AcDbLine
 10
146.684352
 20
72.055176
 30
0.0
 11
146.686963
 21
72.055381
 31
0.0
  0
LINE
  5
3F0
330
3EB
100
AcDbEntity
  8
0
  6
CONTINUOUS
 62
     7
100
AcDbLine
 10
146.686963
 20
72.055381
 30
0.0
 11
146.688791
 21
72.055515
 31
0.0
  0
LINE
  5
3F1
330
3EB
100
AcDbEntity
  8
0
  6
CONTINUOUS
 62
     7
100
AcDbLine
 10
146.688791
 20
72.055515
 30
0.0
 11
146.679461
 21
72.054771
 31
0.0
  0
LINE
  5
3F2
330
3EB
100
AcDbEntity
  8
0
  6
CONTINUOUS
 62
     7
100
AcDbLine
 10
146.679461
 20
72.054771
 30
0.0
 11
146.661773
 21
72.053388
 31
0.0
  0
LINE
  5
3F3
330
3EB
100
AcDbEntity
  8
0
  6
CONTINUOUS
 62
     7
100
AcDbLine
 10
146.661773
 20
72.053388
 30
0.0
 11
146.650668
 21
72.052531
 31
0.0
  0
LINE
  5
3F4
330
3EB
100
AcDbEntity
  8
0
  6
CONTINUOUS
 62
     7
100
AcDbLine
 10
146.650668
 20
72.052531
 30
0.0
 11
146.638523
 21
72.051605
 31
0.0
  0
LINE
  5
3F5
330
3EB
100
AcDbEntity
  8
0
  6
CONTINUOUS
 62
     7
100
AcDbLine
 10
146.638523
 20
72.051605
 30
0.0
 11
146.625607
 21
72.050632
 31
0.0
  0
LINE
  5
3F6
330
3EB
100
AcDbEntity
  8
0
  6
CONTINUOUS
 62
     7
100
AcDbLine
 10
146.625607
 20
72.050632
 30
0.0
 11
146.611942
 21
72.04962
 31
0.0
  0
LINE
  5
3F7
330
3EB
100
AcDbEntity
  8
0
  6
CONTINUOUS
 62
     7
100
AcDbLine
 10
146.611942
 20
72.04962
 30
0.0
 11
146.59747
 21
72.048568
 31
0.0
  0
LINE
  5
3F8
330
3EB
100
AcDbEntity
  8
0
  6
CONTINUOUS
 62
     7
100
AcDbLine
 10
146.59747
 20
72.048568
 30
0.0
 11
146.582134
 21
72.047478
 31
0.0
  0
LINE
  5
3F9
330
3EB
100
AcDbEntity
  8
0
  6
CONTINUOUS
 62
     7
100
AcDbLine
 10
146.582134
 20
72.047478
 30
0.0
 11
146.574124
 21
72.046919
 31
0.0
  0
LINE
  5
3FA
330
3EB
100
AcDbEntity
  8
0
  6
CONTINUOUS
 62
     7
100
AcDbLine
 10
146.574124
 20
72.046919
 30
0.0
 11
146.565877
 21
72.04635
 31
0.0
  0
LINE
  5
3FB
330
3EB
100
AcDbEntity
  8
0
  6
CONTINUOUS
 62
     7
100
AcDbLine
 10
146.565877
 20
72.04635
 30
0.0
 11
146.557385
 21
72.045773
 31
0.0
  0
LINE
  5
3FC
330
3EB
100
AcDbEntity
  8
0
  6
CONTINUOUS
 62
     7
100
AcDbLine
 10
146.557385
 20
72.045773
 30
0.0
 11
146.548642
 21
72.045186
 31
0.0
  0
LINE
  5
3FD
330
3EB
100
AcDbEntity
  8
0
  6
CONTINUOUS
 62
     7
100
AcDbLine
 10
146.548642
 20
72.045186
 30
0.0
 11
146.53964
 21
72.044589
 31
0.0
  0
LINE
  5
3FE
330
3EB
100
AcDbEntity
  8
0
  6
CONTINUOUS
 62
     7
100
AcDbLine
 10
146.53964
 20
72.044589
 30
0.0
 11
146.530371
 21
72.043984
 31
0.0
  0
LINE
  5
3FF
330
3EB
100
AcDbEntity
  8
0
  6
CONTINUOUS
 62
     7
100
AcDbLine
 10
146.530371
 20
72.043984
 30
0.0
 11
146.520829
 21
72.04337
 31
0.0
  0
LINE
  5
400
330
3EB
100
AcDbEntity
  8
0
  6
CONTINUOUS
 62
     7
100
AcDbLine
 10
146.520829
 20
72.04337
 30
0.0
 11
146.511007
 21
72.042747
 31
0.0
  0
LINE
  5
401
330
3EB
100
AcDbEntity
  8
0
  6
CONTINUOUS
 62
     7
100
AcDbLine
 10
146.511007
 20
72.042747
 30
0.0
 11
146.500599
 21
72.042097
 31
0.0
  0
LINE
  5
402
330
3EB
100
AcDbEntity
  8
0
  6
CONTINUOUS
 62
     7
100
AcDbLine
 10
146.500599
 20
72.042097
 30
0.0
 11
146.489895
 21
72.041438
 31
0.0
  0
LINE
  5
403
330
3EB
100
AcDbEntity
  8
0
  6
CONTINUOUS
 62
     7
100
AcDbLine
 10
146.489895
 20
72.041438
 30
0.0
 11
146.478903
 21
72.040773
 31
0.0
  0
LINE
  5
404
330
3EB
100
AcDbEntity
  8
0
  6
CONTINUOUS
 62
     7
100
AcDbLine
 10
146.478903
 20
72.040773
 30
0.0
 11
146.467633
 21
72.040103
 31
0.0
  0
LINE
  5
405
330
3EB
100
AcDbEntity
  8
0
  6
CONTINUOUS
 62
     7
100
AcDbLine
 10
146.467633
 20
72.040103
 30
0.0
 11
146.456094
 21
72.039429
 31
0.0
  0
LINE
  5
406
330
3EB
100
AcDbEntity
  8
0
  6
CONTINUOUS
 62
     7
100
AcDbLine
 10
146.456094
 20
72.039429
 30
0.0
 11
146.444293
 21
72.038753
 31
0.0
  0
LINE
  5
407
330
3EB
100
AcDbEntity
  8
0
  6
CONTINUOUS
 62
     7
100
AcDbLine
 10
146.444293
 20
72.038753
 30
0.0
 11
146.432241
 21
72.038075
 31
0.0
  0
LINE
  5
408
330
3EB
100
AcDbEntity
  8
0
  6
CONTINUOUS
 62
     7
100
AcDbLine
 10
146.432241
 20
72.038075
 30
0.0
 11
146.419944
 21
72.037398
 31
0.0
  0
LINE
  5
409
330
3EB
100
AcDbEntity
  8
0
  6
CONTINUOUS
 62
     7
100
AcDbLine
 10
146.419944
 20
72.037398
 30
0.0
 11
146.407413
 21
72.036722
 31
0.0
  0
LINE
  5
40A
330
3EB
100
AcDbEntity
  8
0
  6
CONTINUOUS
 62
     7
100
AcDbLine
 10
146.407413
 20
72.036722
 30
0.0
 11
146.394657
 21
72.036049
 31
0.0
  0
LINE
  5
40B
330
3EB
100
AcDbEntity
  8
0
  6
CONTINUOUS
 62
     7
100
AcDbLine
 10
146.394657
 20
72.036049
 30
0.0
 11
146.381682
 21
72.035381
 31
0.0
  0
LINE
  5
40C
330
3EB
100
AcDbEntity
  8
0
  6
CONTINUOUS
 62
     7
100
AcDbLine
 10
146.381682
 20
72.035381
 30
0.0
 11
146.3685
 21
72.034718
 31
0.0
  0
LINE
  5
40D
330
3EB
100
AcDbEntity
  8
0
  6
CONTINUOUS
 62
     7
100
AcDbLine
 10
146.3685
 20
72.034718
 30
0.0
 11
146.355117
 21
72.034063
 31
0.0
  0
LINE
  5
40E
330
3EB
100
AcDbEntity
  8
0
  6
CONTINUOUS
 62
     7
100
AcDbLine
 10
146.355117
 20
72.034063
 30
0.0
 11
146.341544
 21
72.033416
 31
0.0
  0
LINE
  5
40F
330
3EB
100
AcDbEntity
  8
0
  6
CONTINUOUS
 62
     7
100
AcDbLine
 10
146.341544
 20
72.033416
 30
0.0
 11
146.327788
 21
72.032778
 31
0.0
  0
LINE
  5
410
330
3EB
100
AcDbEntity
  8
0
  6
CONTINUOUS
 62
     7
100
AcDbLine
 10
146.327788
 20
72.032778
 30
0.0
 11
146.313859
 21
72.032152
 31
0.0
  0
LINE
  5
411
330
3EB
100
AcDbEntity
  8
0
  6
CONTINUOUS
 62
     7
100
AcDbLine
 10
146.313859
 20
72.032152
 30
0.0
 11
146.299189
 21
72.031514
 31
0.0
  0
LINE
  5
412
330
3EB
100
AcDbEntity
  8
0
  6
CONTINUOUS
 62
     7
100
AcDbLine
 10
146.299189
 20
72.031514
 30
0.0
 11
146.284346
 21
72.03089
 31
0.0
  0
LINE
  5
413
330
3EB
100
AcDbEntity
  8
0
  6
CONTINUOUS
 62
     7
100
AcDbLine
 10
146.284346
 20
72.03089
 30
0.0
 11
146.269337
 21
72.030281
 31
0.0
  0
LINE
  5
414
330
3EB
100
AcDbEntity
  8
0
  6
CONTINUOUS
 62
     7
100
AcDbLine
 10
146.269337
 20
72.030281
 30
0.0
 11
146.254167
 21
72.029689
 31
0.0
  0
LINE
  5
415
330
3EB
100
AcDbEntity
  8
0
  6
CONTINUOUS
 62
     7
100
AcDbLine
 10
146.254167
 20
72.029689
 30
0.0
 11
146.238842
 21
72.029113
 31
0.0
  0
LINE
  5
416
330
3EB
100
AcDbEntity
  8
0
  6
CONTINUOUS
 62
     7
100
AcDbLine
 10
146.238842
 20
72.029113
 30
0.0
 11
146.223368
 21
72.028555
 31
0.0
  0
LINE
  5
417
330
3EB
100
AcDbEntity
  8
0
  6
CONTINUOUS
 62
     7
100
AcDbLine
 10
146.223368
 20
72.028555
 30
0.0
 11
146.20775
 21
72.028015
 31
0.0
  0
LINE
  5
418
330
3EB
100
AcDbEntity
  8
0
  6
CONTINUOUS
 62
     7
100
AcDbLine
 10
146.20775
 20
72.028015
 30
0.0
 11
146.191995
 21
72.027494
 31
0.0
  0
LINE
  5
419
330
3EB
100
AcDbEntity
  8
0
  6
CONTINUOUS
 62
     7
100
AcDbLine
 10
146.191995
 20
72.027494
 30
0.0
 11
146.176108
 21
72.026994
 31
0.0
  0
LINE
  5
41A
330
3EB
100
AcDbEntity
  8
0
  6
CONTINUOUS
 62
     7
100
AcDbLine
 10
146.176108
 20
72.026994
 30
0.0
 11
146.160095
 21
72.026514
 31
0.0
  0
LINE
  5
41B
330
3EB
100
AcDbEntity
  8
0
  6
CONTINUOUS
 62
     7
100
AcDbLine
 10
146.160095
 20
72.026514
 30
0.0
 11
146.143962
 21
72.026056
 31
0.0
  0
LINE
  5
41C
330
3EB
100
AcDbEntity
  8
0
  6
CONTINUOUS
 62
     7
100
AcDbLine
 10
146.143962
 20
72.026056
 30
0.0
 11
146.127715
 21
72.02562
 31
0.0
  0
LINE
  5
41D
330
3EB
100
AcDbEntity
  8
0
  6
CONTINUOUS
 62
     7
100
AcDbLine
 10
146.127715
 20
72.02562
 30
0.0
 11
146.11136
 21
72.025208
 31
0.0
  0
LINE
  5
41E
330
3EB
100
AcDbEntity
  8
0
  6
CONTINUOUS
 62
     7
100
AcDbLine
 10
146.11136
 20
72.025208
 30
0.0
 11
146.094902
 21
72.02482
 31
0.0
  0
LINE
  5
41F
330
3EB
100
AcDbEntity
  8
0
  6
CONTINUOUS
 62
     7
100
AcDbLine
 10
146.094902
 20
72.02482
 30
0.0
 11
146.086637
 21
72.024635
 31
0.0
  0
LINE
  5
420
330
3EB
100
AcDbEntity
  8
0
  6
CONTINUOUS
 62
     7
100
AcDbLine
 10
146.086637
 20
72.024635
 30
0.0
 11
146.078348
 21
72.024456
 31
0.0
  0
LINE
  5
421
330
3EB
100
AcDbEntity
  8
0
  6
CONTINUOUS
 62
     7
100
AcDbLine
 10
146.078348
 20
72.024456
 30
0.0
 11
146.070036
 21
72.024284
 31
0.0
  0
LINE
  5
422
330
3EB
100
AcDbEntity
  8
0
  6
CONTINUOUS
 62
     7
100
AcDbLine
 10
146.070036
 20
72.024284
 30
0.0
 11
146.061703
 21
72.024119
 31
0.0
  0
LINE
  5
423
330
3EB
100
AcDbEntity
  8
0
  6
CONTINUOUS
 62
     7
100
AcDbLine
 10
146.061703
 20
72.024119
 30
0.0
 11
146.053072
 21
72.023954
 31
0.0
  0
LINE
  5
424
330
3EB
100
AcDbEntity
  8
0
  6
CONTINUOUS
 62
     7
100
AcDbLine
 10
146.053072
 20
72.023954
 30
0.0
 11
146.04442
 21
72.023797
 31
0.0
  0
LINE
  5
425
330
3EB
100
AcDbEntity
  8
0
  6
CONTINUOUS
 62
     7
100
AcDbLine
 10
146.04442
 20
72.023797
 30
0.0
 11
146.035748
 21
72.023648
 31
0.0
  0
LINE
  5
426
330
3EB
100
AcDbEntity
  8
0
  6
CONTINUOUS
 62
     7
100
AcDbLine
 10
146.035748
 20
72.023648
 30
0.0
 11
146.027056
 21
72.023505
 31
0.0
  0
LINE
  5
427
330
3EB
100
AcDbEntity
  8
0
  6
CONTINUOUS
 62
     7
100
AcDbLine
 10
146.027056
 20
72.023505
 30
0.0
 11
146.018345
 21
72.023369
 31
0.0
  0
LINE
  5
428
330
3EB
100
AcDbEntity
  8
0
  6
CONTINUOUS
 62
     7
100
AcDbLine
 10
146.018345
 20
72.023369
 30
0.0
 11
146.009616
 21
72.023241
 31
0.0
  0
LINE
  5
429
330
3EB
100
AcDbEntity
  8
0
  6
CONTINUOUS
 62
     7
100
AcDbLine
 10
146.009616
 20
72.023241
 30
0.0
 11
146.000871
 21
72.023119
 31
0.0
  0
LINE
  5
42A
330
3EB
100
AcDbEntity
  8
0
  6
CONTINUOUS
 62
     7
100
AcDbLine
 10
146.000871
 20
72.023119
 30
0.0
 11
145.99211
 21
72.023005
 31
0.0
  0
LINE
  5
42B
330
3EB
100
AcDbEntity
  8
0
  6
CONTINUOUS
 62
     7
100
AcDbLine
 10
145.99211
 20
72.023005
 30
0.0
 11
145.983335
 21
72.022899
 31
0.0
  0
LINE
  5
42C
330
3EB
100
AcDbEntity
  8
0
  6
CONTINUOUS
 62
     7
100
AcDbLine
 10
145.983335
 20
72.022899
 30
0.0
 11
145.974546
 21
72.022799
 31
0.0
  0
LINE
  5
42D
330
3EB
100
AcDbEntity
  8
0
  6
CONTINUOUS
 62
     7
100
AcDbLine
 10
145.974546
 20
72.022799
 30
0.0
 11
145.965745
 21
72.022707
 31
0.0
  0
LINE
  5
42E
330
3EB
100
AcDbEntity
  8
0
  6
CONTINUOUS
 62
     7
100
AcDbLine
 10
145.965745
 20
72.022707
 30
0.0
 11
145.956932
 21
72.022622
 31
0.0
  0
LINE
  5
42F
330
3EB
100
AcDbEntity
  8
0
  6
CONTINUOUS
 62
     7
100
AcDbLine
 10
145.956932
 20
72.022622
 30
0.0
 11
145.948108
 21
72.022545
 31
0.0
  0
LINE
  5
430
330
3EB
100
AcDbEntity
  8
0
  6
CONTINUOUS
 62
     7
100
AcDbLine
 10
145.948108
 20
72.022545
 30
0.0
 11
145.939275
 21
72.022475
 31
0.0
  0
LINE
  5
431
330
3EB
100
AcDbEntity
  8
0
  6
CONTINUOUS
 62
     7
100
AcDbLine
 10
145.939275
 20
72.022475
 30
0.0
 11
145.930433
 21
72.022412
 31
0.0
  0
LINE
  5
432
330
3EB
100
AcDbEntity
  8
0
  6
CONTINUOUS
 62
     7
100
AcDbLine
 10
145.930433
 20
72.022412
 30
0.0
 11
145.921584
 21
72.022357
 31
0.0
  0
LINE
  5
433
330
3EB
100
AcDbEntity
  8
0
  6
CONTINUOUS
 62
     7
100
AcDbLine
 10
145.921584
 20
72.022357
 30
0.0
 11
145.912728
 21
72.022309
 31
0.0
  0
LINE
  5
434
330
3EB
100
AcDbEntity
  8
0
  6
CONTINUOUS
 62
     7
100
AcDbLine
 10
145.912728
 20
72.022309
 30
0.0
 11
145.903867
 21
72.022268
 31
0.0
  0
LINE
  5
435
330
3EB
100
AcDbEntity
  8
0
  6
CONTINUOUS
 62
     7
100
AcDbLine
 10
145.903867
 20
72.022268
 30
0.0
 11
145.895001
 21
72.022235
 31
0.0
  0
LINE
  5
436
330
3EB
100
AcDbEntity
  8
0
  6
CONTINUOUS
 62
     7
100
AcDbLine
 10
145.895001
 20
72.022235
 30
0.0
 11
145.886132
 21
72.02221
 31
0.0
  0
LINE
  5
437
330
3EB
100
AcDbEntity
  8
0
  6
CONTINUOUS
 62
     7
100
AcDbLine
 10
145.886132
 20
72.02221
 30
0.0
 11
145.87726
 21
72.022192
 31
0.0
  0
LINE
  5
438
330
3EB
100
AcDbEntity
  8
0
  6
CONTINUOUS
 62
     7
100
AcDbLine
 10
145.87726
 20
72.022192
 30
0.0
 11
145.868387
 21
72.022182
 31
0.0
  0
LINE
  5
439
330
3EB
100
AcDbEntity
  8
0
  6
CONTINUOUS
 62
     7
100
AcDbLine
 10
145.868387
 20
72.022182
 30
0.0
 11
145.859513
 21
72.022179
 31
0.0
  0
LINE
  5
43A
330
3EB
100
AcDbEntity
  8
0
  6
CONTINUOUS
 62
     7
100
AcDbLine
 10
145.859513
 20
72.022179
 30
0.0
 11
145.85064
 21
72.022184
 31
0.0
  0
LINE
  5
43B
330
3EB
100
AcDbEntity
  8
0
  6
CONTINUOUS
 62
     7
100
AcDbLine
 10
145.85064
 20
72.022184
 30
0.0
 11
145.841768
 21
72.022197
 31
0.0
  0
LINE
  5
43C
330
3EB
100
AcDbEntity
  8
0
  6
CONTINUOUS
 62
     7
100
AcDbLine
 10
145.841768
 20
72.022197
 30
0.0
 11
145.832899
 21
72.022217
 31
0.0
  0
LINE
  5
43D
330
3EB
100
AcDbEntity
  8
0
  6
CONTINUOUS
 62
     7
100
AcDbLine
 10
145.832899
 20
72.022217
 30
0.0
 11
145.824033
 21
72.022245
 31
0.0
  0
LINE
  5
43E
330
3EB
100
AcDbEntity
  8
0
  6
CONTINUOUS
 62
     7
100
AcDbLine
 10
145.824033
 20
72.022245
 30
0.0
 11
145.815172
 21
72.022281
 31
0.0
  0
LINE
  5
43F
330
3EB
100
AcDbEntity
  8
0
  6
CONTINUOUS
 62
     7
100
AcDbLine
 10
145.815172
 20
72.022281
 30
0.0
 11
145.806317
 21
72.022324
 31
0.0
  0
LINE
  5
440
330
3EB
100
AcDbEntity
  8
0
  6
CONTINUOUS
 62
     7
100
AcDbLine
 10
145.806317
 20
72.022324
 30
0.0
 11
145.797468
 21
72.022375
 31
0.0
  0
LINE
  5
441
330
3EB
100
AcDbEntity
  8
0
  6
CONTINUOUS
 62
     7
100
AcDbLine
 10
145.797468
 20
72.022375
 30
0.0
 11
145.788627
 21
72.022434
 31
0.0
  0
LINE
  5
442
330
3EB
100
AcDbEntity
  8
0
  6
CONTINUOUS
 62
     7
100
AcDbLine
 10
145.788627
 20
72.022434
 30
0.0
 11
145.779794
 21
72.022501
 31
0.0
  0
LINE
  5
443
330
3EB
100
AcDbEntity
  8
0
  6
CONTINUOUS
 62
     7
100
AcDbLine
 10
145.779794
 20
72.022501
 30
0.0
 11
145.770838
 21
72.022577
 31
0.0
  0
LINE
  5
444
330
3EB
100
AcDbEntity
  8
0
  6
CONTINUOUS
 62
     7
100
AcDbLine
 10
145.770838
 20
72.022577
 30
0.0
 11
145.761893
 21
72.02266
 31
0.0
  0
LINE
  5
445
330
3EB
100
AcDbEntity
  8
0
  6
CONTINUOUS
 62
     7
100
AcDbLine
 10
145.761893
 20
72.02266
 30
0.0
 11
145.75296
 21
72.022752
 31
0.0
  0
LINE
  5
446
330
3EB
100
AcDbEntity
  8
0
  6
CONTINUOUS
 62
     7
100
AcDbLine
 10
145.75296
 20
72.022752
 30
0.0
 11
145.744039
 21
72.022851
 31
0.0
  0
LINE
  5
447
330
3EB
100
AcDbEntity
  8
0
  6
CONTINUOUS
 62
     7
100
AcDbLine
 10
145.744039
 20
72.022851
 30
0.0
 11
145.735132
 21
72.022959
 31
0.0
  0
LINE
  5
448
330
3EB
100
AcDbEntity
  8
0
  6
CONTINUOUS
 62
     7
100
AcDbLine
 10
145.735132
 20
72.022959
 30
0.0
 11
145.72624
 21
72.023074
 31
0.0
  0
LINE
  5
449
330
3EB
100
AcDbEntity
  8
0
  6
CONTINUOUS
 62
     7
100
AcDbLine
 10
145.72624
 20
72.023074
 30
0.0
 11
145.717362
 21
72.023196
 31
0.0
  0
LINE
  5
44A
330
3EB
100
AcDbEntity
  8
0
  6
CONTINUOUS
 62
     7
100
AcDbLine
 10
145.717362
 20
72.023196
 30
0.0
 11
145.708501
 21
72.023326
 31
0.0
  0
LINE
  5
44B
330
3EB
100
AcDbEntity
  8
0
  6
CONTINUOUS
 62
     7
100
AcDbLine
 10
145.708501
 20
72.023326
 30
0.0
 11
145.699657
 21
72.023463
 31
0.0
  0
LINE
  5
44C
330
3EB
100
AcDbEntity
  8
0
  6
CONTINUOUS
 62
     7
100
AcDbLine
 10
145.699657
 20
72.023463
 30
0.0
 11
145.69083
 21
72.023608
 31
0.0
  0
LINE
  5
44D
330
3EB
100
AcDbEntity
  8
0
  6
CONTINUOUS
 62
     7
100
AcDbLine
 10
145.69083
 20
72.023608
 30
0.0
 11
145.682023
 21
72.02376
 31
0.0
  0
LINE
  5
44E
330
3EB
100
AcDbEntity
  8
0
  6
CONTINUOUS
 62
     7
100
AcDbLine
 10
145.682023
 20
72.02376
 30
0.0
 11
145.673235
 21
72.023919
 31
0.0
  0
LINE
  5
44F
330
3EB
100
AcDbEntity
  8
0
  6
CONTINUOUS
 62
     7
100
AcDbLine
 10
145.673235
 20
72.023919
 30
0.0
 11
145.664469
 21
72.024085
 31
0.0
  0
LINE
  5
450
330
3EB
100
AcDbEntity
  8
0
  6
CONTINUOUS
 62
     7
100
AcDbLine
 10
145.664469
 20
72.024085
 30
0.0
 11
145.655723
 21
72.024258
 31
0.0
  0
LINE
  5
451
330
3EB
100
AcDbEntity
  8
0
  6
CONTINUOUS
 62
     7
100
AcDbLine
 10
145.655723
 20
72.024258
 30
0.0
 11
145.647
 21
72.024439
 31
0.0
  0
LINE
  5
452
330
3EB
100
AcDbEntity
  8
0
  6
CONTINUOUS
 62
     7
100
AcDbLine
 10
145.647
 20
72.024439
 30
0.0
 11
145.638301
 21
72.024626
 31
0.0
  0
LINE
  5
453
330
3EB
100
AcDbEntity
  8
0
  6
CONTINUOUS
 62
     7
100
AcDbLine
 10
145.638301
 20
72.024626
 30
0.0
 11
145.629626
 21
72.024819
 31
0.0
  0
LINE
  5
454
330
3EB
100
AcDbEntity
  8
0
  6
CONTINUOUS
 62
     7
100
AcDbLine
 10
145.629626
 20
72.024819
 30
0.0
 11
145.620976
 21
72.02502
 31
0.0
  0
LINE
  5
455
330
3EB
100
AcDbEntity
  8
0
  6
CONTINUOUS
 62
     7
100
AcDbLine
 10
145.620976
 20
72.02502
 30
0.0
 11
145.612352
 21
72.025227
 31
0.0
  0
LINE
  5
456
330
3EB
100
AcDbEntity
  8
0
  6
CONTINUOUS
 62
     7
100
AcDbLine
 10
145.612352
 20
72.025227
 30
0.0
 11
145.603755
 21
72.02544
 31
0.0
  0
LINE
  5
457
330
3EB
100
AcDbEntity
  8
0
  6
CONTINUOUS
 62
     7
100
AcDbLine
 10
145.603755
 20
72.02544
 30
0.0
 11
145.595186
 21
72.02566
 31
0.0
  0
LINE
  5
458
330
3EB
100
AcDbEntity
  8
0
  6
CONTINUOUS
 62
     7
100
AcDbLine
 10
145.595186
 20
72.02566
 30
0.0
 11
145.586645
 21
72.025887
 31
0.0
  0
LINE
  5
459
330
3EB
100
AcDbEntity
  8
0
  6
CONTINUOUS
 62
     7
100
AcDbLine
 10
145.586645
 20
72.025887
 30
0.0
 11
145.578135
 21
72.026119
 31
0.0
  0
LINE
  5
45A
330
3EB
100
AcDbEntity
  8
0
  6
CONTINUOUS
 62
     7
100
AcDbLine
 10
145.578135
 20
72.026119
 30
0.0
 11
145.569655
 21
72.026358
 31
0.0
  0
LINE
  5
45B
330
3EB
100
AcDbEntity
  8
0
  6
CONTINUOUS
 62
     7
100
AcDbLine
 10
145.569655
 20
72.026358
 30
0.0
 11
145.561206
 21
72.026603
 31
0.0
  0
LINE
  5
45C
330
3EB
100
AcDbEntity
  8
0
  6
CONTINUOUS
 62
     7
100
AcDbLine
 10
145.561206
 20
72.026603
 30
0.0
 11
145.55279
 21
72.026854
 31
0.0
  0
LINE
  5
45D
330
3EB
100
AcDbEntity
  8
0
  6
CONTINUOUS
 62
     7
100
AcDbLine
 10
145.55279
 20
72.026854
 30
0.0
 11
145.544407
 21
72.027111
 31
0.0
  0
LINE
  5
45E
330
3EB
100
AcDbEntity
  8
0
  6
CONTINUOUS
 62
     7
100
AcDbLine
 10
145.544407
 20
72.027111
 30
0.0
 11
145.536058
 21
72.027374
 31
0.0
  0
LINE
  5
45F
330
3EB
100
AcDbEntity
  8
0
  6
CONTINUOUS
 62
     7
100
AcDbLine
 10
145.536058
 20
72.027374
 30
0.0
 11
145.527744
 21
72.027642
 31
0.0
  0
LINE
  5
460
330
3EB
100
AcDbEntity
  8
0
  6
CONTINUOUS
 62
     7
100
AcDbLine
 10
145.527744
 20
72.027642
 30
0.0
 11
145.519466
 21
72.027917
 31
0.0
  0
LINE
  5
461
330
3EB
100
AcDbEntity
  8
0
  6
CONTINUOUS
 62
     7
100
AcDbLine
 10
145.519466
 20
72.027917
 30
0.0
 11
145.511225
 21
72.028196
 31
0.0
  0
LINE
  5
462
330
3EB
100
AcDbEntity
  8
0
  6
CONTINUOUS
 62
     7
100
AcDbLine
 10
145.511225
 20
72.028196
 30
0.0
 11
145.503022
 21
72.028482
 31
0.0
  0
LINE
  5
463
330
3EB
100
AcDbEntity
  8
0
  6
CONTINUOUS
 62
     7
100
AcDbLine
 10
145.503022
 20
72.028482
 30
0.0
 11
145.486823
 21
72.029066
 31
0.0
  0
LINE
  5
464
330
3EB
100
AcDbEntity
  8
0
  6
CONTINUOUS
 62
     7
100
AcDbLine
 10
145.486823
 20
72.029066
 30
0.0
 11
145.470786
 21
72.029669
 31
0.0
  0
LINE
  5
465
330
3EB
100
AcDbEntity
  8
0
  6
CONTINUOUS
 62
     7
100
AcDbLine
 10
145.470786
 20
72.029669
 30
0.0
 11
145.454923
 21
72.030292
 31
0.0
  0
LINE
  5
466
330
3EB
100
AcDbEntity
  8
0
  6
CONTINUOUS
 62
     7
100
AcDbLine
 10
145.454923
 20
72.030292
 30
0.0
 11
145.439242
 21
72.030931
 31
0.0
  0
LINE
  5
467
330
3EB
100
AcDbEntity
  8
0
  6
CONTINUOUS
 62
     7
100
AcDbLine
 10
145.439242
 20
72.030931
 30
0.0
 11
145.423754
 21
72.031586
 31
0.0
  0
LINE
  5
468
330
3EB
100
AcDbEntity
  8
0
  6
CONTINUOUS
 62
     7
100
AcDbLine
 10
145.423754
 20
72.031586
 30
0.0
 11
145.408468
 21
72.032255
 31
0.0
  0
LINE
  5
469
330
3EB
100
AcDbEntity
  8
0
  6
CONTINUOUS
 62
     7
100
AcDbLine
 10
145.408468
 20
72.032255
 30
0.0
 11
145.393395
 21
72.032936
 31
0.0
  0
LINE
  5
46A
330
3EB
100
AcDbEntity
  8
0
  6
CONTINUOUS
 62
     7
100
AcDbLine
 10
145.393395
 20
72.032936
 30
0.0
 11
145.378545
 21
72.033628
 31
0.0
  0
LINE
  5
46B
330
3EB
100
AcDbEntity
  8
0
  6
CONTINUOUS
 62
     7
100
AcDbLine
 10
145.378545
 20
72.033628
 30
0.0
 11
145.363927
 21
72.03433
 31
0.0
  0
LINE
  5
46C
330
3EB
100
AcDbEntity
  8
0
  6
CONTINUOUS
 62
     7
100
AcDbLine
 10
145.363927
 20
72.03433
 30
0.0
 11
145.349552
 21
72.035039
 31
0.0
  0
LINE
  5
46D
330
3EB
100
AcDbEntity
  8
0
  6
CONTINUOUS
 62
     7
100
AcDbLine
 10
145.349552
 20
72.035039
 30
0.0
 11
145.335429
 21
72.035755
 31
0.0
  0
LINE
  5
46E
330
3EB
100
AcDbEntity
  8
0
  6
CONTINUOUS
 62
     7
100
AcDbLine
 10
145.335429
 20
72.035755
 30
0.0
 11
145.321568
 21
72.036475
 31
0.0
  0
LINE
  5
46F
330
3EB
100
AcDbEntity
  8
0
  6
CONTINUOUS
 62
     7
100
AcDbLine
 10
145.321568
 20
72.036475
 30
0.0
 11
145.30798
 21
72.037199
 31
0.0
  0
LINE
  5
470
330
3EB
100
AcDbEntity
  8
0
  6
CONTINUOUS
 62
     7
100
AcDbLine
 10
145.30798
 20
72.037199
 30
0.0
 11
145.294674
 21
72.037925
 31
0.0
  0
LINE
  5
471
330
3EB
100
AcDbEntity
  8
0
  6
CONTINUOUS
 62
     7
100
AcDbLine
 10
145.294674
 20
72.037925
 30
0.0
 11
145.281661
 21
72.03865
 31
0.0
  0
LINE
  5
472
330
3EB
100
AcDbEntity
  8
0
  6
CONTINUOUS
 62
     7
100
AcDbLine
 10
145.281661
 20
72.03865
 30
0.0
 11
145.268949
 21
72.039375
 31
0.0
  0
LINE
  5
473
330
3EB
100
AcDbEntity
  8
0
  6
CONTINUOUS
 62
     7
100
AcDbLine
 10
145.268949
 20
72.039375
 30
0.0
 11
145.256871
 21
72.040077
 31
0.0
  0
LINE
  5
474
330
3EB
100
AcDbEntity
  8
0
  6
CONTINUOUS
 62
     7
100
AcDbLine
 10
145.256871
 20
72.040077
 30
0.0
 11
145.245085
 21
72.040777
 31
0.0
  0
LINE
  5
475
330
3EB
100
AcDbEntity
  8
0
  6
CONTINUOUS
 62
     7
100
AcDbLine
 10
145.245085
 20
72.040777
 30
0.0
 11
145.23359
 21
72.041472
 31
0.0
  0
LINE
  5
476
330
3EB
100
AcDbEntity
  8
0
  6
CONTINUOUS
 62
     7
100
AcDbLine
 10
145.23359
 20
72.041472
 30
0.0
 11
145.22238
 21
72.042163
 31
0.0
  0
LINE
  5
477
330
3EB
100
AcDbEntity
  8
0
  6
CONTINUOUS
 62
     7
100
AcDbLine
 10
145.22238
 20
72.042163
 30
0.0
 11
145.211455
 21
72.042849
 31
0.0
  0
LINE
  5
478
330
3EB
100
AcDbEntity
  8
0
  6
CONTINUOUS
 62
     7
100
AcDbLine
 10
145.211455
 20
72.042849
 30
0.0
 11
145.200809
 21
72.043528
 31
0.0
  0
LINE
  5
479
330
3EB
100
AcDbEntity
  8
0
  6
CONTINUOUS
 62
     7
100
AcDbLine
 10
145.200809
 20
72.043528
 30
0.0
 11
145.190441
 21
72.044202
 31
0.0
  0
LINE
  5
47A
330
3EB
100
AcDbEntity
  8
0
  6
CONTINUOUS
 62
     7
100
AcDbLine
 10
145.190441
 20
72.044202
 30
0.0
 11
145.180348
 21
72.044868
 31
0.0
  0
LINE
  5
47B
330
3EB
100
AcDbEntity
  8
0
  6
CONTINUOUS
 62
     7
100
AcDbLine
 10
145.180348
 20
72.044868
 30
0.0
 11
145.170525
 21
72.045527
 31
0.0
  0
LINE
  5
47C
330
3EB
100
AcDbEntity
  8
0
  6
CONTINUOUS
 62
     7
100
AcDbLine
 10
145.170525
 20
72.045527
 30
0.0
 11
145.16097
 21
72.046177
 31
0.0
  0
LINE
  5
47D
330
3EB
100
AcDbEntity
  8
0
  6
CONTINUOUS
 62
     7
100
AcDbLine
 10
145.16097
 20
72.046177
 30
0.0
 11
145.151681
 21
72.046818
 31
0.0
  0
LINE
  5
47E
330
3EB
100
AcDbEntity
  8
0
  6
CONTINUOUS
 62
     7
100
AcDbLine
 10
145.151681
 20
72.046818
 30
0.0
 11
145.142653
 21
72.04745
 31
0.0
  0
LINE
  5
47F
330
3EB
100
AcDbEntity
  8
0
  6
CONTINUOUS
 62
     7
100
AcDbLine
 10
145.142653
 20
72.04745
 30
0.0
 11
145.133884
 21
72.048072
 31
0.0
  0
LINE
  5
480
330
3EB
100
AcDbEntity
  8
0
  6
CONTINUOUS
 62
     7
100
AcDbLine
 10
145.133884
 20
72.048072
 30
0.0
 11
145.125371
 21
72.048682
 31
0.0
  0
LINE
  5
481
330
3EB
100
AcDbEntity
  8
0
  6
CONTINUOUS
 62
     7
100
AcDbLine
 10
145.125371
 20
72.048682
 30
0.0
 11
145.109099
 21
72.049869
 31
0.0
  0
LINE
  5
482
330
3EB
100
AcDbEntity
  8
0
  6
CONTINUOUS
 62
     7
100
AcDbLine
 10
145.109099
 20
72.049869
 30
0.0
 11
145.094466
 21
72.050956
 31
0.0
  0
LINE
  5
483
330
3EB
100
AcDbEntity
  8
0
  6
CONTINUOUS
 62
     7
100
AcDbLine
 10
145.094466
 20
72.050956
 30
0.0
 11
145.081009
 21
72.051971
 31
0.0
  0
LINE
  5
484
330
3EB
100
AcDbEntity
  8
0
  6
CONTINUOUS
 62
     7
100
AcDbLine
 10
145.081009
 20
72.051971
 30
0.0
 11
145.068997
 21
72.05289
 31
0.0
  0
LINE
  5
485
330
3EB
100
AcDbEntity
  8
0
  6
CONTINUOUS
 62
     7
100
AcDbLine
 10
145.068997
 20
72.05289
 30
0.0
 11
145.058698
 21
72.053687
 31
0.0
  0
LINE
  5
486
330
3EB
100
AcDbEntity
  8
0
  6
CONTINUOUS
 62
     7
100
AcDbLine
 10
145.058698
 20
72.053687
 30
0.0
 11
145.04432
 21
72.054819
 31
0.0
  0
LINE
  5
487
330
3EB
100
AcDbEntity
  8
0
  6
CONTINUOUS
 62
     7
100
AcDbLine
 10
145.04432
 20
72.054819
 30
0.0
 11
145.040026
 21
72.055166
 31
0.0
  0
LINE
  5
488
330
3EB
100
AcDbEntity
  8
0
  6
CONTINUOUS
 62
     7
100
AcDbLine
 10
145.040026
 20
72.055166
 30
0.0
 11
145.045508
 21
72.054733
 31
0.0
  0
ENDBLK
  5
3ED
330
3EB
100
AcDbEntity
  8
0
100
AcDbBlockEnd
  0
BLOCK
  5
48A
330
489
100
AcDbEntity
  8
0
100
AcDbBlockBegin
  2
BLKF024
 70
     0
 71
     0
 10
0.0
 20
0.0
 30
0.0
  3
BLKF024
  1

  0
LINE
  5
48D
330
489
100
AcDbEntity
  8
0
  6
CONTINUOUS
 62
     7
100
AcDbLine
 10
145.288547
 20
53.172534
 30
0.0
 11
145.265993
 21
53.171163
 31
0.0
  0
LINE
  5
48E
330
489
100
AcDbEntity
  8
0
  6
CONTINUOUS
 62
     7
100
AcDbLine
 10
145.265993
 20
53.171163
 30
0.0
 11
145.243814
 21
53.169811
 31
0.0
  0
LINE
  5
48F
330
489
100
AcDbEntity
  8
0
  6
CONTINUOUS
 62
     7
100
AcDbLine
 10
145.243814
 20
53.169811
 30
0.0
 11
145.222383
 21
53.168495
 31
0.0
  0
LINE
  5
490
330
489
100
AcDbEntity
  8
0
  6
CONTINUOUS
 62
     7
100
AcDbLine
 10
145.222383
 20
53.168495
 30
0.0
 11
145.202076
 21
53.167235
 31
0.0
  0
LINE
  5
491
330
489
100
AcDbEntity
  8
0
  6
CONTINUOUS
 62
     7
100
AcDbLine
 10
145.202076
 20
53.167235
 30
0.0
 11
145.183266
 21
53.166048
 31
0.0
  0
LINE
  5
492
330
489
100
AcDbEntity
  8
0
  6
CONTINUOUS
 62
     7
100
AcDbLine
 10
145.183266
 20
53.166048
 30
0.0
 11
145.166329
 21
53.164954
 31
0.0
  0
LINE
  5
493
330
489
100
AcDbEntity
  8
0
  6
CONTINUOUS
 62
     7
100
AcDbLine
 10
145.166329
 20
53.164954
 30
0.0
 11
145.151638
 21
53.16397
 31
0.0
  0
LINE
  5
494
330
489
100
AcDbEntity
  8
0
  6
CONTINUOUS
 62
     7
100
AcDbLine
 10
145.151638
 20
53.16397
 30
0.0
 11
145.145251
 21
53.163525
 31
0.0
  0
LINE
  5
495
330
489
100
AcDbEntity
  8
0
  6
CONTINUOUS
 62
     7
100
AcDbLine
 10
145.145251
 20
53.163525
 30
0.0
 11
145.139567
 21
53.163114
 31
0.0
  0
LINE
  5
496
330
489
100
AcDbEntity
  8
0
  6
CONTINUOUS
 62
     7
100
AcDbLine
 10
145.139567
 20
53.163114
 30
0.0
 11
145.134867
 21
53.162762
 31
0.0
  0
ENDBLK
  5
48B
330
489
100
AcDbEntity
  8
0
100
AcDbBlockEnd
  0
BLOCK
  5
498
330
497
100
AcDbEntity
  8
0
100
AcDbBlockBegin
  2
BLKF025
 70
     0
 71
     0
 10
0.0
 20
0.0
 30
0.0
  3
BLKF025
  1

  0
LINE
  5
49B
330
497
100
AcDbEntity
  8
0
  6
CONTINUOUS
 62
     7
100
AcDbLine
 10
145.048254
 20
53.156281
 30
0.0
 11
145.048202
 21
53.156278
 31
0.0
  0
LINE
  5
49C
330
497
100
AcDbEntity
  8
0
  6
CONTINUOUS
 62
     7
100
AcDbLine
 10
145.048202
 20
53.156278
 30
0.0
 11
145.058873
 21
53.157117
 31
0.0
  0
LINE
  5
49D
330
497
100
AcDbEntity
  8
0
  6
CONTINUOUS
 62
     7
100
AcDbLine
 10
145.058873
 20
53.157117
 30
0.0
 11
145.077401
 21
53.158546
 31
0.0
  0
LINE
  5
49E
330
497
100
AcDbEntity
  8
0
  6
CONTINUOUS
 62
     7
100
AcDbLine
 10
145.077401
 20
53.158546
 30
0.0
 11
145.089162
 21
53.159437
 31
0.0
  0
LINE
  5
49F
330
497
100
AcDbEntity
  8
0
  6
CONTINUOUS
 62
     7
100
AcDbLine
 10
145.089162
 20
53.159437
 30
0.0
 11
145.102348
 21
53.160421
 31
0.0
  0
LINE
  5
4A0
330
497
100
AcDbEntity
  8
0
  6
CONTINUOUS
 62
     7
100
AcDbLine
 10
145.102348
 20
53.160421
 30
0.0
 11
145.11678
 21
53.161481
 31
0.0
  0
LINE
  5
4A1
330
497
100
AcDbEntity
  8
0
  6
CONTINUOUS
 62
     7
100
AcDbLine
 10
145.11678
 20
53.161481
 30
0.0
 11
145.132278
 21
53.162599
 31
0.0
  0
LINE
  5
4A2
330
497
100
AcDbEntity
  8
0
  6
CONTINUOUS
 62
     7
100
AcDbLine
 10
145.132278
 20
53.162599
 30
0.0
 11
145.148942
 21
53.163775
 31
0.0
  0
LINE
  5
4A3
330
497
100
AcDbEntity
  8
0
  6
CONTINUOUS
 62
     7
100
AcDbLine
 10
145.148942
 20
53.163775
 30
0.0
 11
145.166523
 21
53.164986
 31
0.0
  0
LINE
  5
4A4
330
497
100
AcDbEntity
  8
0
  6
CONTINUOUS
 62
     7
100
AcDbLine
 10
145.166523
 20
53.164986
 30
0.0
 11
145.185026
 21
53.166227
 31
0.0
  0
LINE
  5
4A5
330
497
100
AcDbEntity
  8
0
  6
CONTINUOUS
 62
     7
100
AcDbLine
 10
145.185026
 20
53.166227
 30
0.0
 11
145.204454
 21
53.167493
 31
0.0
  0
LINE
  5
4A6
330
497
100
AcDbEntity
  8
0
  6
CONTINUOUS
 62
     7
100
AcDbLine
 10
145.204454
 20
53.167493
 30
0.0
 11
145.224812
 21
53.168778
 31
0.0
  0
LINE
  5
4A7
330
497
100
AcDbEntity
  8
0
  6
CONTINUOUS
 62
     7
100
AcDbLine
 10
145.224812
 20
53.168778
 30
0.0
 11
145.246105
 21
53.170078
 31
0.0
  0
LINE
  5
4A8
330
497
100
AcDbEntity
  8
0
  6
CONTINUOUS
 62
     7
100
AcDbLine
 10
145.246105
 20
53.170078
 30
0.0
 11
145.257103
 21
53.170732
 31
0.0
  0
LINE
  5
4A9
330
497
100
AcDbEntity
  8
0
  6
CONTINUOUS
 62
     7
100
AcDbLine
 10
145.257103
 20
53.170732
 30
0.0
 11
145.268336
 21
53.171387
 31
0.0
  0
LINE
  5
4AA
330
497
100
AcDbEntity
  8
0
  6
CONTINUOUS
 62
     7
100
AcDbLine
 10
145.268336
 20
53.171387
 30
0.0
 11
145.279806
 21
53.172043
 31
0.0
  0
LINE
  5
4AB
330
497
100
AcDbEntity
  8
0
  6
CONTINUOUS
 62
     7
100
AcDbLine
 10
145.279806
 20
53.172043
 30
0.0
 11
145.291511
 21
53.1727
 31
0.0
  0
LINE
  5
4AC
330
497
100
AcDbEntity
  8
0
  6
CONTINUOUS
 62
     7
100
AcDbLine
 10
145.291511
 20
53.1727
 30
0.0
 11
145.303896
 21
53.17338
 31
0.0
  0
LINE
  5
4AD
330
497
100
AcDbEntity
  8
0
  6
CONTINUOUS
 62
     7
100
AcDbLine
 10
145.303896
 20
53.17338
 30
0.0
 11
145.316529
 21
53.174058
 31
0.0
  0
LINE
  5
4AE
330
497
100
AcDbEntity
  8
0
  6
CONTINUOUS
 62
     7
100
AcDbLine
 10
145.316529
 20
53.174058
 30
0.0
 11
145.3294
 21
53.174734
 31
0.0
  0
LINE
  5
4AF
330
497
100
AcDbEntity
  8
0
  6
CONTINUOUS
 62
     7
100
AcDbLine
 10
145.3294
 20
53.174734
 30
0.0
 11
145.342503
 21
53.175406
 31
0.0
  0
LINE
  5
4B0
330
497
100
AcDbEntity
  8
0
  6
CONTINUOUS
 62
     7
100
AcDbLine
 10
145.342503
 20
53.175406
 30
0.0
 11
145.355831
 21
53.176073
 31
0.0
  0
LINE
  5
4B1
330
497
100
AcDbEntity
  8
0
  6
CONTINUOUS
 62
     7
100
AcDbLine
 10
145.355831
 20
53.176073
 30
0.0
 11
145.369375
 21
53.176733
 31
0.0
  0
LINE
  5
4B2
330
497
100
AcDbEntity
  8
0
  6
CONTINUOUS
 62
     7
100
AcDbLine
 10
145.369375
 20
53.176733
 30
0.0
 11
145.383127
 21
53.177386
 31
0.0
  0
LINE
  5
4B3
330
497
100
AcDbEntity
  8
0
  6
CONTINUOUS
 62
     7
100
AcDbLine
 10
145.383127
 20
53.177386
 30
0.0
 11
145.397081
 21
53.17803
 31
0.0
  0
LINE
  5
4B4
330
497
100
AcDbEntity
  8
0
  6
CONTINUOUS
 62
     7
100
AcDbLine
 10
145.397081
 20
53.17803
 30
0.0
 11
145.411228
 21
53.178664
 31
0.0
  0
LINE
  5
4B5
330
497
100
AcDbEntity
  8
0
  6
CONTINUOUS
 62
     7
100
AcDbLine
 10
145.411228
 20
53.178664
 30
0.0
 11
145.425561
 21
53.179287
 31
0.0
  0
LINE
  5
4B6
330
497
100
AcDbEntity
  8
0
  6
CONTINUOUS
 62
     7
100
AcDbLine
 10
145.425561
 20
53.179287
 30
0.0
 11
145.440073
 21
53.179898
 31
0.0
  0
LINE
  5
4B7
330
497
100
AcDbEntity
  8
0
  6
CONTINUOUS
 62
     7
100
AcDbLine
 10
145.440073
 20
53.179898
 30
0.0
 11
145.454755
 21
53.180495
 31
0.0
  0
LINE
  5
4B8
330
497
100
AcDbEntity
  8
0
  6
CONTINUOUS
 62
     7
100
AcDbLine
 10
145.454755
 20
53.180495
 30
0.0
 11
145.4696
 21
53.181078
 31
0.0
  0
LINE
  5
4B9
330
497
100
AcDbEntity
  8
0
  6
CONTINUOUS
 62
     7
100
AcDbLine
 10
145.4696
 20
53.181078
 30
0.0
 11
145.4846
 21
53.181645
 31
0.0
  0
LINE
  5
4BA
330
497
100
AcDbEntity
  8
0
  6
CONTINUOUS
 62
     7
100
AcDbLine
 10
145.4846
 20
53.181645
 30
0.0
 11
145.499748
 21
53.182195
 31
0.0
  0
LINE
  5
4BB
330
497
100
AcDbEntity
  8
0
  6
CONTINUOUS
 62
     7
100
AcDbLine
 10
145.499748
 20
53.182195
 30
0.0
 11
145.515036
 21
53.182726
 31
0.0
  0
LINE
  5
4BC
330
497
100
AcDbEntity
  8
0
  6
CONTINUOUS
 62
     7
100
AcDbLine
 10
145.515036
 20
53.182726
 30
0.0
 11
145.531063
 21
53.183258
 31
0.0
  0
LINE
  5
4BD
330
497
100
AcDbEntity
  8
0
  6
CONTINUOUS
 62
     7
100
AcDbLine
 10
145.531063
 20
53.183258
 30
0.0
 11
145.547226
 21
53.183768
 31
0.0
  0
LINE
  5
4BE
330
497
100
AcDbEntity
  8
0
  6
CONTINUOUS
 62
     7
100
AcDbLine
 10
145.547226
 20
53.183768
 30
0.0
 11
145.563519
 21
53.184257
 31
0.0
  0
LINE
  5
4BF
330
497
100
AcDbEntity
  8
0
  6
CONTINUOUS
 62
     7
100
AcDbLine
 10
145.563519
 20
53.184257
 30
0.0
 11
145.579934
 21
53.184722
 31
0.0
  0
LINE
  5
4C0
330
497
100
AcDbEntity
  8
0
  6
CONTINUOUS
 62
     7
100
AcDbLine
 10
145.579934
 20
53.184722
 30
0.0
 11
145.596465
 21
53.185164
 31
0.0
  0
LINE
  5
4C1
330
497
100
AcDbEntity
  8
0
  6
CONTINUOUS
 62
     7
100
AcDbLine
 10
145.596465
 20
53.185164
 30
0.0
 11
145.613104
 21
53.185582
 31
0.0
  0
LINE
  5
4C2
330
497
100
AcDbEntity
  8
0
  6
CONTINUOUS
 62
     7
100
AcDbLine
 10
145.613104
 20
53.185582
 30
0.0
 11
145.629845
 21
53.185976
 31
0.0
  0
LINE
  5
4C3
330
497
100
AcDbEntity
  8
0
  6
CONTINUOUS
 62
     7
100
AcDbLine
 10
145.629845
 20
53.185976
 30
0.0
 11
145.646682
 21
53.186345
 31
0.0
  0
LINE
  5
4C4
330
497
100
AcDbEntity
  8
0
  6
CONTINUOUS
 62
     7
100
AcDbLine
 10
145.646682
 20
53.186345
 30
0.0
 11
145.663606
 21
53.186688
 31
0.0
  0
LINE
  5
4C5
330
497
100
AcDbEntity
  8
0
  6
CONTINUOUS
 62
     7
100
AcDbLine
 10
145.663606
 20
53.186688
 30
0.0
 11
145.680612
 21
53.187005
 31
0.0
  0
LINE
  5
4C6
330
497
100
AcDbEntity
  8
0
  6
CONTINUOUS
 62
     7
100
AcDbLine
 10
145.680612
 20
53.187005
 30
0.0
 11
145.697693
 21
53.187295
 31
0.0
  0
LINE
  5
4C7
330
497
100
AcDbEntity
  8
0
  6
CONTINUOUS
 62
     7
100
AcDbLine
 10
145.697693
 20
53.187295
 30
0.0
 11
145.714841
 21
53.187558
 31
0.0
  0
LINE
  5
4C8
330
497
100
AcDbEntity
  8
0
  6
CONTINUOUS
 62
     7
100
AcDbLine
 10
145.714841
 20
53.187558
 30
0.0
 11
145.73205
 21
53.187793
 31
0.0
  0
LINE
  5
4C9
330
497
100
AcDbEntity
  8
0
  6
CONTINUOUS
 62
     7
100
AcDbLine
 10
145.73205
 20
53.187793
 30
0.0
 11
145.749313
 21
53.187999
 31
0.0
  0
LINE
  5
4CA
330
497
100
AcDbEntity
  8
0
  6
CONTINUOUS
 62
     7
100
AcDbLine
 10
145.749313
 20
53.187999
 30
0.0
 11
145.766624
 21
53.188177
 31
0.0
  0
LINE
  5
4CB
330
497
100
AcDbEntity
  8
0
  6
CONTINUOUS
 62
     7
100
AcDbLine
 10
145.766624
 20
53.188177
 30
0.0
 11
145.783974
 21
53.188324
 31
0.0
  0
LINE
  5
4CC
330
497
100
AcDbEntity
  8
0
  6
CONTINUOUS
 62
     7
100
AcDbLine
 10
145.783974
 20
53.188324
 30
0.0
 11
145.801807
 21
53.188445
 31
0.0
  0
LINE
  5
4CD
330
497
100
AcDbEntity
  8
0
  6
CONTINUOUS
 62
     7
100
AcDbLine
 10
145.801807
 20
53.188445
 30
0.0
 11
145.819667
 21
53.188533
 31
0.0
  0
LINE
  5
4CE
330
497
100
AcDbEntity
  8
0
  6
CONTINUOUS
 62
     7
100
AcDbLine
 10
145.819667
 20
53.188533
 30
0.0
 11
145.837547
 21
53.18859
 31
0.0
  0
LINE
  5
4CF
330
497
100
AcDbEntity
  8
0
  6
CONTINUOUS
 62
     7
100
AcDbLine
 10
145.837547
 20
53.18859
 30
0.0
 11
145.85544
 21
53.188616
 31
0.0
  0
LINE
  5
4D0
330
497
100
AcDbEntity
  8
0
  6
CONTINUOUS
 62
     7
100
AcDbLine
 10
145.85544
 20
53.188616
 30
0.0
 11
145.873336
 21
53.18861
 31
0.0
  0
LINE
  5
4D1
330
497
100
AcDbEntity
  8
0
  6
CONTINUOUS
 62
     7
100
AcDbLine
 10
145.873336
 20
53.18861
 30
0.0
 11
145.891229
 21
53.188574
 31
0.0
  0
LINE
  5
4D2
330
497
100
AcDbEntity
  8
0
  6
CONTINUOUS
 62
     7
100
AcDbLine
 10
145.891229
 20
53.188574
 30
0.0
 11
145.909112
 21
53.188507
 31
0.0
  0
LINE
  5
4D3
330
497
100
AcDbEntity
  8
0
  6
CONTINUOUS
 62
     7
100
AcDbLine
 10
145.909112
 20
53.188507
 30
0.0
 11
145.926975
 21
53.188409
 31
0.0
  0
LINE
  5
4D4
330
497
100
AcDbEntity
  8
0
  6
CONTINUOUS
 62
     7
100
AcDbLine
 10
145.926975
 20
53.188409
 30
0.0
 11
145.944812
 21
53.188281
 31
0.0
  0
LINE
  5
4D5
330
497
100
AcDbEntity
  8
0
  6
CONTINUOUS
 62
     7
100
AcDbLine
 10
145.944812
 20
53.188281
 30
0.0
 11
145.962615
 21
53.188122
 31
0.0
  0
LINE
  5
4D6
330
497
100
AcDbEntity
  8
0
  6
CONTINUOUS
 62
     7
100
AcDbLine
 10
145.962615
 20
53.188122
 30
0.0
 11
145.980375
 21
53.187933
 31
0.0
  0
LINE
  5
4D7
330
497
100
AcDbEntity
  8
0
  6
CONTINUOUS
 62
     7
100
AcDbLine
 10
145.980375
 20
53.187933
 30
0.0
 11
145.998087
 21
53.187715
 31
0.0
  0
LINE
  5
4D8
330
497
100
AcDbEntity
  8
0
  6
CONTINUOUS
 62
     7
100
AcDbLine
 10
145.998087
 20
53.187715
 30
0.0
 11
146.01574
 21
53.187466
 31
0.0
  0
LINE
  5
4D9
330
497
100
AcDbEntity
  8
0
  6
CONTINUOUS
 62
     7
100
AcDbLine
 10
146.01574
 20
53.187466
 30
0.0
 11
146.033329
 21
53.187188
 31
0.0
  0
LINE
  5
4DA
330
497
100
AcDbEntity
  8
0
  6
CONTINUOUS
 62
     7
100
AcDbLine
 10
146.033329
 20
53.187188
 30
0.0
 11
146.050845
 21
53.186881
 31
0.0
  0
LINE
  5
4DB
330
497
100
AcDbEntity
  8
0
  6
CONTINUOUS
 62
     7
100
AcDbLine
 10
146.050845
 20
53.186881
 30
0.0
 11
146.06828
 21
53.186544
 31
0.0
  0
LINE
  5
4DC
330
497
100
AcDbEntity
  8
0
  6
CONTINUOUS
 62
     7
100
AcDbLine
 10
146.06828
 20
53.186544
 30
0.0
 11
146.085734
 21
53.186176
 31
0.0
  0
LINE
  5
4DD
330
497
100
AcDbEntity
  8
0
  6
CONTINUOUS
 62
     7
100
AcDbLine
 10
146.085734
 20
53.186176
 30
0.0
 11
146.10309
 21
53.185779
 31
0.0
  0
LINE
  5
4DE
330
497
100
AcDbEntity
  8
0
  6
CONTINUOUS
 62
     7
100
AcDbLine
 10
146.10309
 20
53.185779
 30
0.0
 11
146.120339
 21
53.185355
 31
0.0
  0
LINE
  5
4DF
330
497
100
AcDbEntity
  8
0
  6
CONTINUOUS
 62
     7
100
AcDbLine
 10
146.120339
 20
53.185355
 30
0.0
 11
146.137472
 21
53.184906
 31
0.0
  0
LINE
  5
4E0
330
497
100
AcDbEntity
  8
0
  6
CONTINUOUS
 62
     7
100
AcDbLine
 10
146.137472
 20
53.184906
 30
0.0
 11
146.154482
 21
53.184431
 31
0.0
  0
LINE
  5
4E1
330
497
100
AcDbEntity
  8
0
  6
CONTINUOUS
 62
     7
100
AcDbLine
 10
146.154482
 20
53.184431
 30
0.0
 11
146.171358
 21
53.183932
 31
0.0
  0
LINE
  5
4E2
330
497
100
AcDbEntity
  8
0
  6
CONTINUOUS
 62
     7
100
AcDbLine
 10
146.171358
 20
53.183932
 30
0.0
 11
146.188092
 21
53.18341
 31
0.0
  0
LINE
  5
4E3
330
497
100
AcDbEntity
  8
0
  6
CONTINUOUS
 62
     7
100
AcDbLine
 10
146.188092
 20
53.18341
 30
0.0
 11
146.204676
 21
53.182867
 31
0.0
  0
LINE
  5
4E4
330
497
100
AcDbEntity
  8
0
  6
CONTINUOUS
 62
     7
100
AcDbLine
 10
146.204676
 20
53.182867
 30
0.0
 11
146.2211
 21
53.182303
 31
0.0
  0
LINE
  5
4E5
330
497
100
AcDbEntity
  8
0
  6
CONTINUOUS
 62
     7
100
AcDbLine
 10
146.2211
 20
53.182303
 30
0.0
 11
146.237357
 21
53.18172
 31
0.0
  0
LINE
  5
4E6
330
497
100
AcDbEntity
  8
0
  6
CONTINUOUS
 62
     7
100
AcDbLine
 10
146.237357
 20
53.18172
 30
0.0
 11
146.253437
 21
53.181119
 31
0.0
  0
LINE
  5
4E7
330
497
100
AcDbEntity
  8
0
  6
CONTINUOUS
 62
     7
100
AcDbLine
 10
146.253437
 20
53.181119
 30
0.0
 11
146.269331
 21
53.1805
 31
0.0
  0
LINE
  5
4E8
330
497
100
AcDbEntity
  8
0
  6
CONTINUOUS
 62
     7
100
AcDbLine
 10
146.269331
 20
53.1805
 30
0.0
 11
146.285031
 21
53.179865
 31
0.0
  0
LINE
  5
4E9
330
497
100
AcDbEntity
  8
0
  6
CONTINUOUS
 62
     7
100
AcDbLine
 10
146.285031
 20
53.179865
 30
0.0
 11
146.300528
 21
53.179215
 31
0.0
  0
LINE
  5
4EA
330
497
100
AcDbEntity
  8
0
  6
CONTINUOUS
 62
     7
100
AcDbLine
 10
146.300528
 20
53.179215
 30
0.0
 11
146.315814
 21
53.178551
 31
0.0
  0
LINE
  5
4EB
330
497
100
AcDbEntity
  8
0
  6
CONTINUOUS
 62
     7
100
AcDbLine
 10
146.315814
 20
53.178551
 30
0.0
 11
146.330879
 21
53.177875
 31
0.0
  0
LINE
  5
4EC
330
497
100
AcDbEntity
  8
0
  6
CONTINUOUS
 62
     7
100
AcDbLine
 10
146.330879
 20
53.177875
 30
0.0
 11
146.345498
 21
53.177197
 31
0.0
  0
LINE
  5
4ED
330
497
100
AcDbEntity
  8
0
  6
CONTINUOUS
 62
     7
100
AcDbLine
 10
146.345498
 20
53.177197
 30
0.0
 11
146.359891
 21
53.176509
 31
0.0
  0
LINE
  5
4EE
330
497
100
AcDbEntity
  8
0
  6
CONTINUOUS
 62
     7
100
AcDbLine
 10
146.359891
 20
53.176509
 30
0.0
 11
146.374055
 21
53.175812
 31
0.0
  0
LINE
  5
4EF
330
497
100
AcDbEntity
  8
0
  6
CONTINUOUS
 62
     7
100
AcDbLine
 10
146.374055
 20
53.175812
 30
0.0
 11
146.387986
 21
53.175107
 31
0.0
  0
LINE
  5
4F0
330
497
100
AcDbEntity
  8
0
  6
CONTINUOUS
 62
     7
100
AcDbLine
 10
146.387986
 20
53.175107
 30
0.0
 11
146.40168
 21
53.174395
 31
0.0
  0
LINE
  5
4F1
330
497
100
AcDbEntity
  8
0
  6
CONTINUOUS
 62
     7
100
AcDbLine
 10
146.40168
 20
53.174395
 30
0.0
 11
146.415135
 21
53.173678
 31
0.0
  0
LINE
  5
4F2
330
497
100
AcDbEntity
  8
0
  6
CONTINUOUS
 62
     7
100
AcDbLine
 10
146.415135
 20
53.173678
 30
0.0
 11
146.428346
 21
53.172957
 31
0.0
  0
LINE
  5
4F3
330
497
100
AcDbEntity
  8
0
  6
CONTINUOUS
 62
     7
100
AcDbLine
 10
146.428346
 20
53.172957
 30
0.0
 11
146.44131
 21
53.172232
 31
0.0
  0
LINE
  5
4F4
330
497
100
AcDbEntity
  8
0
  6
CONTINUOUS
 62
     7
100
AcDbLine
 10
146.44131
 20
53.172232
 30
0.0
 11
146.454023
 21
53.171505
 31
0.0
  0
LINE
  5
4F5
330
497
100
AcDbEntity
  8
0
  6
CONTINUOUS
 62
     7
100
AcDbLine
 10
146.454023
 20
53.171505
 30
0.0
 11
146.466483
 21
53.170777
 31
0.0
  0
LINE
  5
4F6
330
497
100
AcDbEntity
  8
0
  6
CONTINUOUS
 62
     7
100
AcDbLine
 10
146.466483
 20
53.170777
 30
0.0
 11
146.478685
 21
53.170049
 31
0.0
  0
LINE
  5
4F7
330
497
100
AcDbEntity
  8
0
  6
CONTINUOUS
 62
     7
100
AcDbLine
 10
146.478685
 20
53.170049
 30
0.0
 11
146.490627
 21
53.169322
 31
0.0
  0
LINE
  5
4F8
330
497
100
AcDbEntity
  8
0
  6
CONTINUOUS
 62
     7
100
AcDbLine
 10
146.490627
 20
53.169322
 30
0.0
 11
146.502304
 21
53.168598
 31
0.0
  0
LINE
  5
4F9
330
497
100
AcDbEntity
  8
0
  6
CONTINUOUS
 62
     7
100
AcDbLine
 10
146.502304
 20
53.168598
 30
0.0
 11
146.513713
 21
53.167878
 31
0.0
  0
LINE
  5
4FA
330
497
100
AcDbEntity
  8
0
  6
CONTINUOUS
 62
     7
100
AcDbLine
 10
146.513713
 20
53.167878
 30
0.0
 11
146.524851
 21
53.167162
 31
0.0
  0
LINE
  5
4FB
330
497
100
AcDbEntity
  8
0
  6
CONTINUOUS
 62
     7
100
AcDbLine
 10
146.524851
 20
53.167162
 30
0.0
 11
146.535714
 21
53.166452
 31
0.0
  0
LINE
  5
4FC
330
497
100
AcDbEntity
  8
0
  6
CONTINUOUS
 62
     7
100
AcDbLine
 10
146.535714
 20
53.166452
 30
0.0
 11
146.555887
 21
53.165104
 31
0.0
  0
LINE
  5
4FD
330
497
100
AcDbEntity
  8
0
  6
CONTINUOUS
 62
     7
100
AcDbLine
 10
146.555887
 20
53.165104
 30
0.0
 11
146.574889
 21
53.163798
 31
0.0
  0
LINE
  5
4FE
330
497
100
AcDbEntity
  8
0
  6
CONTINUOUS
 62
     7
100
AcDbLine
 10
146.574889
 20
53.163798
 30
0.0
 11
146.592586
 21
53.162551
 31
0.0
  0
LINE
  5
4FF
330
497
100
AcDbEntity
  8
0
  6
CONTINUOUS
 62
     7
100
AcDbLine
 10
146.592586
 20
53.162551
 30
0.0
 11
146.608846
 21
53.161381
 31
0.0
  0
LINE
  5
500
330
497
100
AcDbEntity
  8
0
  6
CONTINUOUS
 62
     7
100
AcDbLine
 10
146.608846
 20
53.161381
 30
0.0
 11
146.623535
 21
53.160302
 31
0.0
  0
LINE
  5
501
330
497
100
AcDbEntity
  8
0
  6
CONTINUOUS
 62
     7
100
AcDbLine
 10
146.623535
 20
53.160302
 30
0.0
 11
146.636521
 21
53.159333
 31
0.0
  0
LINE
  5
502
330
497
100
AcDbEntity
  8
0
  6
CONTINUOUS
 62
     7
100
AcDbLine
 10
146.636521
 20
53.159333
 30
0.0
 11
146.656849
 21
53.157785
 31
0.0
  0
LINE
  5
503
330
497
100
AcDbEntity
  8
0
  6
CONTINUOUS
 62
     7
100
AcDbLine
 10
146.656849
 20
53.157785
 30
0.0
 11
146.673783
 21
53.15647
 31
0.0
  0
LINE
  5
504
330
497
100
AcDbEntity
  8
0
  6
CONTINUOUS
 62
     7
100
AcDbLine
 10
146.673783
 20
53.15647
 30
0.0
 11
146.680398
 21
53.155931
 31
0.0
  0
ENDBLK
  5
499
330
497
100
AcDbEntity
  8
0
100
AcDbBlockEnd
  0
BLOCK
  5
50D
330
50C
100
AcDbEntity
  8
0
100
AcDbBlockBegin
  2
BLKF026
 70
     0
 71
     0
 10
0.0
 20
0.0
 30
0.0
  3
BLKF026
  1

  0
LINE
  5
510
330
50C
100
AcDbEntity
  8
CSLAYER2
  6
CONTINUOUS
 62
     3
100
AcDbLine
 10
132.190654
 20
20.870233
 30
0.0
 11
130.190654
 21
21.406131
 31
0.0
  0
LINE
  5
511
330
50C
100
AcDbEntity
  8
CSLAYER2
  6
CONTINUOUS
 62
     3
100
AcDbLine
 10
130.190654
 20
21.406131
 30
0.0
 11
132.190654
 21
21.942029
 31
0.0
  0
LINE
  5
512
330
50C
100
AcDbEntity
  8
CSLAYER2
  6
CONTINUOUS
 62
     3
100
AcDbLine
 10
130.190654
 20
21.406131
 30
0.0
 11
132.190654
 21
21.406131
 31
0.0
  0
LINE
  5
513
330
50C
100
AcDbEntity
  8
CSLAYER2
  6
CONTINUOUS
 62
     3
100
AcDbLine
 10
230.962157
 20
21.942029
 30
0.0
 11
232.962157
 21
21.406131
 31
0.0
  0
LINE
  5
514
330
50C
100
AcDbEntity
  8
CSLAYER2
  6
CONTINUOUS
 62
     3
100
AcDbLine
 10
232.962157
 20
21.406131
 30
0.0
 11
230.962157
 21
20.870233
 31
0.0
  0
LINE
  5
515
330
50C
100
AcDbEntity
  8
CSLAYER2
  6
CONTINUOUS
 62
     3
100
AcDbLine
 10
232.962157
 20
21.406131
 30
0.0
 11
230.962157
 21
21.406131
 31
0.0
  0
LINE
  5
516
330
50C
100
AcDbEntity
  8
CSLAYER2
  6
CONTINUOUS
 62
     3
100
AcDbLine
 10
130.190654
 20
59.172747
 30
0.0
 11
130.190654
 21
20.606131
 31
0.0
  0
LINE
  5
517
330
50C
100
AcDbEntity
  8
CSLAYER2
  6
CONTINUOUS
 62
     3
100
AcDbLine
 10
232.962157
 20
54.645396
 30
0.0
 11
232.962157
 21
20.606131
 31
0.0
  0
LINE
  5
518
330
50C
100
AcDbEntity
  8
CSLAYER2
  6
CONTINUOUS
 62
     3
100
AcDbLine
 10
130.190654
 20
21.406131
 30
0.0
 11
232.962157
 21
21.406131
 31
0.0
  0
TEXT
  5
519
330
50C
100
AcDbEntity
  8
CSLAYER2
 62
     3
100
AcDbText
 10
176.665726
 20
22.273335
 30
0.0
 40
3.0
  1
(102.8)
 41
0.902632
  7
ED_VECTOR
 72
     5
 11
191.365725
 21
22.273335
 31
0.0
100
AcDbText
  0
ENDBLK
  5
50E
330
50C
100
AcDbEntity
  8
0
100
AcDbBlockEnd
  0
BLOCK
  5
51B
330
51A
100
AcDbEntity
  8
0
100
AcDbBlockBegin
  2
BLKF027
 70
     0
 71
     0
 10
0.0
 20
0.0
 30
0.0
  3
BLKF027
  1

  0
LINE
  5
51E
330
51A
100
AcDbEntity
  8
CSLAYER2
  6
CONTINUOUS
 62
     3
100
AcDbLine
 10
132.190654
 20
27.583431
 30
0.0
 11
130.190654
 21
28.119329
 31
0.0
  0
LINE
  5
51F
330
51A
100
AcDbEntity
  8
CSLAYER2
  6
CONTINUOUS
 62
     3
100
AcDbLine
 10
130.190654
 20
28.119329
 30
0.0
 11
132.190654
 21
28.655227
 31
0.0
  0
LINE
  5
520
330
51A
100
AcDbEntity
  8
CSLAYER2
  6
CONTINUOUS
 62
     3
100
AcDbLine
 10
130.190654
 20
28.119329
 30
0.0
 11
132.190654
 21
28.119329
 31
0.0
  0
LINE
  5
521
330
51A
100
AcDbEntity
  8
CSLAYER2
  6
CONTINUOUS
 62
     3
100
AcDbLine
 10
142.762157
 20
28.655227
 30
0.0
 11
144.762157
 21
28.119329
 31
0.0
  0
LINE
  5
522
330
51A
100
AcDbEntity
  8
CSLAYER2
  6
CONTINUOUS
 62
     3
100
AcDbLine
 10
144.762157
 20
28.119329
 30
0.0
 11
142.762157
 21
27.583431
 31
0.0
  0
LINE
  5
523
330
51A
100
AcDbEntity
  8
CSLAYER2
  6
CONTINUOUS
 62
     3
100
AcDbLine
 10
144.762157
 20
28.119329
 30
0.0
 11
142.762157
 21
28.119329
 31
0.0
  0
LINE
  5
524
330
51A
100
AcDbEntity
  8
CSLAYER2
  6
CONTINUOUS
 62
     3
100
AcDbLine
 10
130.190654
 20
59.172747
 30
0.0
 11
130.190654
 21
27.319329
 31
0.0
  0
LINE
  5
525
330
51A
100
AcDbEntity
  8
CSLAYER2
  6
CONTINUOUS
 62
     3
100
AcDbLine
 10
144.762157
 20
53.345396
 30
0.0
 11
144.762157
 21
27.319329
 31
0.0
  0
LINE
  5
526
330
51A
100
AcDbEntity
  8
CSLAYER2
  6
CONTINUOUS
 62
     3
100
AcDbLine
 10
130.190654
 20
28.119329
 30
0.0
 11
144.762157
 21
28.119329
 31
0.0
  0
TEXT
  5
527
330
51A
100
AcDbEntity
  8
CSLAYER2
 62
     3
100
AcDbText
 10
131.065155
 20
28.986532
 30
0.0
 40
3.0
  1
(14.6)
 41
0.938298
  7
ED_VECTOR
 72
     5
 11
143.665154
 21
28.986532
 31
0.0
100
AcDbText
  0
ENDBLK
  5
51C
330
51A
100
AcDbEntity
  8
0
100
AcDbBlockEnd
  0
BLOCK
  5
529
330
528
100
AcDbEntity
  8
0
100
AcDbBlockBegin
  2
BLKF028
 70
     0
 71
     0
 10
0.0
 20
0.0
 30
0.0
  3
BLKF028
  1

  0
LINE
  5
52C
330
528
100
AcDbEntity
  8
CSLAYER2
  6
CONTINUOUS
 62
     3
100
AcDbLine
 10
146.762157
 20
27.583431
 30
0.0
 11
144.762157
 21
28.119329
 31
0.0
  0
LINE
  5
52D
330
528
100
AcDbEntity
  8
CSLAYER2
  6
CONTINUOUS
 62
     3
100
AcDbLine
 10
144.762157
 20
28.119329
 30
0.0
 11
146.762157
 21
28.655227
 31
0.0
  0
LINE
  5
52E
330
528
100
AcDbEntity
  8
CSLAYER2
  6
CONTINUOUS
 62
     3
100
AcDbLine
 10
144.762157
 20
28.119329
 30
0.0
 11
146.762157
 21
28.119329
 31
0.0
  0
LINE
  5
52F
330
528
100
AcDbEntity
  8
CSLAYER2
  6
CONTINUOUS
 62
     3
100
AcDbLine
 10
230.962157
 20
28.655227
 30
0.0
 11
232.962157
 21
28.119329
 31
0.0
  0
LINE
  5
530
330
528
100
AcDbEntity
  8
CSLAYER2
  6
CONTINUOUS
 62
     3
100
AcDbLine
 10
232.962157
 20
28.119329
 30
0.0
 11
230.962157
 21
27.583431
 31
0.0
  0
LINE
  5
531
330
528
100
AcDbEntity
  8
CSLAYER2
  6
CONTINUOUS
 62
     3
100
AcDbLine
 10
232.962157
 20
28.119329
 30
0.0
 11
230.962157
 21
28.119329
 31
0.0
  0
LINE
  5
532
330
528
100
AcDbEntity
  8
CSLAYER2
  6
CONTINUOUS
 62
     3
100
AcDbLine
 10
144.762157
 20
53.345396
 30
0.0
 11
144.762157
 21
27.319329
 31
0.0
  0
LINE
  5
533
330
528
100
AcDbEntity
  8
CSLAYER2
  6
CONTINUOUS
 62
     3
100
AcDbLine
 10
232.962157
 20
54.645396
 30
0.0
 11
232.962157
 21
27.319329
 31
0.0
  0
LINE
  5
534
330
528
100
AcDbEntity
  8
CSLAYER2
  6
CONTINUOUS
 62
     3
100
AcDbLine
 10
144.762157
 20
28.119329
 30
0.0
 11
232.962157
 21
28.119329
 31
0.0
  0
TEXT
  5
535
330
528
100
AcDbEntity
  8
CSLAYER2
 62
     3
100
AcDbText
 10
184.839233
 20
28.986532
 30
0.0
 40
3.0
  1
88.2
 41
0.877612
  7
ED_VECTOR
 72
     5
 11
193.239233
 21
28.986532
 31
0.0
100
AcDbText
  0
ENDBLK
  5
52A
330
528
100
AcDbEntity
  8
0
100
AcDbBlockEnd
  0
BLOCK
  5
537
330
536
100
AcDbEntity
  8
0
100
AcDbBlockBegin
  2
BLKF029
 70
     0
 71
     0
 10
0.0
 20
0.0
 30
0.0
  3
BLKF029
  1

  0
LINE
  5
53A
330
536
100
AcDbEntity
  8
CSLAYER2
  6
CONTINUOUS
 62
     3
100
AcDbLine
 10
132.190654
 20
34.799476
 30
0.0
 11
130.190654
 21
35.335374
 31
0.0
  0
LINE
  5
53B
330
536
100
AcDbEntity
  8
CSLAYER2
  6
CONTINUOUS
 62
     3
100
AcDbLine
 10
130.190654
 20
35.335374
 30
0.0
 11
132.190654
 21
35.871272
 31
0.0
  0
LINE
  5
53C
330
536
100
AcDbEntity
  8
CSLAYER2
  6
CONTINUOUS
 62
     3
100
AcDbLine
 10
130.190654
 20
35.335374
 30
0.0
 11
132.190654
 21
35.335374
 31
0.0
  0
LINE
  5
53D
330
536
100
AcDbEntity
  8
CSLAYER2
  6
CONTINUOUS
 62
     3
100
AcDbLine
 10
139.690654
 20
35.871272
 30
0.0
 11
141.690654
 21
35.335374
 31
0.0
  0
LINE
  5
53E
330
536
100
AcDbEntity
  8
CSLAYER2
  6
CONTINUOUS
 62
     3
100
AcDbLine
 10
141.690654
 20
35.335374
 30
0.0
 11
139.690654
 21
34.799476
 31
0.0
  0
LINE
  5
53F
330
536
100
AcDbEntity
  8
CSLAYER2
  6
CONTINUOUS
 62
     3
100
AcDbLine
 10
141.690654
 20
35.335374
 30
0.0
 11
139.690654
 21
35.335374
 31
0.0
  0
LINE
  5
540
330
536
100
AcDbEntity
  8
CSLAYER2
  6
CONTINUOUS
 62
     3
100
AcDbLine
 10
130.190654
 20
59.172747
 30
0.0
 11
130.190654
 21
34.535374
 31
0.0
  0
LINE
  5
541
330
536
100
AcDbEntity
  8
CSLAYER2
  6
CONTINUOUS
 62
     3
100
AcDbLine
 10
141.690654
 20
57.495396
 30
0.0
 11
141.690654
 21
34.535374
 31
0.0
  0
LINE
  5
542
330
536
100
AcDbEntity
  8
CSLAYER2
  6
CONTINUOUS
 62
     3
100
AcDbLine
 10
130.190654
 20
35.335374
 30
0.0
 11
141.690654
 21
35.335374
 31
0.0
  0
TEXT
  5
543
330
536
100
AcDbEntity
  8
CSLAYER2
 62
     3
100
AcDbText
 10
131.91774
 20
36.202576
 30
0.0
 40
3.0
  1
11.5
 41
0.877612
  7
ED_VECTOR
 72
     5
 11
140.317739
 21
36.202576
 31
0.0
100
AcDbText
  0
ENDBLK
  5
538
330
536
100
AcDbEntity
  8
0
100
AcDbBlockEnd
  0
BLOCK
  5
545
330
544
100
AcDbEntity
  8
0
100
AcDbBlockBegin
  2
BLKF030
 70
     0
 71
     0
 10
0.0
 20
0.0
 30
0.0
  3
BLKF030
  1

  0
LINE
  5
548
330
544
100
AcDbEntity
  8
CSLAYER2
  6
CONTINUOUS
 62
     3
100
AcDbLine
 10
146.762157
 20
34.799476
 30
0.0
 11
144.762157
 21
35.335374
 31
0.0
  0
LINE
  5
549
330
544
100
AcDbEntity
  8
CSLAYER2
  6
CONTINUOUS
 62
     3
100
AcDbLine
 10
144.762157
 20
35.335374
 30
0.0
 11
146.762157
 21
35.871272
 31
0.0
  0
LINE
  5
54A
330
544
100
AcDbEntity
  8
CSLAYER2
  6
CONTINUOUS
 62
     3
100
AcDbLine
 10
144.762157
 20
35.335374
 30
0.0
 11
146.762157
 21
35.335374
 31
0.0
  0
LINE
  5
54B
330
544
100
AcDbEntity
  8
CSLAYER2
  6
CONTINUOUS
 62
     3
100
AcDbLine
 10
169.362157
 20
35.871272
 30
0.0
 11
171.362157
 21
35.335374
 31
0.0
  0
LINE
  5
54C
330
544
100
AcDbEntity
  8
CSLAYER2
  6
CONTINUOUS
 62
     3
100
AcDbLine
 10
171.362157
 20
35.335374
 30
0.0
 11
169.362157
 21
34.799476
 31
0.0
  0
LINE
  5
54D
330
544
100
AcDbEntity
  8
CSLAYER2
  6
CONTINUOUS
 62
     3
100
AcDbLine
 10
171.362157
 20
35.335374
 30
0.0
 11
169.362157
 21
35.335374
 31
0.0
  0
LINE
  5
54E
330
544
100
AcDbEntity
  8
CSLAYER2
  6
CONTINUOUS
 62
     3
100
AcDbLine
 10
144.762157
 20
53.345396
 30
0.0
 11
144.762157
 21
34.535374
 31
0.0
  0
LINE
  5
54F
330
544
100
AcDbEntity
  8
CSLAYER2
  6
CONTINUOUS
 62
     3
100
AcDbLine
 10
171.362157
 20
47.857944
 30
0.0
 11
171.362157
 21
34.535374
 31
0.0
  0
LINE
  5
550
330
544
100
AcDbEntity
  8
CSLAYER2
  6
CONTINUOUS
 62
     3
100
AcDbLine
 10
144.762157
 20
35.335374
 30
0.0
 11
171.362157
 21
35.335374
 31
0.0
  0
TEXT
  5
551
330
544
100
AcDbEntity
  8
CSLAYER2
 62
     3
100
AcDbText
 10
154.039246
 20
36.202576
 30
0.0
 40
3.0
  1
26.6
 41
0.877612
  7
ED_VECTOR
 72
     5
 11
162.439245
 21
36.202576
 31
0.0
100
AcDbText
  0
ENDBLK
  5
546
330
544
100
AcDbEntity
  8
0
100
AcDbBlockEnd
  0
BLOCK
  5
553
330
552
100
AcDbEntity
  8
0
100
AcDbBlockBegin
  2
BLKF031
 70
     0
 71
     0
 10
0.0
 20
0.0
 30
0.0
  3
BLKF031
  1

  0
LINE
  5
556
330
552
100
AcDbEntity
  8
CSLAYER2
  6
CONTINUOUS
 62
     3
100
AcDbLine
 10
169.362157
 20
35.871272
 30
0.0
 11
171.362157
 21
35.335374
 31
0.0
  0
LINE
  5
557
330
552
100
AcDbEntity
  8
CSLAYER2
  6
CONTINUOUS
 62
     3
100
AcDbLine
 10
171.362157
 20
35.335374
 30
0.0
 11
169.362157
 21
34.799476
 31
0.0
  0
LINE
  5
558
330
552
100
AcDbEntity
  8
CSLAYER2
  6
CONTINUOUS
 62
     3
100
AcDbLine
 10
171.362157
 20
35.335374
 30
0.0
 11
169.362157
 21
35.335374
 31
0.0
  0
LINE
  5
559
330
552
100
AcDbEntity
  8
CSLAYER2
  6
CONTINUOUS
 62
     3
100
AcDbLine
 10
183.362157
 20
34.799476
 30
0.0
 11
181.362157
 21
35.335374
 31
0.0
  0
LINE
  5
55A
330
552
100
AcDbEntity
  8
CSLAYER2
  6
CONTINUOUS
 62
     3
100
AcDbLine
 10
181.362157
 20
35.335374
 30
0.0
 11
183.362157
 21
35.871272
 31
0.0
  0
LINE
  5
55B
330
552
100
AcDbEntity
  8
CSLAYER2
  6
CONTINUOUS
 62
     3
100
AcDbLine
 10
181.362157
 20
35.335374
 30
0.0
 11
183.362157
 21
35.335374
 31
0.0
  0
LINE
  5
55C
330
552
100
AcDbEntity
  8
CSLAYER2
  6
CONTINUOUS
 62
     3
100
AcDbLine
 10
171.362157
 20
47.857944
 30
0.0
 11
171.362157
 21
34.535374
 31
0.0
  0
LINE
  5
55D
330
552
100
AcDbEntity
  8
CSLAYER2
  6
CONTINUOUS
 62
     3
100
AcDbLine
 10
181.362157
 20
47.857944
 30
0.0
 11
181.362157
 21
34.535374
 31
0.0
  0
LINE
  5
55E
330
552
100
AcDbEntity
  8
CSLAYER2
  6
CONTINUOUS
 62
     3
100
AcDbLine
 10
171.362157
 20
35.335374
 30
0.0
 11
168.362157
 21
35.335374
 31
0.0
  0
LINE
  5
55F
330
552
100
AcDbEntity
  8
CSLAYER2
  6
CONTINUOUS
 62
     3
100
AcDbLine
 10
171.362157
 20
35.335374
 30
0.0
 11
181.362157
 21
35.335374
 31
0.0
  0
LINE
  5
560
330
552
100
AcDbEntity
  8
CSLAYER2
  6
CONTINUOUS
 62
     3
100
AcDbLine
 10
181.362157
 20
35.335374
 30
0.0
 11
184.362157
 21
35.335374
 31
0.0
  0
TEXT
  5
561
330
552
100
AcDbEntity
  8
CSLAYER2
 62
     3
100
AcDbText
 10
173.56633
 20
36.202576
 30
0.0
 40
3.0
  1
10
 41
0.794595
  7
ED_VECTOR
 72
     5
 11
177.76633
 21
36.202576
 31
0.0
100
AcDbText
  0
ENDBLK
  5
554
330
552
100
AcDbEntity
  8
0
100
AcDbBlockEnd
  0
BLOCK
  5
563
330
562
100
AcDbEntity
  8
0
100
AcDbBlockBegin
  2
BLKF032
 70
     0
 71
     0
 10
0.0
 20
0.0
 30
0.0
  3
BLKF032
  1

  0
LINE
  5
566
330
562
100
AcDbEntity
  8
CSLAYER2
  6
CONTINUOUS
 62
     3
100
AcDbLine
 10
101.726552
 20
74.605396
 30
0.0
 11
101.190654
 21
72.605396
 31
0.0
  0
LINE
  5
567
330
562
100
AcDbEntity
  8
CSLAYER2
  6
CONTINUOUS
 62
     3
100
AcDbLine
 10
101.190654
 20
72.605396
 30
0.0
 11
100.654756
 21
74.605396
 31
0.0
  0
LINE
  5
568
330
562
100
AcDbEntity
  8
CSLAYER2
  6
CONTINUOUS
 62
     3
100
AcDbLine
 10
101.190654
 20
72.605396
 30
0.0
 11
101.190654
 21
74.605396
 31
0.0
  0
LINE
  5
569
330
562
100
AcDbEntity
  8
CSLAYER2
  6
CONTINUOUS
 62
     3
100
AcDbLine
 10
100.654756
 20
50.605396
 30
0.0
 11
101.190654
 21
52.605396
 31
0.0
  0
LINE
  5
56A
330
562
100
AcDbEntity
  8
CSLAYER2
  6
CONTINUOUS
 62
     3
100
AcDbLine
 10
101.190654
 20
52.605396
 30
0.0
 11
101.726552
 21
50.605396
 31
0.0
  0
LINE
  5
56B
330
562
100
AcDbEntity
  8
CSLAYER2
  6
CONTINUOUS
 62
     3
100
AcDbLine
 10
101.190654
 20
52.605396
 30
0.0
 11
101.190654
 21
50.605396
 31
0.0
  0
LINE
  5
56C
330
562
100
AcDbEntity
  8
CSLAYER2
  6
CONTINUOUS
 62
     3
100
AcDbLine
 10
151.152157
 20
72.605396
 30
0.0
 11
100.390654
 21
72.605396
 31
0.0
  0
LINE
  5
56D
330
562
100
AcDbEntity
  8
CSLAYER2
  6
CONTINUOUS
 62
     3
100
AcDbLine
 10
151.152157
 20
52.605396
 30
0.0
 11
100.390654
 21
52.605396
 31
0.0
  0
LINE
  5
56E
330
562
100
AcDbEntity
  8
CSLAYER2
  6
CONTINUOUS
 62
     3
100
AcDbLine
 10
101.190654
 20
72.605396
 30
0.0
 11
101.190654
 21
75.605396
 31
0.0
  0
LINE
  5
56F
330
562
100
AcDbEntity
  8
CSLAYER2
  6
CONTINUOUS
 62
     3
100
AcDbLine
 10
101.190654
 20
72.605396
 30
0.0
 11
101.190654
 21
52.605396
 31
0.0
  0
LINE
  5
570
330
562
100
AcDbEntity
  8
CSLAYER2
  6
CONTINUOUS
 62
     3
100
AcDbLine
 10
101.190654
 20
52.605396
 30
0.0
 11
101.190654
 21
49.605396
 31
0.0
  0
TEXT
  5
571
330
562
100
AcDbEntity
  8
CSLAYER2
 62
     3
100
AcDbText
 10
100.323448
 20
54.543106
 30
0.0
 40
3.0
  1
%%c
 50
90.0
 41
0.864706
  7
ED_VECTOR
 72
     5
 11
100.323448
 21
56.643106
 31
0.0
100
AcDbText
  0
TEXT
  5
572
330
562
100
AcDbEntity
  8
CSLAYER2
 62
     3
100
AcDbText
 10
100.323448
 20
57.860188
 30
0.0
 40
3.0
  1
20
 50
90.0
 41
0.794595
  7
ED_VECTOR
 72
     5
 11
100.323448
 21
62.060187
 31
0.0
100
AcDbText
  0
TEXT
  5
573
330
562
100
AcDbEntity
  8
CSLAYER2
 62
     3
100
AcDbText
 10
100.39856
 20
64.514351
 30
0.0
 40
2.4
  1
-
 50
90.0
 41
0.668182
  7
ED_VECTOR
 72
     5
 11
100.39856
 21
66.194351
 31
0.0
100
AcDbText
  0
TEXT
  5
574
330
562
100
AcDbEntity
  8
CSLAYER2
 62
     3
100
AcDbText
 10
97.605225
 20
65.911018
 30
0.0
 40
2.4
  1
0
 50
90.0
 41
0.864706
  7
ED_VECTOR
 72
     5
 11
97.605225
 21
67.591018
 31
0.0
100
AcDbText
  0
TEXT
  5
575
330
562
100
AcDbEntity
  8
CSLAYER2
 62
     3
100
AcDbText
 10
100.39856
 20
65.911018
 30
0.0
 40
2.4
  1
0.01
 50
90.0
 41
0.963934
  7
ED_VECTOR
 72
     5
 11
100.39856
 21
72.631018
 31
0.0
100
AcDbText
  0
ENDBLK
  5
564
330
562
100
AcDbEntity
  8
0
100
AcDbBlockEnd
  0
BLOCK
  5
577
330
576
100
AcDbEntity
  8
0
100
AcDbBlockBegin
  2
BLKF033
 70
     0
 71
     0
 10
0.0
 20
0.0
 30
0.0
  3
BLKF033
  1

  0
LINE
  5
57A
330
576
100
AcDbEntity
  8
CSLAYER2
  6
CONTINUOUS
 62
     3
100
AcDbLine
 10
109.853416
 20
70.505396
 30
0.0
 11
109.317518
 21
68.505396
 31
0.0
  0
LINE
  5
57B
330
576
100
AcDbEntity
  8
CSLAYER2
  6
CONTINUOUS
 62
     3
100
AcDbLine
 10
109.317518
 20
68.505396
 30
0.0
 11
108.78162
 21
70.505396
 31
0.0
  0
LINE
  5
57C
330
576
100
AcDbEntity
  8
CSLAYER2
  6
CONTINUOUS
 62
     3
100
AcDbLine
 10
109.317518
 20
68.505396
 30
0.0
 11
109.317518
 21
70.505396
 31
0.0
  0
LINE
  5
57D
330
576
100
AcDbEntity
  8
CSLAYER2
  6
CONTINUOUS
 62
     3
100
AcDbLine
 10
108.78162
 20
54.705396
 30
0.0
 11
109.317518
 21
56.705396
 31
0.0
  0
LINE
  5
57E
330
576
100
AcDbEntity
  8
CSLAYER2
  6
CONTINUOUS
 62
     3
100
AcDbLine
 10
109.317518
 20
56.705396
 30
0.0
 11
109.853416
 21
54.705396
 31
0.0
  0
LINE
  5
57F
330
576
100
AcDbEntity
  8
CSLAYER2
  6
CONTINUOUS
 62
     3
100
AcDbLine
 10
109.317518
 20
56.705396
 30
0.0
 11
109.317518
 21
54.705396
 31
0.0
  0
LINE
  5
580
330
576
100
AcDbEntity
  8
CSLAYER2
  6
CONTINUOUS
 62
     3
100
AcDbLine
 10
133.7395
 20
68.505396
 30
0.0
 11
108.517518
 21
68.505396
 31
0.0
  0
LINE
  5
581
330
576
100
AcDbEntity
  8
CSLAYER2
  6
CONTINUOUS
 62
     3
100
AcDbLine
 10
133.7395
 20
56.705396
 30
0.0
 11
108.517518
 21
56.705396
 31
0.0
  0
LINE
  5
582
330
576
100
AcDbEntity
  8
CSLAYER2
  6
CONTINUOUS
 62
     3
100
AcDbLine
 10
109.317518
 20
68.505396
 30
0.0
 11
109.317518
 21
71.505396
 31
0.0
  0
LINE
  5
583
330
576
100
AcDbEntity
  8
CSLAYER2
  6
CONTINUOUS
 62
     3
100
AcDbLine
 10
109.317518
 20
68.505396
 30
0.0
 11
109.317518
 21
56.705396
 31
0.0
  0
LINE
  5
584
330
576
100
AcDbEntity
  8
CSLAYER2
  6
CONTINUOUS
 62
     3
100
AcDbLine
 10
109.317518
 20
56.705396
 30
0.0
 11
109.317518
 21
53.705396
 31
0.0
  0
TEXT
  5
585
330
576
100
AcDbEntity
  8
CSLAYER2
 62
     3
100
AcDbText
 10
108.450317
 20
56.923939
 30
0.0
 40
3.0
  1
%%c
 50
90.0
 41
0.864706
  7
ED_VECTOR
 72
     5
 11
108.450317
 21
59.023939
 31
0.0
100
AcDbText
  0
TEXT
  5
586
330
576
100
AcDbEntity
  8
CSLAYER2
 62
     3
100
AcDbText
 10
108.450317
 20
60.24102
 30
0.0
 40
3.0
  1
11.8
 50
90.0
 41
0.877612
  7
ED_VECTOR
 72
     5
 11
108.450317
 21
68.64102
 31
0.0
100
AcDbText
  0
ENDBLK
  5
578
330
576
100
AcDbEntity
  8
0
100
AcDbBlockEnd
  0
BLOCK
  5
588
330
587
100
AcDbEntity
  8
0
100
AcDbBlockBegin
  2
BLKF034
 70
     0
 71
     0
 10
0.0
 20
0.0
 30
0.0
  3
BLKF034
  1

  0
LINE
  5
58B
330
587
100
AcDbEntity
  8
CSLAYER2
  6
CONTINUOUS
 62
     3
100
AcDbLine
 10
250.799584
 20
74.605396
 30
0.0
 11
250.263686
 21
72.605396
 31
0.0
  0
LINE
  5
58C
330
587
100
AcDbEntity
  8
CSLAYER2
  6
CONTINUOUS
 62
     3
100
AcDbLine
 10
250.263686
 20
72.605396
 30
0.0
 11
249.727788
 21
74.605396
 31
0.0
  0
LINE
  5
58D
330
587
100
AcDbEntity
  8
CSLAYER2
  6
CONTINUOUS
 62
     3
100
AcDbLine
 10
250.263686
 20
72.605396
 30
0.0
 11
250.263686
 21
74.605396
 31
0.0
  0
LINE
  5
58E
330
587
100
AcDbEntity
  8
CSLAYER2
  6
CONTINUOUS
 62
     3
100
AcDbLine
 10
249.727788
 20
50.605396
 30
0.0
 11
250.263686
 21
52.605396
 31
0.0
  0
LINE
  5
58F
330
587
100
AcDbEntity
  8
CSLAYER2
  6
CONTINUOUS
 62
     3
100
AcDbLine
 10
250.263686
 20
52.605396
 30
0.0
 11
250.799584
 21
50.605396
 31
0.0
  0
LINE
  5
590
330
587
100
AcDbEntity
  8
CSLAYER2
  6
CONTINUOUS
 62
     3
100
AcDbLine
 10
250.263686
 20
52.605396
 30
0.0
 11
250.263686
 21
50.605396
 31
0.0
  0
LINE
  5
591
330
587
100
AcDbEntity
  8
CSLAYER2
  6
CONTINUOUS
 62
     3
100
AcDbLine
 10
207.272157
 20
72.605396
 30
0.0
 11
251.063686
 21
72.605396
 31
0.0
  0
LINE
  5
592
330
587
100
AcDbEntity
  8
CSLAYER2
  6
CONTINUOUS
 62
     3
100
AcDbLine
 10
207.272157
 20
52.605396
 30
0.0
 11
251.063686
 21
52.605396
 31
0.0
  0
LINE
  5
593
330
587
100
AcDbEntity
  8
CSLAYER2
  6
CONTINUOUS
 62
     3
100
AcDbLine
 10
250.263686
 20
72.605396
 30
0.0
 11
250.263686
 21
75.605396
 31
0.0
  0
LINE
  5
594
330
587
100
AcDbEntity
  8
CSLAYER2
  6
CONTINUOUS
 62
     3
100
AcDbLine
 10
250.263686
 20
72.605396
 30
0.0
 11
250.263686
 21
52.605396
 31
0.0
  0
LINE
  5
595
330
587
100
AcDbEntity
  8
CSLAYER2
  6
CONTINUOUS
 62
     3
100
AcDbLine
 10
250.263686
 20
52.605396
 30
0.0
 11
250.263686
 21
49.605396
 31
0.0
  0
TEXT
  5
596
330
587
100
AcDbEntity
  8
CSLAYER2
 62
     3
100
AcDbText
 10
249.396484
 20
54.543106
 30
0.0
 40
3.0
  1
%%c
 50
90.0
 41
0.864706
  7
ED_VECTOR
 72
     5
 11
249.396484
 21
56.643106
 31
0.0
100
AcDbText
  0
TEXT
  5
597
330
587
100
AcDbEntity
  8
CSLAYER2
 62
     3
100
AcDbText
 10
249.396484
 20
57.860188
 30
0.0
 40
3.0
  1
20
 50
90.0
 41
0.794595
  7
ED_VECTOR
 72
     5
 11
249.396484
 21
62.060187
 31
0.0
100
AcDbText
  0
TEXT
  5
598
330
587
100
AcDbEntity
  8
CSLAYER2
 62
     3
100
AcDbText
 10
249.471588
 20
64.514351
 30
0.0
 40
2.4
  1
-
 50
90.0
 41
0.668182
  7
ED_VECTOR
 72
     5
 11
249.471588
 21
66.194351
 31
0.0
100
AcDbText
  0
TEXT
  5
599
330
587
100
AcDbEntity
  8
CSLAYER2
 62
     3
100
AcDbText
 10
246.678253
 20
65.911018
 30
0.0
 40
2.4
  1
0
 50
90.0
 41
0.864706
  7
ED_VECTOR
 72
     5
 11
246.678253
 21
67.591018
 31
0.0
100
AcDbText
  0
TEXT
  5
59A
330
587
100
AcDbEntity
  8
CSLAYER2
 62
     3
100
AcDbText
 10
249.471588
 20
65.911018
 30
0.0
 40
2.4
  1
0.01
 50
90.0
 41
0.963934
  7
ED_VECTOR
 72
     5
 11
249.471588
 21
72.631018
 31
0.0
100
AcDbText
  0
ENDBLK
  5
589
330
587
100
AcDbEntity
  8
0
100
AcDbBlockEnd
  0
BLOCK
  5
59C
330
59B
100
AcDbEntity
  8
0
100
AcDbBlockBegin
  2
BLKF035
 70
     0
 71
     0
 10
0.0
 20
0.0
 30
0.0
  3
BLKF035
  1

  0
LINE
  5
59F
330
59B
100
AcDbEntity
  8
CSLAYER2
  6
CONTINUOUS
 62
     3
100
AcDbLine
 10
222.862157
 20
35.871272
 30
0.0
 11
224.862157
 21
35.335374
 31
0.0
  0
LINE
  5
5A0
330
59B
100
AcDbEntity
  8
CSLAYER2
  6
CONTINUOUS
 62
     3
100
AcDbLine
 10
224.862157
 20
35.335374
 30
0.0
 11
222.862157
 21
34.799476
 31
0.0
  0
LINE
  5
5A1
330
59B
100
AcDbEntity
  8
CSLAYER2
  6
CONTINUOUS
 62
     3
100
AcDbLine
 10
224.862157
 20
35.335374
 30
0.0
 11
222.862157
 21
35.335374
 31
0.0
  0
LINE
  5
5A2
330
59B
100
AcDbEntity
  8
CSLAYER2
  6
CONTINUOUS
 62
     3
100
AcDbLine
 10
234.962157
 20
34.799476
 30
0.0
 11
232.962157
 21
35.335374
 31
0.0
  0
LINE
  5
5A3
330
59B
100
AcDbEntity
  8
CSLAYER2
  6
CONTINUOUS
 62
     3
100
AcDbLine
 10
232.962157
 20
35.335374
 30
0.0
 11
234.962157
 21
35.871272
 31
0.0
  0
LINE
  5
5A4
330
59B
100
AcDbEntity
  8
CSLAYER2
  6
CONTINUOUS
 62
     3
100
AcDbLine
 10
232.962157
 20
35.335374
 30
0.0
 11
234.962157
 21
35.335374
 31
0.0
  0
LINE
  5
5A5
330
59B
100
AcDbEntity
  8
CSLAYER2
  6
CONTINUOUS
 62
     3
100
AcDbLine
 10
224.862157
 20
53.245396
 30
0.0
 11
224.862157
 21
34.535374
 31
0.0
  0
LINE
  5
5A6
330
59B
100
AcDbEntity
  8
CSLAYER2
  6
CONTINUOUS
 62
     3
100
AcDbLine
 10
232.962157
 20
54.645396
 30
0.0
 11
232.962157
 21
34.535374
 31
0.0
  0
LINE
  5
5A7
330
59B
100
AcDbEntity
  8
CSLAYER2
  6
CONTINUOUS
 62
     3
100
AcDbLine
 10
224.862157
 20
35.335374
 30
0.0
 11
221.862157
 21
35.335374
 31
0.0
  0
LINE
  5
5A8
330
59B
100
AcDbEntity
  8
CSLAYER2
  6
CONTINUOUS
 62
     3
100
AcDbLine
 10
224.862157
 20
35.335374
 30
0.0
 11
232.962157
 21
35.335374
 31
0.0
  0
LINE
  5
5A9
330
59B
100
AcDbEntity
  8
CSLAYER2
  6
CONTINUOUS
 62
     3
100
AcDbLine
 10
232.962157
 20
35.335374
 30
0.0
 11
235.962157
 21
35.335374
 31
0.0
  0
TEXT
  5
5AA
330
59B
100
AcDbEntity
  8
CSLAYER2
 62
     3
100
AcDbText
 10
225.762161
 20
36.202576
 30
0.0
 40
3.0
  1
8.1
 41
1.07561
  7
ED_VECTOR
 72
     5
 11
232.062161
 21
36.202576
 31
0.0
100
AcDbText
  0
ENDBLK
  5
59D
330
59B
100
AcDbEntity
  8
0
100
AcDbBlockEnd
  0
BLOCK
  5
5AC
330
5AB
100
AcDbEntity
  8
0
100
AcDbBlockBegin
  2
BLKF036
 70
     0
 71
     0
 10
0.0
 20
0.0
 30
0.0
  3
BLKF036
  1

  0
LINE
  5
5AF
330
5AB
100
AcDbEntity
  8
CSLAYER2
  6
CONTINUOUS
 62
     3
100
AcDbLine
 10
222.862157
 20
35.871272
 30
0.0
 11
224.862157
 21
35.335374
 31
0.0
  0
LINE
  5
5B0
330
5AB
100
AcDbEntity
  8
CSLAYER2
  6
CONTINUOUS
 62
     3
100
AcDbLine
 10
224.862157
 20
35.335374
 30
0.0
 11
222.862157
 21
34.799476
 31
0.0
  0
LINE
  5
5B1
330
5AB
100
AcDbEntity
  8
CSLAYER2
  6
CONTINUOUS
 62
     3
100
AcDbLine
 10
224.862157
 20
35.335374
 30
0.0
 11
222.862157
 21
35.335374
 31
0.0
  0
LINE
  5
5B2
330
5AB
100
AcDbEntity
  8
CSLAYER2
  6
CONTINUOUS
 62
     3
100
AcDbLine
 10
183.362157
 20
34.799476
 30
0.0
 11
181.362157
 21
35.335374
 31
0.0
  0
LINE
  5
5B3
330
5AB
100
AcDbEntity
  8
CSLAYER2
  6
CONTINUOUS
 62
     3
100
AcDbLine
 10
181.362157
 20
35.335374
 30
0.0
 11
183.362157
 21
35.871272
 31
0.0
  0
LINE
  5
5B4
330
5AB
100
AcDbEntity
  8
CSLAYER2
  6
CONTINUOUS
 62
     3
100
AcDbLine
 10
181.362157
 20
35.335374
 30
0.0
 11
183.362157
 21
35.335374
 31
0.0
  0
LINE
  5
5B5
330
5AB
100
AcDbEntity
  8
CSLAYER2
  6
CONTINUOUS
 62
     3
100
AcDbLine
 10
224.862157
 20
53.245396
 30
0.0
 11
224.862157
 21
34.535374
 31
0.0
  0
LINE
  5
5B6
330
5AB
100
AcDbEntity
  8
CSLAYER2
  6
CONTINUOUS
 62
     3
100
AcDbLine
 10
181.362157
 20
47.857944
 30
0.0
 11
181.362157
 21
34.535374
 31
0.0
  0
LINE
  5
5B7
330
5AB
100
AcDbEntity
  8
CSLAYER2
  6
CONTINUOUS
 62
     3
100
AcDbLine
 10
224.862157
 20
35.335374
 30
0.0
 11
181.362157
 21
35.335374
 31
0.0
  0
TEXT
  5
5B8
330
5AB
100
AcDbEntity
  8
CSLAYER2
 62
     3
100
AcDbText
 10
199.089233
 20
36.202576
 30
0.0
 40
3.0
  1
43.5
 41
0.877612
  7
ED_VECTOR
 72
     5
 11
207.489233
 21
36.202576
 31
0.0
100
AcDbText
  0
ENDBLK
  5
5AD
330
5AB
100
AcDbEntity
  8
0
100
AcDbBlockEnd
  0
BLOCK
  5
5DC
330
5DB
100
AcDbEntity
  8
0
100
AcDbBlockBegin
  2
BLKF037
 70
     0
 71
     0
 10
0.0
 20
0.0
 30
0.0
  3
BLKF037
  1

  0
LINE
  5
5DF
330
5DB
100
AcDbEntity
  8
0
  6
CONTINUOUS
 62
     7
100
AcDbLine
 10
49.979326
 20
64.640095
 30
0.0
 11
50.049435
 21
64.646103
 31
0.0
  0
LINE
  5
5E0
330
5DB
100
AcDbEntity
  8
0
  6
CONTINUOUS
 62
     7
100
AcDbLine
 10
50.049435
 20
64.646103
 30
0.0
 11
50.084476
 21
64.648827
 31
0.0
  0
LINE
  5
5E1
330
5DB
100
AcDbEntity
  8
0
  6
CONTINUOUS
 62
     7
100
AcDbLine
 10
50.084476
 20
64.648827
 30
0.0
 11
50.119502
 21
64.651216
 31
0.0
  0
LINE
  5
5E2
330
5DB
100
AcDbEntity
  8
0
  6
CONTINUOUS
 62
     7
100
AcDbLine
 10
50.119502
 20
64.651216
 30
0.0
 11
50.154508
 21
64.653157
 31
0.0
  0
LINE
  5
5E3
330
5DB
100
AcDbEntity
  8
0
  6
CONTINUOUS
 62
     7
100
AcDbLine
 10
50.154508
 20
64.653157
 30
0.0
 11
50.189488
 21
64.654538
 31
0.0
  0
LINE
  5
5E4
330
5DB
100
AcDbEntity
  8
0
  6
CONTINUOUS
 62
     7
100
AcDbLine
 10
50.189488
 20
64.654538
 30
0.0
 11
50.224437
 21
64.655249
 31
0.0
  0
LINE
  5
5E5
330
5DB
100
AcDbEntity
  8
0
  6
CONTINUOUS
 62
     7
100
AcDbLine
 10
50.224437
 20
64.655249
 30
0.0
 11
50.25935
 21
64.655177
 31
0.0
  0
LINE
  5
5E6
330
5DB
100
AcDbEntity
  8
0
  6
CONTINUOUS
 62
     7
100
AcDbLine
 10
50.25935
 20
64.655177
 30
0.0
 11
50.286903
 21
64.654513
 31
0.0
  0
LINE
  5
5E7
330
5DB
100
AcDbEntity
  8
0
  6
CONTINUOUS
 62
     7
100
AcDbLine
 10
50.286903
 20
64.654513
 30
0.0
 11
50.314434
 21
64.653361
 31
0.0
  0
LINE
  5
5E8
330
5DB
100
AcDbEntity
  8
0
  6
CONTINUOUS
 62
     7
100
AcDbLine
 10
50.314434
 20
64.653361
 30
0.0
 11
50.341945
 21
64.65179
 31
0.0
  0
LINE
  5
5E9
330
5DB
100
AcDbEntity
  8
0
  6
CONTINUOUS
 62
     7
100
AcDbLine
 10
50.341945
 20
64.65179
 30
0.0
 11
50.369441
 21
64.64987
 31
0.0
  0
LINE
  5
5EA
330
5DB
100
AcDbEntity
  8
0
  6
CONTINUOUS
 62
     7
100
AcDbLine
 10
50.369441
 20
64.64987
 30
0.0
 11
50.396923
 21
64.647671
 31
0.0
  0
LINE
  5
5EB
330
5DB
100
AcDbEntity
  8
0
  6
CONTINUOUS
 62
     7
100
AcDbLine
 10
50.396923
 20
64.647671
 30
0.0
 11
50.424396
 21
64.645262
 31
0.0
  0
LINE
  5
5EC
330
5DB
100
AcDbEntity
  8
0
  6
CONTINUOUS
 62
     7
100
AcDbLine
 10
50.424396
 20
64.645262
 30
0.0
 11
50.479326
 21
64.640095
 31
0.0
  0
ENDBLK
  5
5DD
330
5DB
100
AcDbEntity
  8
0
100
AcDbBlockEnd
  0
BLOCK
  5
5EE
330
5ED
100
AcDbEntity
  8
0
100
AcDbBlockBegin
  2
BLKF038
 70
     0
 71
     0
 10
0.0
 20
0.0
 30
0.0
  3
BLKF038
  1

  0
LINE
  5
5F1
330
5ED
100
AcDbEntity
  8
0
  6
CONTINUOUS
 62
     7
100
AcDbLine
 10
52.116427
 20
61.804553
 30
0.0
 11
52.091887
 21
61.751286
 31
0.0
  0
LINE
  5
5F2
330
5ED
100
AcDbEntity
  8
0
  6
CONTINUOUS
 62
     7
100
AcDbLine
 10
52.091887
 20
61.751286
 30
0.0
 11
52.079445
 21
61.724746
 31
0.0
  0
LINE
  5
5F3
330
5ED
100
AcDbEntity
  8
0
  6
CONTINUOUS
 62
     7
100
AcDbLine
 10
52.079445
 20
61.724746
 30
0.0
 11
52.066795
 21
61.698319
 31
0.0
  0
LINE
  5
5F4
330
5ED
100
AcDbEntity
  8
0
  6
CONTINUOUS
 62
     7
100
AcDbLine
 10
52.066795
 20
61.698319
 30
0.0
 11
52.053869
 21
61.672043
 31
0.0
  0
LINE
  5
5F5
330
5ED
100
AcDbEntity
  8
0
  6
CONTINUOUS
 62
     7
100
AcDbLine
 10
52.053869
 20
61.672043
 30
0.0
 11
52.040598
 21
61.645954
 31
0.0
  0
LINE
  5
5F6
330
5ED
100
AcDbEntity
  8
0
  6
CONTINUOUS
 62
     7
100
AcDbLine
 10
52.040598
 20
61.645954
 30
0.0
 11
52.026912
 21
61.620092
 31
0.0
  0
LINE
  5
5F7
330
5ED
100
AcDbEntity
  8
0
  6
CONTINUOUS
 62
     7
100
AcDbLine
 10
52.026912
 20
61.620092
 30
0.0
 11
52.012743
 21
61.594493
 31
0.0
  0
LINE
  5
5F8
330
5ED
100
AcDbEntity
  8
0
  6
CONTINUOUS
 62
     7
100
AcDbLine
 10
52.012743
 20
61.594493
 30
0.0
 11
51.996012
 21
61.565775
 31
0.0
  0
LINE
  5
5F9
330
5ED
100
AcDbEntity
  8
0
  6
CONTINUOUS
 62
     7
100
AcDbLine
 10
51.996012
 20
61.565775
 30
0.0
 11
51.978657
 21
61.537396
 31
0.0
  0
LINE
  5
5FA
330
5ED
100
AcDbEntity
  8
0
  6
CONTINUOUS
 62
     7
100
AcDbLine
 10
51.978657
 20
61.537396
 30
0.0
 11
51.960768
 21
61.509309
 31
0.0
  0
LINE
  5
5FB
330
5ED
100
AcDbEntity
  8
0
  6
CONTINUOUS
 62
     7
100
AcDbLine
 10
51.960768
 20
61.509309
 30
0.0
 11
51.942435
 21
61.481464
 31
0.0
  0
LINE
  5
5FC
330
5ED
100
AcDbEntity
  8
0
  6
CONTINUOUS
 62
     7
100
AcDbLine
 10
51.942435
 20
61.481464
 30
0.0
 11
51.923744
 21
61.453814
 31
0.0
  0
LINE
  5
5FD
330
5ED
100
AcDbEntity
  8
0
  6
CONTINUOUS
 62
     7
100
AcDbLine
 10
51.923744
 20
61.453814
 30
0.0
 11
51.904787
 21
61.426308
 31
0.0
  0
LINE
  5
5FE
330
5ED
100
AcDbEntity
  8
0
  6
CONTINUOUS
 62
     7
100
AcDbLine
 10
51.904787
 20
61.426308
 30
0.0
 11
51.866427
 21
61.371541
 31
0.0
  0
ENDBLK
  5
5EF
330
5ED
100
AcDbEntity
  8
0
100
AcDbBlockEnd
  0
BLOCK
  5
600
330
5FF
100
AcDbEntity
  8
0
100
AcDbBlockBegin
  2
BLKF039
 70
     0
 71
     0
 10
0.0
 20
0.0
 30
0.0
  3
BLKF039
  1

  0
LINE
  5
603
330
5FF
100
AcDbEntity
  8
0
  6
CONTINUOUS
 62
     7
100
AcDbLine
 10
48.592225
 20
61.371541
 30
0.0
 11
48.558364
 21
61.419427
 31
0.0
  0
LINE
  5
604
330
5FF
100
AcDbEntity
  8
0
  6
CONTINUOUS
 62
     7
100
AcDbLine
 10
48.558364
 20
61.419427
 30
0.0
 11
48.541601
 21
61.443472
 31
0.0
  0
LINE
  5
605
330
5FF
100
AcDbEntity
  8
0
  6
CONTINUOUS
 62
     7
100
AcDbLine
 10
48.541601
 20
61.443472
 30
0.0
 11
48.52504
 21
61.46764
 31
0.0
  0
LINE
  5
606
330
5FF
100
AcDbEntity
  8
0
  6
CONTINUOUS
 62
     7
100
AcDbLine
 10
48.52504
 20
61.46764
 30
0.0
 11
48.508747
 21
61.491973
 31
0.0
  0
LINE
  5
607
330
5FF
100
AcDbEntity
  8
0
  6
CONTINUOUS
 62
     7
100
AcDbLine
 10
48.508747
 20
61.491973
 30
0.0
 11
48.492789
 21
61.51651
 31
0.0
  0
LINE
  5
608
330
5FF
100
AcDbEntity
  8
0
  6
CONTINUOUS
 62
     7
100
AcDbLine
 10
48.492789
 20
61.51651
 30
0.0
 11
48.477235
 21
61.541294
 31
0.0
  0
LINE
  5
609
330
5FF
100
AcDbEntity
  8
0
  6
CONTINUOUS
 62
     7
100
AcDbLine
 10
48.477235
 20
61.541294
 30
0.0
 11
48.46215
 21
61.566364
 31
0.0
  0
LINE
  5
60A
330
5FF
100
AcDbEntity
  8
0
  6
CONTINUOUS
 62
     7
100
AcDbLine
 10
48.46215
 20
61.566364
 30
0.0
 11
48.445645
 21
61.595213
 31
0.0
  0
LINE
  5
60B
330
5FF
100
AcDbEntity
  8
0
  6
CONTINUOUS
 62
     7
100
AcDbLine
 10
48.445645
 20
61.595213
 30
0.0
 11
48.429746
 21
61.624431
 31
0.0
  0
LINE
  5
60C
330
5FF
100
AcDbEntity
  8
0
  6
CONTINUOUS
 62
     7
100
AcDbLine
 10
48.429746
 20
61.624431
 30
0.0
 11
48.414366
 21
61.653967
 31
0.0
  0
LINE
  5
60D
330
5FF
100
AcDbEntity
  8
0
  6
CONTINUOUS
 62
     7
100
AcDbLine
 10
48.414366
 20
61.653967
 30
0.0
 11
48.399418
 21
61.683767
 31
0.0
  0
LINE
  5
60E
330
5FF
100
AcDbEntity
  8
0
  6
CONTINUOUS
 62
     7
100
AcDbLine
 10
48.399418
 20
61.683767
 30
0.0
 11
48.384817
 21
61.713779
 31
0.0
  0
LINE
  5
60F
330
5FF
100
AcDbEntity
  8
0
  6
CONTINUOUS
 62
     7
100
AcDbLine
 10
48.384817
 20
61.713779
 30
0.0
 11
48.370476
 21
61.743949
 31
0.0
  0
LINE
  5
610
330
5FF
100
AcDbEntity
  8
0
  6
CONTINUOUS
 62
     7
100
AcDbLine
 10
48.370476
 20
61.743949
 30
0.0
 11
48.342225
 21
61.804553
 31
0.0
  0
ENDBLK
  5
601
330
5FF
100
AcDbEntity
  8
0
100
AcDbBlockEnd
  0
BLOCK
  5
615
330
614
100
AcDbEntity
  8
0
100
AcDbBlockBegin
  2
BLKF040
 70
     0
 71
     0
 10
0.0
 20
0.0
 30
0.0
  3
BLKF040
  1

  0
LINE
  5
618
330
614
100
AcDbEntity
  8
CSLAYER2
  6
CONTINUOUS
 62
     3
100
AcDbLine
 10
33.479326
 20
20.264102
 30
0.0
 11
31.479326
 21
20.8
 31
0.0
  0
LINE
  5
619
330
614
100
AcDbEntity
  8
CSLAYER2
  6
CONTINUOUS
 62
     3
100
AcDbLine
 10
31.479326
 20
20.8
 30
0.0
 11
33.479326
 21
21.335898
 31
0.0
  0
LINE
  5
61A
330
614
100
AcDbEntity
  8
CSLAYER2
  6
CONTINUOUS
 62
     3
100
AcDbLine
 10
31.479326
 20
20.8
 30
0.0
 11
33.479326
 21
20.8
 31
0.0
  0
LINE
  5
61B
330
614
100
AcDbEntity
  8
CSLAYER2
  6
CONTINUOUS
 62
     3
100
AcDbLine
 10
66.979326
 20
21.335898
 30
0.0
 11
68.979326
 21
20.8
 31
0.0
  0
LINE
  5
61C
330
614
100
AcDbEntity
  8
CSLAYER2
  6
CONTINUOUS
 62
     3
100
AcDbLine
 10
68.979326
 20
20.8
 30
0.0
 11
66.979326
 21
20.264102
 31
0.0
  0
LINE
  5
61D
330
614
100
AcDbEntity
  8
CSLAYER2
  6
CONTINUOUS
 62
     3
100
AcDbLine
 10
68.979326
 20
20.8
 30
0.0
 11
66.979326
 21
20.8
 31
0.0
  0
LINE
  5
61E
330
614
100
AcDbEntity
  8
CSLAYER2
  6
CONTINUOUS
 62
     3
100
AcDbLine
 10
31.479326
 20
62.595396
 30
0.0
 11
31.479326
 21
20.0
 31
0.0
  0
LINE
  5
61F
330
614
100
AcDbEntity
  8
CSLAYER2
  6
CONTINUOUS
 62
     3
100
AcDbLine
 10
68.979326
 20
62.595396
 30
0.0
 11
68.979326
 21
20.0
 31
0.0
  0
LINE
  5
620
330
614
100
AcDbEntity
  8
CSLAYER2
  6
CONTINUOUS
 62
     3
100
AcDbLine
 10
31.479326
 20
20.8
 30
0.0
 11
68.979326
 21
20.8
 31
0.0
  0
TEXT
  5
621
330
614
100
AcDbEntity
  8
CSLAYER2
 62
     3
100
AcDbText
 10
45.704277
 20
21.667204
 30
0.0
 40
3.0
  1
%%c
 41
0.864706
  7
ED_VECTOR
 72
     5
 11
47.804277
 21
21.667204
 31
0.0
100
AcDbText
  0
TEXT
  5
622
330
614
100
AcDbEntity
  8
CSLAYER2
 62
     3
100
AcDbText
 10
49.021358
 20
21.667204
 30
0.0
 40
3.0
  1
37.5
 41
0.877612
  7
ED_VECTOR
 72
     5
 11
57.421358
 21
21.667204
 31
0.0
100
AcDbText
  0
ENDBLK
  5
616
330
614
100
AcDbEntity
  8
0
100
AcDbBlockEnd
  0
BLOCK
  5
624
330
623
100
AcDbEntity
  8
0
100
AcDbBlockBegin
  2
BLKF041
 70
     0
 71
     0
 10
0.0
 20
0.0
 30
0.0
  3
BLKF041
  1

  0
LINE
  5
627
330
623
100
AcDbEntity
  8
CSLAYER2
  6
CONTINUOUS
 62
     3
100
AcDbLine
 10
65.219707
 20
70.641295
 30
0.0
 11
63.219707
 21
70.105396
 31
0.0
  0
LINE
  5
628
330
623
100
AcDbEntity
  8
CSLAYER2
  6
CONTINUOUS
 62
     3
100
AcDbLine
 10
63.219707
 20
70.105396
 30
0.0
 11
64.683809
 21
71.569498
 31
0.0
  0
LINE
  5
629
330
623
100
AcDbEntity
  8
CSLAYER2
  6
CONTINUOUS
 62
     3
100
AcDbLine
 10
63.219707
 20
70.105396
 30
0.0
 11
64.951758
 21
71.105396
 31
0.0
  0
LINE
  5
62A
330
623
100
AcDbEntity
  8
CSLAYER2
  6
CONTINUOUS
 62
     3
100
AcDbLine
 10
35.238945
 20
54.569498
 30
0.0
 11
37.238945
 21
55.105396
 31
0.0
  0
LINE
  5
62B
330
623
100
AcDbEntity
  8
CSLAYER2
  6
CONTINUOUS
 62
     3
100
AcDbLine
 10
37.238945
 20
55.105396
 30
0.0
 11
35.774843
 21
53.641295
 31
0.0
  0
LINE
  5
62C
330
623
100
AcDbEntity
  8
CSLAYER2
  6
CONTINUOUS
 62
     3
100
AcDbLine
 10
37.238945
 20
55.105396
 30
0.0
 11
35.506894
 21
54.105396
 31
0.0
  0
LINE
  5
62D
330
623
100
AcDbEntity
  8
CSLAYER2
  6
CONTINUOUS
 62
     3
100
AcDbLine
 10
37.238945
 20
55.105396
 30
0.0
 11
21.930531
 21
46.267079
 31
0.0
  0
LINE
  5
62E
330
623
100
AcDbEntity
  8
CSLAYER2
  6
CONTINUOUS
 62
     3
100
AcDbLine
 10
63.219707
 20
70.105396
 30
0.0
 11
65.817784
 21
71.605396
 31
0.0
  0
LINE
  5
62F
330
623
100
AcDbEntity
  8
CSLAYER2
  6
CONTINUOUS
 62
     3
100
AcDbLine
 10
37.238945
 20
55.105396
 30
0.0
 11
63.219707
 21
70.105396
 31
0.0
  0
TEXT
  5
630
330
623
100
AcDbEntity
  8
CSLAYER2
 62
     3
100
AcDbText
 10
21.5
 20
47.012783
 30
0.0
 40
3.0
  1
%%c
 50
30.0
 41
0.864706
  7
ED_VECTOR
 72
     5
 11
23.318653
 21
48.062783
 31
0.0
100
AcDbText
  0
TEXT
  5
631
330
623
100
AcDbEntity
  8
CSLAYER2
 62
     3
100
AcDbText
 10
24.372679
 20
48.671322
 30
0.0
 40
3.0
  1
30
 50
30.0
 41
0.794595
  7
ED_VECTOR
 72
     5
 11
28.009985
 21
50.771322
 31
0.0
100
AcDbText
  0
ENDBLK
  5
625
330
623
100
AcDbEntity
  8
0
100
AcDbBlockEnd
  0
BLOCK
  5
633
330
632
100
AcDbEntity
  8
0
100
AcDbBlockBegin
  2
BLKF042
 70
     0
 71
     0
 10
0.0
 20
0.0
 30
0.0
  3
BLKF042
  1

  0
LINE
  5
636
330
632
100
AcDbEntity
  8
CSLAYER2
  6
CONTINUOUS
 62
     3
100
AcDbLine
 10
40.829326
 20
27.315313
 30
0.0
 11
38.829326
 21
27.851211
 31
0.0
  0
LINE
  5
637
330
632
100
AcDbEntity
  8
CSLAYER2
  6
CONTINUOUS
 62
     3
100
AcDbLine
 10
38.829326
 20
27.851211
 30
0.0
 11
40.829326
 21
28.387109
 31
0.0
  0
LINE
  5
638
330
632
100
AcDbEntity
  8
CSLAYER2
  6
CONTINUOUS
 62
     3
100
AcDbLine
 10
38.829326
 20
27.851211
 30
0.0
 11
40.829326
 21
27.851211
 31
0.0
  0
LINE
  5
639
330
632
100
AcDbEntity
  8
CSLAYER2
  6
CONTINUOUS
 62
     3
100
AcDbLine
 10
59.629326
 20
28.387109
 30
0.0
 11
61.629326
 21
27.851211
 31
0.0
  0
LINE
  5
63A
330
632
100
AcDbEntity
  8
CSLAYER2
  6
CONTINUOUS
 62
     3
100
AcDbLine
 10
61.629326
 20
27.851211
 30
0.0
 11
59.629326
 21
27.315313
 31
0.0
  0
LINE
  5
63B
330
632
100
AcDbEntity
  8
CSLAYER2
  6
CONTINUOUS
 62
     3
100
AcDbLine
 10
61.629326
 20
27.851211
 30
0.0
 11
59.629326
 21
27.851211
 31
0.0
  0
LINE
  5
63C
330
632
100
AcDbEntity
  8
CSLAYER2
  6
CONTINUOUS
 62
     3
100
AcDbLine
 10
38.829326
 20
47.709077
 30
0.0
 11
38.829326
 21
27.051211
 31
0.0
  0
LINE
  5
63D
330
632
100
AcDbEntity
  8
CSLAYER2
  6
CONTINUOUS
 62
     3
100
AcDbLine
 10
61.629326
 20
47.709077
 30
0.0
 11
61.629326
 21
27.051211
 31
0.0
  0
LINE
  5
63E
330
632
100
AcDbEntity
  8
CSLAYER2
  6
CONTINUOUS
 62
     3
100
AcDbLine
 10
38.829326
 20
27.851211
 30
0.0
 11
61.629326
 21
27.851211
 31
0.0
  0
TEXT
  5
63F
330
632
100
AcDbEntity
  8
CSLAYER2
 62
     3
100
AcDbText
 10
47.362816
 20
28.718414
 30
0.0
 40
3.0
  1
22.8
 41
0.877612
  7
ED_VECTOR
 72
     5
 11
55.762815
 21
28.718414
 31
0.0
100
AcDbText
  0
ENDBLK
  5
634
330
632
100
AcDbEntity
  8
0
100
AcDbBlockEnd
  0
BLOCK
  5
641
330
640
100
AcDbEntity
  8
0
100
AcDbBlockBegin
  2
BLKF043
 70
     0
 71
     0
 10
0.0
 20
0.0
 30
0.0
  3
BLKF043
  1

  0
ARC
  5
644
330
640
100
AcDbEntity
  8
CSLAYER2
  6
CONTINUOUS
 62
     3
100
AcDbCircle
 10
50.229326
 20
62.605396
 30
0.0
 40
26.62138123873306
100
AcDbArc
 50
240.0
 51
270.0
  0
LINE
  5
645
330
640
100
AcDbEntity
  8
CSLAYER2
  6
CONTINUOUS
 62
     3
100
AcDbLine
 10
38.43659
 20
38.142413
 30
0.0
 11
36.918636
 21
39.550604
 31
0.0
  0
LINE
  5
646
330
640
100
AcDbEntity
  8
CSLAYER2
  6
CONTINUOUS
 62
     3
100
AcDbLine
 10
36.918636
 20
39.550604
 30
0.0
 11
38.937318
 21
39.090051
 31
0.0
  0
LINE
  5
647
330
640
100
AcDbEntity
  8
CSLAYER2
  6
CONTINUOUS
 62
     3
100
AcDbLine
 10
36.918636
 20
39.550604
 30
0.0
 11
38.686954
 21
38.616232
 31
0.0
  0
LINE
  5
648
330
640
100
AcDbEntity
  8
CSLAYER2
  6
CONTINUOUS
 62
     3
100
AcDbLine
 10
48.25082
 20
36.594506
 30
0.0
 11
50.229326
 21
35.984015
 31
0.0
  0
LINE
  5
649
330
640
100
AcDbEntity
  8
CSLAYER2
  6
CONTINUOUS
 62
     3
100
AcDbLine
 10
50.229326
 20
35.984015
 30
0.0
 11
48.210644
 21
35.523463
 31
0.0
  0
LINE
  5
64A
330
640
100
AcDbEntity
  8
CSLAYER2
  6
CONTINUOUS
 62
     3
100
AcDbLine
 10
50.229326
 20
35.984015
 30
0.0
 11
48.230732
 21
36.058984
 31
0.0
  0
LINE
  5
64B
330
640
100
AcDbEntity
  8
CSLAYER2
  6
CONTINUOUS
 62
     3
100
AcDbLine
 10
41.174326
 20
46.921676
 30
0.0
 11
36.518636
 21
38.857784
 31
0.0
  0
LINE
  5
64C
330
640
100
AcDbEntity
  8
CSLAYER2
  6
CONTINUOUS
 62
     3
100
AcDbLine
 10
50.229326
 20
42.845396
 30
0.0
 11
50.229326
 21
35.184015
 31
0.0
  0
TEXT
  5
64D
330
640
100
AcDbEntity
  8
CSLAYER2
 62
     3
100
AcDbText
 10
40.768288
 20
38.225216
 30
0.0
 40
3.0
  1
30°
 50
348.791718
 41
0.801818
  7
ED_VECTOR
 72
     5
 11
46.948128
 21
37.000646
 31
0.0
100
AcDbText
  0
ENDBLK
  5
642
330
640
100
AcDbEntity
  8
0
100
AcDbBlockEnd
  0
BLOCK
  5
64F
330
64E
100
AcDbEntity
  8
0
100
AcDbBlockBegin
  2
BLKF044
 70
     0
 71
     0
 10
0.0
 20
0.0
 30
0.0
  3
BLKF044
  1

  0
ARC
  5
652
330
64E
100
AcDbEntity
  8
CSLAYER2
  6
CONTINUOUS
 62
     3
100
AcDbCircle
 10
50.229326
 20
62.605396
 30
0.0
 40
26.62110150429562
100
AcDbArc
 50
270.0
 51
300.0
  0
LINE
  5
653
330
64E
100
AcDbEntity
  8
CSLAYER2
  6
CONTINUOUS
 62
     3
100
AcDbLine
 10
52.248009
 20
35.523743
 30
0.0
 11
50.229326
 21
35.984295
 31
0.0
  0
LINE
  5
654
330
64E
100
AcDbEntity
  8
CSLAYER2
  6
CONTINUOUS
 62
     3
100
AcDbLine
 10
50.229326
 20
35.984295
 30
0.0
 11
52.207833
 21
36.594786
 31
0.0
  0
LINE
  5
655
330
64E
100
AcDbEntity
  8
CSLAYER2
  6
CONTINUOUS
 62
     3
100
AcDbLine
 10
50.229326
 20
35.984295
 30
0.0
 11
52.227921
 21
36.059265
 31
0.0
  0
LINE
  5
656
330
64E
100
AcDbEntity
  8
CSLAYER2
  6
CONTINUOUS
 62
     3
100
AcDbLine
 10
61.521195
 20
39.090294
 30
0.0
 11
63.539877
 21
39.550846
 31
0.0
  0
LINE
  5
657
330
64E
100
AcDbEntity
  8
CSLAYER2
  6
CONTINUOUS
 62
     3
100
AcDbLine
 10
63.539877
 20
39.550846
 30
0.0
 11
62.021922
 21
38.142656
 31
0.0
  0
LINE
  5
658
330
64E
100
AcDbEntity
  8
CSLAYER2
  6
CONTINUOUS
 62
     3
100
AcDbLine
 10
63.539877
 20
39.550846
 30
0.0
 11
61.771559
 21
38.616475
 31
0.0
  0
LINE
  5
659
330
64E
100
AcDbEntity
  8
CSLAYER2
  6
CONTINUOUS
 62
     3
100
AcDbLine
 10
50.229326
 20
42.845396
 30
0.0
 11
50.229326
 21
35.184295
 31
0.0
  0
LINE
  5
65A
330
64E
100
AcDbEntity
  8
CSLAYER2
  6
CONTINUOUS
 62
     3
100
AcDbLine
 10
59.284326
 20
46.921676
 30
0.0
 11
63.939877
 21
38.858026
 31
0.0
  0
TEXT
  5
65B
330
64E
100
AcDbEntity
  8
CSLAYER2
 62
     3
100
AcDbText
 10
54.082691
 20
36.739559
 30
0.0
 40
3.0
  1
30°
 50
18.474529
 41
0.801818
  7
ED_VECTOR
 72
     5
 11
60.058018
 21
38.735922
 31
0.0
100
AcDbText
  0
ENDBLK
  5
650
330
64E
100
AcDbEntity
  8
0
100
AcDbBlockEnd
  0
BLOCK
  5
65D
330
65C
100
AcDbEntity
  8
0
100
AcDbBlockBegin
  2
BLKF045
 70
     0
 71
     0
 10
0.0
 20
0.0
 30
0.0
  3
BLKF045
  1

  0
LINE
  5
660
330
65C
100
AcDbEntity
  8
CSLAYER2
  6
CONTINUOUS
 62
     3
100
AcDbLine
 10
64.982532
 20
82.564847
 30
0.0
 11
89.902459
 21
82.564847
 31
0.0
  0
LINE
  5
661
330
65C
100
AcDbEntity
  8
CSLAYER2
  6
CONTINUOUS
 62
     3
100
AcDbLine
 10
89.902459
 20
82.564847
 30
0.0
 11
64.982532
 21
82.564847
 31
0.0
  0
LINE
  5
662
330
65C
100
AcDbEntity
  8
CSLAYER2
  6
CONTINUOUS
 62
     3
100
AcDbLine
 10
64.982532
 20
82.564847
 30
0.0
 11
89.902459
 21
82.564847
 31
0.0
  0
LINE
  5
663
330
65C
100
AcDbEntity
  8
CSLAYER2
  6
CONTINUOUS
 62
     3
100
AcDbLine
 10
89.902459
 20
82.564847
 30
0.0
 11
64.982532
 21
82.564847
 31
0.0
  0
LINE
  5
664
330
65C
100
AcDbEntity
  8
CSLAYER2
  6
CONTINUOUS
 62
     3
100
AcDbLine
 10
64.982532
 20
82.564847
 30
0.0
 11
89.902459
 21
82.564847
 31
0.0
  0
LINE
  5
665
330
65C
100
AcDbEntity
  8
CSLAYER2
  6
CONTINUOUS
 62
     3
100
AcDbLine
 10
89.902459
 20
82.564847
 30
0.0
 11
64.982532
 21
82.564847
 31
0.0
  0
TEXT
  5
666
330
65C
100
AcDbEntity
  8
CSLAYER2
 62
     3
100
AcDbText
 10
64.984589
 20
87.491302
 30
0.0
 40
3.2
  1
本体取り付け穴
 41
0.836585
  7
ED_VECTOR
 72
     5
 11
80.664589
 21
87.491302
 31
0.0
100
AcDbText
  0
TEXT
  5
667
330
65C
100
AcDbEntity
  8
CSLAYER2
 62
     3
100
AcDbText
 10
64.984589
 20
83.491302
 30
0.0
 40
3.2
  1
4-φ4.2 貫通
 41
0.7875
  7
ED_VECTOR
 72
     5
 11
85.144589
 21
83.491302
 31
0.0
100
AcDbText
  0
ENDBLK
  5
65E
330
65C
100
AcDbEntity
  8
0
100
AcDbBlockEnd
  0
BLOCK
  5
669
330
668
100
AcDbEntity
  8
0
100
AcDbBlockBegin
  2
BLKF046
 70
     0
 71
     0
 10
0.0
 20
0.0
 30
0.0
  3
BLKF046
  1

  0
LINE
  5
66C
330
668
100
AcDbEntity
  8
CSLAYER2
  6
CONTINUOUS
 62
     3
100
AcDbLine
 10
57.728602
 20
75.596195
 30
0.0
 11
64.982532
 21
82.564847
 31
0.0
  0
LINE
  5
66D
330
668
100
AcDbEntity
  8
CSLAYER2
  6
CONTINUOUS
 62
     3
100
AcDbLine
 10
59.542154
 20
76.595304
 30
0.0
 11
57.728602
 21
75.596195
 31
0.0
  0
LINE
  5
66E
330
668
100
AcDbEntity
  8
CSLAYER2
  6
CONTINUOUS
 62
     3
100
AcDbLine
 10
57.728602
 20
75.596195
 30
0.0
 11
58.79963
 21
77.368224
 31
0.0
  0
LINE
  5
66F
330
668
100
AcDbEntity
  8
CSLAYER2
  6
CONTINUOUS
 62
     3
100
AcDbLine
 10
57.728602
 20
75.596195
 30
0.0
 11
59.170892
 21
76.981764
 31
0.0
  0
ENDBLK
  5
66A
330
668
100
AcDbEntity
  8
0
100
AcDbBlockEnd
  0
BLOCK
  5
671
330
670
100
AcDbEntity
  8
0
100
AcDbBlockBegin
  2
BLKF047
 70
     0
 71
     0
 10
0.0
 20
0.0
 30
0.0
  3
BLKF047
  1

  0
LINE
  5
674
330
670
100
AcDbEntity
  8
CSLAYER2
  6
CONTINUOUS
 62
     3
100
AcDbLine
 10
50.229326
 20
62.605396
 30
0.0
 11
50.229326
 21
63.605396
 31
0.0
  0
LINE
  5
675
330
670
100
AcDbEntity
  8
CSLAYER2
  6
CONTINUOUS
 62
     3
100
AcDbLine
 10
50.229326
 20
62.605396
 30
0.0
 11
49.229326
 21
62.605396
 31
0.0
  0
LINE
  5
676
330
670
100
AcDbEntity
  8
CSLAYER2
  6
CONTINUOUS
 62
     3
100
AcDbLine
 10
50.229326
 20
62.605396
 30
0.0
 11
50.229326
 21
61.605396
 31
0.0
  0
LINE
  5
677
330
670
100
AcDbEntity
  8
CSLAYER2
  6
CONTINUOUS
 62
     3
100
AcDbLine
 10
50.229326
 20
62.605396
 30
0.0
 11
51.229326
 21
62.605396
 31
0.0
  0
LINE
  5
678
330
670
100
AcDbEntity
  8
CSLAYER2
  6
CONTINUOUS
 62
     3
100
AcDbLine
 10
50.229326
 20
64.605396
 30
0.0
 11
50.229326
 21
82.355396
 31
0.0
  0
LINE
  5
679
330
670
100
AcDbEntity
  8
CSLAYER2
  6
CONTINUOUS
 62
     3
100
AcDbLine
 10
48.229326
 20
62.605396
 30
0.0
 11
30.479326
 21
62.605396
 31
0.0
  0
LINE
  5
67A
330
670
100
AcDbEntity
  8
CSLAYER2
  6
CONTINUOUS
 62
     3
100
AcDbLine
 10
50.229326
 20
60.605396
 30
0.0
 11
50.229326
 21
42.855396
 31
0.0
  0
LINE
  5
67B
330
670
100
AcDbEntity
  8
CSLAYER2
  6
CONTINUOUS
 62
     3
100
AcDbLine
 10
52.229326
 20
62.605396
 30
0.0
 11
69.979326
 21
62.605396
 31
0.0
  0
ENDBLK
  5
672
330
670
100
AcDbEntity
  8
0
100
AcDbBlockEnd
  0
BLOCK
  5
67D
330
67C
100
AcDbEntity
  8
0
100
AcDbBlockBegin
  2
BLKF048
 70
     0
 71
     0
 10
0.0
 20
0.0
 30
0.0
  3
BLKF048
  1

  0
LINE
  5
680
330
67C
100
AcDbEntity
  8
CSLAYER2
  6
CONTINUOUS
 62
     3
100
AcDbLine
 10
42.729326
 20
75.595777
 30
0.0
 11
42.229326
 21
76.461803
 31
0.0
  0
LINE
  5
681
330
67C
100
AcDbEntity
  8
CSLAYER2
  6
CONTINUOUS
 62
     3
100
AcDbLine
 10
42.729326
 20
75.595777
 30
0.0
 11
41.863301
 21
75.095777
 31
0.0
  0
LINE
  5
682
330
67C
100
AcDbEntity
  8
CSLAYER2
  6
CONTINUOUS
 62
     3
100
AcDbLine
 10
42.729326
 20
75.595777
 30
0.0
 11
43.229326
 21
74.729752
 31
0.0
  0
LINE
  5
683
330
67C
100
AcDbEntity
  8
CSLAYER2
  6
CONTINUOUS
 62
     3
100
AcDbLine
 10
42.729326
 20
75.595777
 30
0.0
 11
43.595352
 21
76.095777
 31
0.0
  0
LINE
  5
684
330
67C
100
AcDbEntity
  8
CSLAYER2
  6
CONTINUOUS
 62
     3
100
AcDbLine
 10
41.729326
 20
77.327828
 30
0.0
 11
41.179326
 21
78.280456
 31
0.0
  0
LINE
  5
685
330
67C
100
AcDbEntity
  8
CSLAYER2
  6
CONTINUOUS
 62
     3
100
AcDbLine
 10
40.997275
 20
74.595777
 30
0.0
 11
40.044648
 21
74.045777
 31
0.0
  0
LINE
  5
686
330
67C
100
AcDbEntity
  8
CSLAYER2
  6
CONTINUOUS
 62
     3
100
AcDbLine
 10
43.729326
 20
73.863727
 30
0.0
 11
44.279326
 21
72.911099
 31
0.0
  0
LINE
  5
687
330
67C
100
AcDbEntity
  8
CSLAYER2
  6
CONTINUOUS
 62
     3
100
AcDbLine
 10
44.461377
 20
76.595777
 30
0.0
 11
45.414005
 21
77.145777
 31
0.0
  0
ENDBLK
  5
67E
330
67C
100
AcDbEntity
  8
0
100
AcDbBlockEnd
  0
BLOCK
  5
689
330
688
100
AcDbEntity
  8
0
100
AcDbBlockBegin
  2
BLKF049
 70
     0
 71
     0
 10
0.0
 20
0.0
 30
0.0
  3
BLKF049
  1

  0
LINE
  5
68C
330
688
100
AcDbEntity
  8
CSLAYER2
  6
CONTINUOUS
 62
     3
100
AcDbLine
 10
57.729326
 20
75.595777
 30
0.0
 11
58.229326
 21
76.461803
 31
0.0
  0
LINE
  5
68D
330
688
100
AcDbEntity
  8
CSLAYER2
  6
CONTINUOUS
 62
     3
100
AcDbLine
 10
57.729326
 20
75.595777
 30
0.0
 11
56.863301
 21
76.095777
 31
0.0
  0
LINE
  5
68E
330
688
100
AcDbEntity
  8
CSLAYER2
  6
CONTINUOUS
 62
     3
100
AcDbLine
 10
57.729326
 20
75.595777
 30
0.0
 11
57.229326
 21
74.729752
 31
0.0
  0
LINE
  5
68F
330
688
100
AcDbEntity
  8
CSLAYER2
  6
CONTINUOUS
 62
     3
100
AcDbLine
 10
57.729326
 20
75.595777
 30
0.0
 11
58.595352
 21
75.095777
 31
0.0
  0
LINE
  5
690
330
688
100
AcDbEntity
  8
CSLAYER2
  6
CONTINUOUS
 62
     3
100
AcDbLine
 10
58.729326
 20
77.327828
 30
0.0
 11
59.279326
 21
78.280456
 31
0.0
  0
LINE
  5
691
330
688
100
AcDbEntity
  8
CSLAYER2
  6
CONTINUOUS
 62
     3
100
AcDbLine
 10
55.997275
 20
76.595777
 30
0.0
 11
55.044648
 21
77.145777
 31
0.0
  0
LINE
  5
692
330
688
100
AcDbEntity
  8
CSLAYER2
  6
CONTINUOUS
 62
     3
100
AcDbLine
 10
56.729326
 20
73.863727
 30
0.0
 11
56.179326
 21
72.911099
 31
0.0
  0
LINE
  5
693
330
688
100
AcDbEntity
  8
CSLAYER2
  6
CONTINUOUS
 62
     3
100
AcDbLine
 10
59.461377
 20
74.595777
 30
0.0
 11
60.414005
 21
74.045777
 31
0.0
  0
ENDBLK
  5
68A
330
688
100
AcDbEntity
  8
0
100
AcDbBlockEnd
  0
BLOCK
  5
695
330
694
100
AcDbEntity
  8
0
100
AcDbBlockBegin
  2
BLKF050
 70
     0
 71
     0
 10
0.0
 20
0.0
 30
0.0
  3
BLKF050
  1

  0
LINE
  5
698
330
694
100
AcDbEntity
  8
CSLAYER2
  6
CONTINUOUS
 62
     3
100
AcDbLine
 10
57.729326
 20
49.615015
 30
0.0
 11
57.229326
 21
50.481041
 31
0.0
  0
LINE
  5
699
330
694
100
AcDbEntity
  8
CSLAYER2
  6
CONTINUOUS
 62
     3
100
AcDbLine
 10
57.729326
 20
49.615015
 30
0.0
 11
56.863301
 21
49.115015
 31
0.0
  0
LINE
  5
69A
330
694
100
AcDbEntity
  8
CSLAYER2
  6
CONTINUOUS
 62
     3
100
AcDbLine
 10
57.729326
 20
49.615015
 30
0.0
 11
58.229326
 21
48.74899
 31
0.0
  0
LINE
  5
69B
330
694
100
AcDbEntity
  8
CSLAYER2
  6
CONTINUOUS
 62
     3
100
AcDbLine
 10
57.729326
 20
49.615015
 30
0.0
 11
58.595352
 21
50.115015
 31
0.0
  0
LINE
  5
69C
330
694
100
AcDbEntity
  8
CSLAYER2
  6
CONTINUOUS
 62
     3
100
AcDbLine
 10
56.729326
 20
51.347066
 30
0.0
 11
56.179326
 21
52.299694
 31
0.0
  0
LINE
  5
69D
330
694
100
AcDbEntity
  8
CSLAYER2
  6
CONTINUOUS
 62
     3
100
AcDbLine
 10
55.997275
 20
48.615015
 30
0.0
 11
55.044648
 21
48.065015
 31
0.0
  0
LINE
  5
69E
330
694
100
AcDbEntity
  8
CSLAYER2
  6
CONTINUOUS
 62
     3
100
AcDbLine
 10
58.729326
 20
47.882965
 30
0.0
 11
59.279326
 21
46.930337
 31
0.0
  0
LINE
  5
69F
330
694
100
AcDbEntity
  8
CSLAYER2
  6
CONTINUOUS
 62
     3
100
AcDbLine
 10
59.461377
 20
50.615015
 30
0.0
 11
60.414005
 21
51.165015
 31
0.0
  0
ENDBLK
  5
696
330
694
100
AcDbEntity
  8
0
100
AcDbBlockEnd
  0
BLOCK
  5
6A1
330
6A0
100
AcDbEntity
  8
0
100
AcDbBlockBegin
  2
BLKF051
 70
     0
 71
     0
 10
0.0
 20
0.0
 30
0.0
  3
BLKF051
  1

  0
LINE
  5
6A4
330
6A0
100
AcDbEntity
  8
CSLAYER2
  6
CONTINUOUS
 62
     3
100
AcDbLine
 10
42.729326
 20
49.615015
 30
0.0
 11
43.229326
 21
50.481041
 31
0.0
  0
LINE
  5
6A5
330
6A0
100
AcDbEntity
  8
CSLAYER2
  6
CONTINUOUS
 62
     3
100
AcDbLine
 10
42.729326
 20
49.615015
 30
0.0
 11
41.863301
 21
50.115015
 31
0.0
  0
LINE
  5
6A6
330
6A0
100
AcDbEntity
  8
CSLAYER2
  6
CONTINUOUS
 62
     3
100
AcDbLine
 10
42.729326
 20
49.615015
 30
0.0
 11
42.229326
 21
48.74899
 31
0.0
  0
LINE
  5
6A7
330
6A0
100
AcDbEntity
  8
CSLAYER2
  6
CONTINUOUS
 62
     3
100
AcDbLine
 10
42.729326
 20
49.615015
 30
0.0
 11
43.595352
 21
49.115015
 31
0.0
  0
LINE
  5
6A8
330
6A0
100
AcDbEntity
  8
CSLAYER2
  6
CONTINUOUS
 62
     3
100
AcDbLine
 10
43.729326
 20
51.347066
 30
0.0
 11
44.279326
 21
52.299694
 31
0.0
  0
LINE
  5
6A9
330
6A0
100
AcDbEntity
  8
CSLAYER2
  6
CONTINUOUS
 62
     3
100
AcDbLine
 10
40.997275
 20
50.615015
 30
0.0
 11
40.044648
 21
51.165015
 31
0.0
  0
LINE
  5
6AA
330
6A0
100
AcDbEntity
  8
CSLAYER2
  6
CONTINUOUS
 62
     3
100
AcDbLine
 10
41.729326
 20
47.882965
 30
0.0
 11
41.179326
 21
46.930337
 31
0.0
  0
LINE
  5
6AB
330
6A0
100
AcDbEntity
  8
CSLAYER2
  6
CONTINUOUS
 62
     3
100
AcDbLine
 10
44.461377
 20
48.615015
 30
0.0
 11
45.414005
 21
48.065015
 31
0.0
  0
ENDBLK
  5
6A2
330
6A0
100
AcDbEntity
  8
0
100
AcDbBlockEnd
  0
ENDSEC
  0
SECTION
  2
ENTITIES
  0
LINE
  5
6F
330
1F
100
AcDbEntity
  8
0
  6
CONTINUOUS
 62
     7
100
AcDbLine
 10
171.662156
 20
81.355397
 30
0.0
 11
171.362157
 21
81.055396
 31
0.0
  0
LINE
  5
70
330
1F
100
AcDbEntity
  8
0
  6
CONTINUOUS
 62
     7
100
AcDbLine
 10
181.062157
 20
81.355397
 30
0.0
 11
171.662156
 21
81.355397
 31
0.0
  0
LINE
  5
71
330
1F
100
AcDbEntity
  8
0
  6
CONTINUOUS
 62
     7
100
AcDbLine
 10
181.062157
 20
43.855396
 30
0.0
 11
181.362158
 21
44.155397
 31
0.0
  0
LINE
  5
72
330
1F
100
AcDbEntity
  8
0
  6
CONTINUOUS
 62
     7
100
AcDbLine
 10
171.662156
 20
43.855396
 30
0.0
 11
181.062157
 21
43.855396
 31
0.0
  0
LINE
  5
73
330
1F
100
AcDbEntity
  8
0
  6
CONTINUOUS
 62
     7
100
AcDbLine
 10
181.362158
 20
81.055396
 30
0.0
 11
181.062157
 21
81.355397
 31
0.0
  0
LINE
  5
74
330
1F
100
AcDbEntity
  8
0
  6
CONTINUOUS
 62
     7
100
AcDbLine
 10
171.362157
 20
44.155397
 30
0.0
 11
171.662156
 21
43.855396
 31
0.0
  0
LINE
  5
75
330
1F
100
AcDbEntity
  8
0
  6
CONTINUOUS
 62
     7
100
AcDbLine
 10
184.362157
 20
52.605397
 30
0.0
 11
207.262157
 21
52.605397
 31
0.0
  0
LINE
  5
76
330
1F
100
AcDbEntity
  8
0
  6
CONTINUOUS
 62
     7
100
AcDbLine
 10
207.262157
 20
72.605396
 30
0.0
 11
184.362157
 21
72.605396
 31
0.0
  0
LINE
  5
77
330
1F
100
AcDbEntity
  8
0
  6
CONTINUOUS
 62
     7
100
AcDbLine
 10
151.162157
 20
52.605397
 30
0.0
 11
168.362156
 21
52.605397
 31
0.0
  0
LINE
  5
78
330
1F
100
AcDbEntity
  8
0
  6
CONTINUOUS
 62
     7
100
AcDbLine
 10
168.362156
 20
72.605396
 30
0.0
 11
151.162157
 21
72.605396
 31
0.0
  0
LINE
  5
79
330
1F
100
AcDbEntity
  8
0
  6
CONTINUOUS
 62
     7
100
AcDbLine
 10
149.19529
 20
72.595397
 30
0.0
 11
147.162157
 21
71.855396
 31
0.0
  0
LINE
  5
7A
330
1F
100
AcDbEntity
  8
0
  6
CONTINUOUS
 62
     7
100
AcDbLine
 10
147.162157
 20
53.355396
 30
0.0
 11
149.19529
 21
52.615396
 31
0.0
  0
LINE
  5
7B
330
1F
100
AcDbEntity
  8
0
  6
CONTINUOUS
 62
     7
100
AcDbLine
 10
149.19529
 20
52.615396
 30
0.0
 11
151.162157
 21
52.615396
 31
0.0
  0
LINE
  5
7C
330
1F
100
AcDbEntity
  8
0
  6
CONTINUOUS
 62
     7
100
AcDbLine
 10
151.162157
 20
72.595397
 30
0.0
 11
149.19529
 21
72.595397
 31
0.0
  0
LINE
  5
7D
330
1F
100
AcDbEntity
  8
0
  6
CONTINUOUS
 62
     7
100
AcDbLine
 10
222.462158
 20
52.615396
 30
0.0
 11
222.562159
 21
52.715396
 31
0.0
  0
LINE
  5
7E
330
1F
100
AcDbEntity
  8
0
  6
CONTINUOUS
 62
     7
100
AcDbLine
 10
222.562159
 20
72.495397
 30
0.0
 11
222.462158
 21
72.595397
 31
0.0
  0
LINE
  5
7F
330
1F
100
AcDbEntity
  8
0
  6
CONTINUOUS
 62
     7
100
AcDbLine
 10
207.262157
 20
52.615396
 30
0.0
 11
222.462158
 21
52.615396
 31
0.0
  0
LINE
  5
80
330
1F
100
AcDbEntity
  8
0
  6
CONTINUOUS
 62
     7
100
AcDbLine
 10
222.462158
 20
72.595397
 30
0.0
 11
207.262157
 21
72.595397
 31
0.0
  0
LINE
  5
81
330
1F
100
AcDbEntity
  8
0
  6
CONTINUOUS
 62
     7
100
AcDbLine
 10
168.362156
 20
52.805396
 30
0.0
 11
171.362157
 21
52.805396
 31
0.0
  0
LINE
  5
82
330
1F
100
AcDbEntity
  8
0
  6
CONTINUOUS
 62
     7
100
AcDbLine
 10
171.362157
 20
72.405396
 30
0.0
 11
168.362156
 21
72.405396
 31
0.0
  0
LINE
  5
83
330
1F
100
AcDbEntity
  8
0
  6
CONTINUOUS
 62
     7
100
AcDbLine
 10
181.362158
 20
52.805396
 30
0.0
 11
184.362157
 21
52.805396
 31
0.0
  0
LINE
  5
84
330
1F
100
AcDbEntity
  8
0
  6
CONTINUOUS
 62
     7
100
AcDbLine
 10
184.362157
 20
72.405396
 30
0.0
 11
181.362158
 21
72.405396
 31
0.0
  0
LINE
  5
85
330
1F
100
AcDbEntity
  8
0
  6
CONTINUOUS
 62
     7
100
AcDbLine
 10
142.062157
 20
57.905396
 30
0.0
 11
142.162157
 21
58.005396
 31
0.0
  0
LINE
  5
86
330
1F
100
AcDbEntity
  8
0
  6
CONTINUOUS
 62
     7
100
AcDbLine
 10
142.162157
 20
67.205396
 30
0.0
 11
142.062157
 21
67.305396
 31
0.0
  0
LINE
  5
87
330
1F
100
AcDbEntity
  8
0
  6
CONTINUOUS
 62
     7
100
AcDbLine
 10
142.062157
 20
67.305396
 30
0.0
 11
141.690655
 21
67.305396
 31
0.0
  0
LINE
  5
88
330
1F
100
AcDbEntity
  8
0
  6
CONTINUOUS
 62
     7
100
AcDbLine
 10
141.690655
 20
57.905396
 30
0.0
 11
142.062157
 21
57.905396
 31
0.0
  0
LINE
  5
89
330
1F
100
AcDbEntity
  8
0
  6
CONTINUOUS
 62
     7
100
AcDbLine
 10
144.662157
 20
58.005396
 30
0.0
 11
144.762157
 21
58.005396
 31
0.0
  0
LINE
  5
8A
330
1F
100
AcDbEntity
  8
0
  6
CONTINUOUS
 62
     7
100
AcDbLine
 10
142.162157
 20
58.005396
 30
0.0
 11
142.262157
 21
58.005396
 31
0.0
  0
LINE
  5
8B
330
1F
100
AcDbEntity
  8
0
  6
CONTINUOUS
 62
     7
100
AcDbLine
 10
142.262157
 20
67.205396
 30
0.0
 11
142.162157
 21
67.205396
 31
0.0
  0
LINE
  5
8C
330
1F
100
AcDbEntity
  8
0
  6
CONTINUOUS
 62
     7
100
AcDbLine
 10
144.762157
 20
67.205396
 30
0.0
 11
144.662157
 21
67.205396
 31
0.0
  0
ARC
  5
8D
330
1F
100
AcDbEntity
  8
0
  6
CONTINUOUS
 62
     7
100
AcDbCircle
 10
120.390654
 20
63.905396
 30
0.0
 40
0.2000000000000171
100
AcDbArc
 50
90.0
 51
180.0
  0
ARC
  5
8E
330
1F
100
AcDbEntity
  8
0
  6
CONTINUOUS
 62
     7
100
AcDbCircle
 10
120.390654
 20
61.305396
 30
0.0
 40
0.2000000000000171
100
AcDbArc
 50
180.0
 51
270.0
  0
LINE
  5
8F
330
1F
100
AcDbEntity
  8
0
  6
CONTINUOUS
 62
     7
100
AcDbLine
 10
120.390654
 20
61.105396
 30
0.0
 11
130.190654
 21
61.105396
 31
0.0
  0
LINE
  5
90
330
1F
100
AcDbEntity
  8
0
  6
CONTINUOUS
 62
     7
100
AcDbLine
 10
130.190654
 20
64.105396
 30
0.0
 11
120.390654
 21
64.105396
 31
0.0
  0
ARC
  5
91
330
1F
100
AcDbEntity
  8
0
  6
CONTINUOUS
 62
     7
100
AcDbCircle
 10
140.890654
 20
67.705396
 30
0.0
 40
0.8000000000000114
100
AcDbArc
 50
0.0
 51
90.0
  0
ARC
  5
92
330
1F
100
AcDbEntity
  8
0
  6
CONTINUOUS
 62
     7
100
AcDbCircle
 10
140.890654
 20
57.505396
 30
0.0
 40
0.8000000000000114
100
AcDbArc
 50
270.0
 51
360.0
  0
ARC
  5
93
330
1F
100
AcDbEntity
  8
0
  6
CONTINUOUS
 62
     7
100
AcDbCircle
 10
133.7495
 20
67.505396
 30
0.0
 40
1.000000000000014
100
AcDbArc
 50
90.0
 51
120.0
  0
ARC
  5
94
330
1F
100
AcDbEntity
  8
0
  6
CONTINUOUS
 62
     7
100
AcDbCircle
 10
133.7495
 20
57.705396
 30
0.0
 40
1.000000000000008
100
AcDbArc
 50
240.0
 51
270.0
  0
LINE
  5
95
330
1F
100
AcDbEntity
  8
0
  6
CONTINUOUS
 62
     7
100
AcDbLine
 10
134.041057
 20
56.705396
 30
0.0
 11
134.190654
 21
56.855396
 31
0.0
  0
LINE
  5
96
330
1F
100
AcDbEntity
  8
0
  6
CONTINUOUS
 62
     7
100
AcDbLine
 10
134.190654
 20
68.355397
 30
0.0
 11
134.041057
 21
68.505397
 31
0.0
  0
LINE
  5
97
330
1F
100
AcDbEntity
  8
0
  6
CONTINUOUS
 62
     7
100
AcDbLine
 10
137.341057
 20
56.705396
 30
0.0
 11
140.890654
 21
56.705396
 31
0.0
  0
LINE
  5
98
330
1F
100
AcDbEntity
  8
0
  6
CONTINUOUS
 62
     7
100
AcDbLine
 10
140.890654
 20
68.505397
 30
0.0
 11
137.341057
 21
68.505397
 31
0.0
  0
LINE
  5
99
330
1F
100
AcDbEntity
  8
0
  6
CONTINUOUS
 62
     7
100
AcDbLine
 10
133.7495
 20
56.705396
 30
0.0
 11
134.041057
 21
56.705396
 31
0.0
  0
LINE
  5
9A
330
1F
100
AcDbEntity
  8
0
  6
CONTINUOUS
 62
     7
100
AcDbLine
 10
134.041057
 20
68.505397
 30
0.0
 11
133.7495
 21
68.505397
 31
0.0
  0
LINE
  5
9B
330
1F
100
AcDbEntity
  8
0
  6
CONTINUOUS
 62
     7
100
AcDbLine
 10
137.341057
 20
68.505397
 30
0.0
 11
137.190655
 21
68.355397
 31
0.0
  0
LINE
  5
9C
330
1F
100
AcDbEntity
  8
0
  6
CONTINUOUS
 62
     7
100
AcDbLine
 10
137.190655
 20
56.855396
 30
0.0
 11
137.341057
 21
56.705396
 31
0.0
  0
LINE
  5
9D
330
1F
100
AcDbEntity
  8
0
  6
CONTINUOUS
 62
     7
100
AcDbLine
 10
133.2495
 20
68.371422
 30
0.0
 11
130.690654
 21
66.894072
 31
0.0
  0
LINE
  5
9E
330
1F
100
AcDbEntity
  8
0
  6
CONTINUOUS
 62
     7
100
AcDbLine
 10
130.690654
 20
58.316721
 30
0.0
 11
133.2495
 21
56.839371
 31
0.0
  0
ARC
  5
9F
330
1F
100
AcDbEntity
  8
0
  6
CONTINUOUS
 62
     7
100
AcDbCircle
 10
131.190654
 20
59.182747
 30
0.0
 40
1.0
100
AcDbArc
 50
180.0
 51
240.0
  0
ARC
  5
A0
330
1F
100
AcDbEntity
  8
0
  6
CONTINUOUS
 62
     7
100
AcDbCircle
 10
131.190654
 20
66.028046
 30
0.0
 40
1.000000000000008
100
AcDbArc
 50
120.0
 51
180.0
  0
ARC
  5
A1
330
1F
100
AcDbEntity
  8
0
  6
CONTINUOUS
 62
     7
100
AcDbCircle
 10
225.362157
 20
71.105396
 30
0.0
 40
0.5
100
AcDbArc
 50
0.0
 51
180.0
  0
ARC
  5
A2
330
1F
100
AcDbEntity
  8
0
  6
CONTINUOUS
 62
     7
100
AcDbCircle
 10
225.362157
 20
54.105396
 30
0.0
 40
0.5
100
AcDbArc
 50
180.0
 51
360.0
  0
LINE
  5
A3
330
1F
100
AcDbEntity
  8
0
  6
CONTINUOUS
 62
     7
100
AcDbLine
 10
225.862156
 20
54.105396
 30
0.0
 11
225.862156
 21
71.105397
 31
0.0
  0
LINE
  5
A4
330
1F
100
AcDbEntity
  8
0
  6
CONTINUOUS
 62
     7
100
AcDbLine
 10
222.662153
 20
72.055396
 30
0.0
 11
222.562159
 21
71.955396
 31
0.0
  0
LINE
  5
A5
330
1F
100
AcDbEntity
  8
0
  6
CONTINUOUS
 62
     7
100
AcDbLine
 10
222.562159
 20
53.255396
 30
0.0
 11
222.662153
 21
53.155397
 31
0.0
  0
LINE
  5
A6
330
1F
100
AcDbEntity
  8
0
  6
CONTINUOUS
 62
     7
100
AcDbLine
 10
224.762159
 20
53.155397
 30
0.0
 11
224.862153
 21
53.255396
 31
0.0
  0
LINE
  5
A7
330
1F
100
AcDbEntity
  8
0
  6
CONTINUOUS
 62
     7
100
AcDbLine
 10
224.862153
 20
71.955396
 30
0.0
 11
224.762159
 21
72.055396
 31
0.0
  0
LINE
  5
A8
330
1F
100
AcDbEntity
  8
0
  6
CONTINUOUS
 62
     7
100
AcDbLine
 10
224.546115
 20
53.155397
 30
0.0
 11
224.762159
 21
53.155397
 31
0.0
  0
LINE
  5
A9
330
1F
100
AcDbEntity
  8
0
  6
CONTINUOUS
 62
     7
100
AcDbLine
 10
222.662153
 20
53.155397
 30
0.0
 11
222.878287
 21
53.155397
 31
0.0
  0
LINE
  5
AA
330
1F
100
AcDbEntity
  8
0
  6
CONTINUOUS
 62
     7
100
AcDbLine
 10
222.87822
 20
72.055396
 30
0.0
 11
222.662153
 21
72.055396
 31
0.0
  0
LINE
  5
AB
330
1F
100
AcDbEntity
  8
0
  6
CONTINUOUS
 62
     7
100
AcDbLine
 10
224.762159
 20
72.055396
 30
0.0
 11
224.54607
 21
72.055396
 31
0.0
  0
LINE
  5
AC
330
1F
100
AcDbEntity
  8
0
  6
CONTINUOUS
 62
     7
100
AcDbLine
 10
228.662158
 20
54.155397
 30
0.0
 11
228.962156
 21
54.455396
 31
0.0
  0
LINE
  5
AD
330
1F
100
AcDbEntity
  8
0
  6
CONTINUOUS
 62
     7
100
AcDbLine
 10
228.962156
 20
70.755397
 30
0.0
 11
228.662158
 21
71.055396
 31
0.0
  0
LINE
  5
AE
330
1F
100
AcDbEntity
  8
0
  6
CONTINUOUS
 62
     7
100
AcDbLine
 10
226.162161
 20
54.155397
 30
0.0
 11
228.662158
 21
54.155397
 31
0.0
  0
LINE
  5
AF
330
1F
100
AcDbEntity
  8
0
  6
CONTINUOUS
 62
     7
100
AcDbLine
 10
228.662158
 20
71.055396
 30
0.0
 11
226.162161
 21
71.055396
 31
0.0
  0
LINE
  5
B0
330
1F
100
AcDbEntity
  8
0
  6
CONTINUOUS
 62
     7
100
AcDbLine
 10
232.762161
 20
54.455396
 30
0.0
 11
232.962156
 21
54.655396
 31
0.0
  0
LINE
  5
B1
330
1F
100
AcDbEntity
  8
0
  6
CONTINUOUS
 62
     7
100
AcDbLine
 10
232.962156
 20
70.555397
 30
0.0
 11
232.762161
 21
70.755397
 31
0.0
  0
LINE
  5
B2
330
1F
100
AcDbEntity
  8
0
  6
CONTINUOUS
 62
     7
100
AcDbLine
 10
228.962156
 20
54.455396
 30
0.0
 11
232.762161
 21
54.455396
 31
0.0
  0
LINE
  5
B3
330
1F
100
AcDbEntity
  8
0
  6
CONTINUOUS
 62
     7
100
AcDbLine
 10
232.762161
 20
70.755397
 30
0.0
 11
228.962156
 21
70.755397
 31
0.0
  0
LINE
  5
B4
330
1F
100
AcDbEntity
  8
0
  6
CONTINUOUS
 62
     7
100
AcDbLine
 10
225.862156
 20
54.605396
 30
0.0
 11
226.162161
 21
54.605396
 31
0.0
  0
LINE
  5
B5
330
1F
100
AcDbEntity
  8
0
  6
CONTINUOUS
 62
     7
100
AcDbLine
 10
226.162161
 20
70.605397
 30
0.0
 11
225.862156
 21
70.605397
 31
0.0
  0
LINE
  5
B6
330
1F
100
AcDbEntity
  8
0
  6
CONTINUOUS
 62
     7
100
AcDbLine
 10
146.680398
 20
53.155397
 30
0.0
 11
146.862157
 21
53.155397
 31
0.0
  0
LINE
  5
B7
330
1F
100
AcDbEntity
  8
0
  6
CONTINUOUS
 62
     7
100
AcDbLine
 10
144.962157
 20
53.155397
 30
0.0
 11
145.048254
 21
53.155397
 31
0.0
  0
LINE
  5
B8
330
1F
100
AcDbEntity
  8
0
  6
CONTINUOUS
 62
     7
100
AcDbLine
 10
145.045508
 20
72.055396
 30
0.0
 11
144.962157
 21
72.055396
 31
0.0
  0
LINE
  5
B9
330
1F
100
AcDbEntity
  8
0
  6
CONTINUOUS
 62
     7
100
AcDbLine
 10
146.862157
 20
72.055396
 30
0.0
 11
146.684352
 21
72.055396
 31
0.0
  0
LINE
  5
BA
330
1F
100
AcDbEntity
  8
0
  6
CONTINUOUS
 62
     7
100
AcDbLine
 10
144.962157
 20
72.055396
 30
0.0
 11
144.762157
 21
71.855396
 31
0.0
  0
LINE
  5
BB
330
1F
100
AcDbEntity
  8
0
  6
CONTINUOUS
 62
     7
100
AcDbLine
 10
144.762157
 20
53.355396
 30
0.0
 11
144.962157
 21
53.155397
 31
0.0
  0
LINE
  5
BC
330
1F
100
AcDbEntity
  8
0
  6
CONTINUOUS
 62
     7
100
AcDbLine
 10
146.862157
 20
53.155397
 30
0.0
 11
146.962157
 21
53.255396
 31
0.0
  0
LINE
  5
BD
330
1F
100
AcDbEntity
  8
0
  6
CONTINUOUS
 62
     7
100
AcDbLine
 10
146.962157
 20
71.955396
 30
0.0
 11
146.862157
 21
72.055396
 31
0.0
  0
LINE
  5
BE
330
1F
100
AcDbEntity
  8
0
  6
CONTINUOUS
 62
     7
100
AcDbLine
 10
146.680398
 20
53.155397
 30
0.0
 11
146.862157
 21
53.155397
 31
0.0
  0
LINE
  5
BF
330
1F
100
AcDbEntity
  8
0
  6
CONTINUOUS
 62
     7
100
AcDbLine
 10
144.962157
 20
53.155397
 30
0.0
 11
145.048254
 21
53.155397
 31
0.0
  0
LINE
  5
C0
330
1F
100
AcDbEntity
  8
0
  6
CONTINUOUS
 62
     7
100
AcDbLine
 10
145.045508
 20
72.055396
 30
0.0
 11
144.962157
 21
72.055396
 31
0.0
  0
LINE
  5
C1
330
1F
100
AcDbEntity
  8
0
  6
CONTINUOUS
 62
     7
100
AcDbLine
 10
146.862157
 20
72.055396
 30
0.0
 11
146.684352
 21
72.055396
 31
0.0
  0
LINE
  5
C2
330
1F
100
AcDbEntity
  8
0
  6
CONTINUOUS
 62
     7
100
AcDbLine
 10
146.862157
 20
53.155397
 30
0.0
 11
146.962157
 21
53.255396
 31
0.0
  0
LINE
  5
C3
330
1F
100
AcDbEntity
  8
0
  6
CONTINUOUS
 62
     7
100
AcDbLine
 10
146.962157
 20
71.955396
 30
0.0
 11
146.862157
 21
72.055396
 31
0.0
  0
LINE
  5
C4
330
1F
100
AcDbEntity
  8
0
  6
CONTINUOUS
 62
     7
100
AcDbLine
 10
144.962157
 20
72.055396
 30
0.0
 11
144.762157
 21
71.855396
 31
0.0
  0
LINE
  5
C5
330
1F
100
AcDbEntity
  8
0
  6
CONTINUOUS
 62
     7
100
AcDbLine
 10
144.762157
 20
53.355396
 30
0.0
 11
144.962157
 21
53.155397
 31
0.0
  0
LINE
  5
C6
330
1F
100
AcDbEntity
  8
0
  6
CONTINUOUS
 62
     7
100
AcDbLine
 10
146.962157
 20
55.105397
 30
0.0
 11
147.162157
 21
55.105397
 31
0.0
  0
LINE
  5
C7
330
1F
100
AcDbEntity
  8
0
  6
CONTINUOUS
 62
     7
100
AcDbLine
 10
147.162157
 20
70.105396
 30
0.0
 11
146.962157
 21
70.105396
 31
0.0
  0
LINE
  5
C8
330
1F
100
AcDbEntity
  8
0
  6
CONTINUOUS
 62
     7
100
AcDbLine
 10
171.362157
 20
47.867944
 30
0.0
 11
171.362157
 21
77.342849
 31
0.0
  0
INSERT
  5
CC
330
1F
100
AcDbEntity
  8
0
100
AcDbBlockReference
  2
BLKF011
 10
0.0
 20
0.0
 30
0.0
  0
INSERT
  5
D4
330
1F
100
AcDbEntity
  8
0
100
AcDbBlockReference
  2
BLKF012
 10
0.0
 20
0.0
 30
0.0
  0
LINE
  5
D9
330
1F
100
AcDbEntity
  8
0
  6
CONTINUOUS
 62
     7
100
AcDbLine
 10
181.062157
 20
77.491716
 30
0.0
 11
171.662156
 21
77.491716
 31
0.0
  0
LINE
  5
DA
330
1F
100
AcDbEntity
  8
0
  6
CONTINUOUS
 62
     7
100
AcDbLine
 10
181.062157
 20
47.719077
 30
0.0
 11
171.662156
 21
47.719077
 31
0.0
  0
LINE
  5
DB
330
1F
100
AcDbEntity
  8
0
  6
CONTINUOUS
 62
     7
100
AcDbLine
 10
171.362157
 20
77.342849
 30
0.0
 11
171.362157
 21
81.055396
 31
0.0
  0
INSERT
  5
DF
330
1F
100
AcDbEntity
  8
0
100
AcDbBlockReference
  2
BLKF013
 10
0.0
 20
0.0
 30
0.0
  0
LINE
  5
E4
330
1F
100
AcDbEntity
  8
0
  6
CONTINUOUS
 62
     7
100
AcDbLine
 10
181.362158
 20
47.867944
 30
0.0
 11
181.362158
 21
44.155397
 31
0.0
  0
INSERT
  5
E8
330
1F
100
AcDbEntity
  8
0
100
AcDbBlockReference
  2
BLKF014
 10
0.0
 20
0.0
 30
0.0
  0
LINE
  5
ED
330
1F
100
AcDbEntity
  8
0
  6
CONTINUOUS
 62
     7
100
AcDbLine
 10
181.362158
 20
81.055396
 30
0.0
 11
181.362158
 21
77.342849
 31
0.0
  0
LINE
  5
EE
330
1F
100
AcDbEntity
  8
0
  6
CONTINUOUS
 62
     7
100
AcDbLine
 10
171.362157
 20
44.155397
 30
0.0
 11
171.362157
 21
47.867944
 31
0.0
  0
LINE
  5
EF
330
1F
100
AcDbEntity
  8
0
  6
CONTINUOUS
 62
     7
100
AcDbLine
 10
181.362158
 20
77.342849
 30
0.0
 11
181.362158
 21
47.867944
 31
0.0
  0
LINE
  5
F0
330
1F
100
AcDbEntity
  8
0
  6
CONTINUOUS
 62
     7
100
AcDbLine
 10
184.362157
 20
62.605396
 30
0.0
 11
184.362157
 21
72.605396
 31
0.0
  0
LINE
  5
F1
330
1F
100
AcDbEntity
  8
0
  6
CONTINUOUS
 62
     7
100
AcDbLine
 10
184.362157
 20
52.605397
 30
0.0
 11
184.362157
 21
62.605396
 31
0.0
  0
LINE
  5
F2
330
1F
100
AcDbEntity
  8
0
  6
CONTINUOUS
 62
     7
100
AcDbLine
 10
207.262157
 20
62.605396
 30
0.0
 11
207.262157
 21
72.605396
 31
0.0
  0
LINE
  5
F3
330
1F
100
AcDbEntity
  8
0
  6
CONTINUOUS
 62
     7
100
AcDbLine
 10
207.262157
 20
52.605397
 30
0.0
 11
207.262157
 21
62.605396
 31
0.0
  0
LINE
  5
F4
330
1F
100
AcDbEntity
  8
0
  6
CONTINUOUS
 62
     7
100
AcDbLine
 10
168.362156
 20
62.605396
 30
0.0
 11
168.362156
 21
72.605396
 31
0.0
  0
LINE
  5
F5
330
1F
100
AcDbEntity
  8
0
  6
CONTINUOUS
 62
     7
100
AcDbLine
 10
168.362156
 20
52.605397
 30
0.0
 11
168.362156
 21
62.605396
 31
0.0
  0
LINE
  5
F6
330
1F
100
AcDbEntity
  8
0
  6
CONTINUOUS
 62
     7
100
AcDbLine
 10
151.162157
 20
62.605396
 30
0.0
 11
151.162157
 21
72.605396
 31
0.0
  0
LINE
  5
F7
330
1F
100
AcDbEntity
  8
0
  6
CONTINUOUS
 62
     7
100
AcDbLine
 10
151.162157
 20
52.605397
 30
0.0
 11
151.162157
 21
62.605396
 31
0.0
  0
LINE
  5
F8
330
1F
100
AcDbEntity
  8
0
  6
CONTINUOUS
 62
     7
100
AcDbLine
 10
149.19529
 20
62.605396
 30
0.0
 11
149.19529
 21
72.595397
 31
0.0
  0
LINE
  5
F9
330
1F
100
AcDbEntity
  8
0
  6
CONTINUOUS
 62
     7
100
AcDbLine
 10
149.19529
 20
52.615396
 30
0.0
 11
149.19529
 21
62.605396
 31
0.0
  0
LINE
  5
FA
330
1F
100
AcDbEntity
  8
0
  6
CONTINUOUS
 62
     7
100
AcDbLine
 10
147.162157
 20
62.605396
 30
0.0
 11
147.162157
 21
71.855396
 31
0.0
  0
LINE
  5
FB
330
1F
100
AcDbEntity
  8
0
  6
CONTINUOUS
 62
     7
100
AcDbLine
 10
147.162157
 20
53.355396
 30
0.0
 11
147.162157
 21
62.605396
 31
0.0
  0
LINE
  5
FC
330
1F
100
AcDbEntity
  8
0
  6
CONTINUOUS
 62
     7
100
AcDbLine
 10
222.562159
 20
62.605396
 30
0.0
 11
222.562159
 21
52.715396
 31
0.0
  0
LINE
  5
FD
330
1F
100
AcDbEntity
  8
0
  6
CONTINUOUS
 62
     7
100
AcDbLine
 10
222.562159
 20
72.495397
 30
0.0
 11
222.562159
 21
62.605396
 31
0.0
  0
LINE
  5
FE
330
1F
100
AcDbEntity
  8
0
  6
CONTINUOUS
 62
     7
100
AcDbLine
 10
142.162157
 20
58.005396
 30
0.0
 11
142.162157
 21
67.205396
 31
0.0
  0
LINE
  5
FF
330
1F
100
AcDbEntity
  8
0
  6
CONTINUOUS
 62
     7
100
AcDbLine
 10
144.662157
 20
58.605396
 30
0.0
 11
142.262157
 21
58.605396
 31
0.0
  0
LINE
  5
100
330
1F
100
AcDbEntity
  8
0
  6
CONTINUOUS
 62
     7
100
AcDbLine
 10
142.262157
 20
58.605396
 30
0.0
 11
142.262157
 21
58.005396
 31
0.0
  0
LINE
  5
101
330
1F
100
AcDbEntity
  8
0
  6
CONTINUOUS
 62
     7
100
AcDbLine
 10
144.662157
 20
58.605396
 30
0.0
 11
144.662157
 21
58.005396
 31
0.0
  0
LINE
  5
102
330
1F
100
AcDbEntity
  8
0
  6
CONTINUOUS
 62
     7
100
AcDbLine
 10
142.262157
 20
67.205396
 30
0.0
 11
142.262157
 21
66.605397
 31
0.0
  0
LINE
  5
103
330
1F
100
AcDbEntity
  8
0
  6
CONTINUOUS
 62
     7
100
AcDbLine
 10
144.662157
 20
66.605397
 30
0.0
 11
142.262157
 21
66.605397
 31
0.0
  0
LINE
  5
104
330
1F
100
AcDbEntity
  8
0
  6
CONTINUOUS
 62
     7
100
AcDbLine
 10
144.662157
 20
67.205396
 30
0.0
 11
144.662157
 21
66.605397
 31
0.0
  0
LINE
  5
105
330
1F
100
AcDbEntity
  8
0
  6
CONTINUOUS
 62
     7
100
AcDbLine
 10
120.190655
 20
61.305396
 30
0.0
 11
120.190655
 21
63.905396
 31
0.0
  0
LINE
  5
106
330
1F
100
AcDbEntity
  8
0
  6
CONTINUOUS
 62
     7
100
AcDbLine
 10
141.690655
 20
67.705397
 30
0.0
 11
141.690655
 21
57.505396
 31
0.0
  0
LINE
  5
107
330
1F
100
AcDbEntity
  8
0
  6
CONTINUOUS
 62
     7
100
AcDbLine
 10
134.190654
 20
64.282449
 30
0.0
 11
134.190654
 21
68.105396
 31
0.0
  0
LINE
  5
108
330
1F
100
AcDbEntity
  8
0
  6
CONTINUOUS
 62
     7
100
AcDbLine
 10
134.190654
 20
60.928344
 30
0.0
 11
134.190654
 21
64.282449
 31
0.0
  0
LINE
  5
109
330
1F
100
AcDbEntity
  8
0
  6
CONTINUOUS
 62
     7
100
AcDbLine
 10
134.190654
 20
57.105396
 30
0.0
 11
134.190654
 21
60.928344
 31
0.0
  0
LINE
  5
10A
330
1F
100
AcDbEntity
  8
0
  6
CONTINUOUS
 62
     7
100
AcDbLine
 10
134.190654
 20
56.855396
 30
0.0
 11
134.190654
 21
57.105396
 31
0.0
  0
LINE
  5
10B
330
1F
100
AcDbEntity
  8
0
  6
CONTINUOUS
 62
     7
100
AcDbLine
 10
134.190654
 20
68.105396
 30
0.0
 11
134.190654
 21
68.355397
 31
0.0
  0
LINE
  5
10C
330
1F
100
AcDbEntity
  8
0
  6
CONTINUOUS
 62
     7
100
AcDbLine
 10
137.190655
 20
56.855396
 30
0.0
 11
137.190655
 21
57.105396
 31
0.0
  0
LINE
  5
10D
330
1F
100
AcDbEntity
  8
0
  6
CONTINUOUS
 62
     7
100
AcDbLine
 10
137.190655
 20
57.105396
 30
0.0
 11
137.190655
 21
60.928344
 31
0.0
  0
LINE
  5
10E
330
1F
100
AcDbEntity
  8
0
  6
CONTINUOUS
 62
     7
100
AcDbLine
 10
137.190655
 20
60.928344
 30
0.0
 11
137.190655
 21
64.282449
 31
0.0
  0
LINE
  5
10F
330
1F
100
AcDbEntity
  8
0
  6
CONTINUOUS
 62
     7
100
AcDbLine
 10
137.190655
 20
64.282449
 30
0.0
 11
137.190655
 21
68.105396
 31
0.0
  0
LINE
  5
110
330
1F
100
AcDbEntity
  8
0
  6
CONTINUOUS
 62
     7
100
AcDbLine
 10
137.190655
 20
68.105396
 30
0.0
 11
137.190655
 21
68.355397
 31
0.0
  0
LINE
  5
111
330
1F
100
AcDbEntity
  8
0
  6
CONTINUOUS
 62
     7
100
AcDbLine
 10
137.041057
 20
64.740812
 30
0.0
 11
137.041057
 21
68.105396
 31
0.0
  0
LINE
  5
112
330
1F
100
AcDbEntity
  8
0
  6
CONTINUOUS
 62
     7
100
AcDbLine
 10
137.041057
 20
68.105396
 30
0.0
 11
137.190655
 21
68.105396
 31
0.0
  0
LINE
  5
113
330
1F
100
AcDbEntity
  8
0
  6
CONTINUOUS
 62
     7
100
AcDbLine
 10
137.190655
 20
64.282449
 30
0.0
 11
137.041057
 21
64.740812
 31
0.0
  0
LINE
  5
114
330
1F
100
AcDbEntity
  8
0
  6
CONTINUOUS
 62
     7
100
AcDbLine
 10
134.190654
 20
68.105396
 30
0.0
 11
134.341057
 21
68.105396
 31
0.0
  0
LINE
  5
115
330
1F
100
AcDbEntity
  8
0
  6
CONTINUOUS
 62
     7
100
AcDbLine
 10
134.341057
 20
64.740812
 30
0.0
 11
134.341057
 21
68.105396
 31
0.0
  0
LINE
  5
116
330
1F
100
AcDbEntity
  8
0
  6
CONTINUOUS
 62
     7
100
AcDbLine
 10
134.341057
 20
64.740812
 30
0.0
 11
134.190654
 21
64.282449
 31
0.0
  0
LINE
  5
117
330
1F
100
AcDbEntity
  8
0
  6
CONTINUOUS
 62
     7
100
AcDbLine
 10
134.341057
 20
57.105396
 30
0.0
 11
134.341057
 21
60.469981
 31
0.0
  0
LINE
  5
118
330
1F
100
AcDbEntity
  8
0
  6
CONTINUOUS
 62
     7
100
AcDbLine
 10
134.341057
 20
57.105396
 30
0.0
 11
134.190654
 21
57.105396
 31
0.0
  0
LINE
  5
119
330
1F
100
AcDbEntity
  8
0
  6
CONTINUOUS
 62
     7
100
AcDbLine
 10
134.190654
 20
60.928344
 30
0.0
 11
134.341057
 21
60.469981
 31
0.0
  0
LINE
  5
11A
330
1F
100
AcDbEntity
  8
0
  6
CONTINUOUS
 62
     7
100
AcDbLine
 10
137.041057
 20
60.469981
 30
0.0
 11
137.190655
 21
60.928344
 31
0.0
  0
LINE
  5
11B
330
1F
100
AcDbEntity
  8
0
  6
CONTINUOUS
 62
     7
100
AcDbLine
 10
134.341057
 20
60.469981
 30
0.0
 11
137.041057
 21
60.469981
 31
0.0
  0
LINE
  5
11C
330
1F
100
AcDbEntity
  8
0
  6
CONTINUOUS
 62
     7
100
AcDbLine
 10
137.041057
 20
64.740812
 30
0.0
 11
134.341057
 21
64.740812
 31
0.0
  0
LINE
  5
11D
330
1F
100
AcDbEntity
  8
0
  6
CONTINUOUS
 62
     7
100
AcDbLine
 10
137.190655
 20
57.105396
 30
0.0
 11
137.041057
 21
57.105396
 31
0.0
  0
LINE
  5
11E
330
1F
100
AcDbEntity
  8
0
  6
CONTINUOUS
 62
     7
100
AcDbLine
 10
137.041057
 20
57.105396
 30
0.0
 11
137.041057
 21
60.469981
 31
0.0
  0
LINE
  5
11F
330
1F
100
AcDbEntity
  8
0
  6
CONTINUOUS
 62
     7
100
AcDbLine
 10
134.341057
 20
68.105396
 30
0.0
 11
137.041057
 21
68.105396
 31
0.0
  0
LINE
  5
120
330
1F
100
AcDbEntity
  8
0
  6
CONTINUOUS
 62
     7
100
AcDbLine
 10
137.041057
 20
57.105396
 30
0.0
 11
134.341057
 21
57.105396
 31
0.0
  0
LINE
  5
121
330
1F
100
AcDbEntity
  8
0
  6
CONTINUOUS
 62
     7
100
AcDbLine
 10
130.190654
 20
62.605396
 30
0.0
 11
130.190654
 21
66.028046
 31
0.0
  0
LINE
  5
122
330
1F
100
AcDbEntity
  8
0
  6
CONTINUOUS
 62
     7
100
AcDbLine
 10
130.190654
 20
59.182747
 30
0.0
 11
130.190654
 21
62.605396
 31
0.0
  0
LINE
  5
123
330
1F
100
AcDbEntity
  8
0
  6
CONTINUOUS
 62
     7
100
AcDbLine
 10
224.862153
 20
71.955396
 30
0.0
 11
224.862153
 21
53.255396
 31
0.0
  0
INSERT
  5
127
330
1F
100
AcDbEntity
  8
0
100
AcDbBlockReference
  2
BLKF015
 10
0.0
 20
0.0
 30
0.0
  0
LINE
  5
156
330
1F
100
AcDbEntity
  8
0
  6
CONTINUOUS
 62
     7
100
AcDbLine
 10
223.627667
 20
72.018529
 30
0.0
 11
223.712618
 21
72.017796
 31
0.0
  0
INSERT
  5
15A
330
1F
100
AcDbEntity
  8
0
100
AcDbBlockReference
  2
BLKF016
 10
0.0
 20
0.0
 30
0.0
  0
INSERT
  5
298
330
1F
100
AcDbEntity
  8
0
100
AcDbBlockReference
  2
BLKF017
 10
0.0
 20
0.0
 30
0.0
  0
LINE
  5
2A6
330
1F
100
AcDbEntity
  8
0
  6
CONTINUOUS
 62
     7
100
AcDbLine
 10
228.962156
 20
54.455396
 30
0.0
 11
228.962156
 21
70.755397
 31
0.0
  0
LINE
  5
2A7
330
1F
100
AcDbEntity
  8
0
  6
CONTINUOUS
 62
     7
100
AcDbLine
 10
226.162161
 20
54.155397
 30
0.0
 11
226.162161
 21
71.055396
 31
0.0
  0
LINE
  5
2A8
330
1F
100
AcDbEntity
  8
0
  6
CONTINUOUS
 62
     7
100
AcDbLine
 10
232.962156
 20
70.555397
 30
0.0
 11
232.962156
 21
54.655396
 31
0.0
  0
INSERT
  5
2AC
330
1F
100
AcDbEntity
  8
0
100
AcDbBlockReference
  2
BLKF018
 10
0.0
 20
0.0
 30
0.0
  0
INSERT
  5
2BF
330
1F
100
AcDbEntity
  8
0
100
AcDbBlockReference
  2
BLKF019
 10
0.0
 20
0.0
 30
0.0
  0
INSERT
  5
35D
330
1F
100
AcDbEntity
  8
0
100
AcDbBlockReference
  2
BLKF020
 10
0.0
 20
0.0
 30
0.0
  0
INSERT
  5
36B
330
1F
100
AcDbEntity
  8
0
100
AcDbBlockReference
  2
BLKF021
 10
0.0
 20
0.0
 30
0.0
  0
LINE
  5
3D6
330
1F
100
AcDbEntity
  8
0
  6
CONTINUOUS
 62
     7
100
AcDbLine
 10
144.762157
 20
53.355396
 30
0.0
 11
144.762157
 21
71.855396
 31
0.0
  0
LINE
  5
3D7
330
1F
100
AcDbEntity
  8
0
  6
CONTINUOUS
 62
     7
100
AcDbLine
 10
146.962157
 20
62.605396
 30
0.0
 11
146.962157
 21
53.255396
 31
0.0
  0
INSERT
  5
3DB
330
1F
100
AcDbEntity
  8
0
100
AcDbBlockReference
  2
BLKF022
 10
0.0
 20
0.0
 30
0.0
  0
INSERT
  5
3EE
330
1F
100
AcDbEntity
  8
0
100
AcDbBlockReference
  2
BLKF023
 10
0.0
 20
0.0
 30
0.0
  0
INSERT
  5
48C
330
1F
100
AcDbEntity
  8
0
100
AcDbBlockReference
  2
BLKF024
 10
0.0
 20
0.0
 30
0.0
  0
INSERT
  5
49A
330
1F
100
AcDbEntity
  8
0
100
AcDbBlockReference
  2
BLKF025
 10
0.0
 20
0.0
 30
0.0
  0
LINE
  5
505
330
1F
100
AcDbEntity
  8
0
  6
CONTINUOUS
 62
     8
100
AcDbLine
 10
140.890654
 20
56.705396
 30
0.0
 11
140.890654
 21
68.505397
 31
0.0
  0
LINE
  5
506
330
1F
100
AcDbEntity
  8
0
  6
CONTINUOUS
 62
     8
100
AcDbLine
 10
133.2495
 20
62.605396
 30
0.0
 11
133.2495
 21
68.371422
 31
0.0
  0
LINE
  5
507
330
1F
100
AcDbEntity
  8
0
  6
CONTINUOUS
 62
     8
100
AcDbLine
 10
133.2495
 20
56.839371
 30
0.0
 11
133.2495
 21
62.605396
 31
0.0
  0
LINE
  5
508
330
1F
100
AcDbEntity
  8
0
  6
CONTINUOUS
 62
     8
100
AcDbLine
 10
133.7495
 20
68.505397
 30
0.0
 11
133.7495
 21
56.705396
 31
0.0
  0
LINE
  5
509
330
1F
100
AcDbEntity
  8
0
  6
CONTINUOUS
 62
     8
100
AcDbLine
 10
130.690654
 20
62.605396
 30
0.0
 11
130.690654
 21
58.316721
 31
0.0
  0
LINE
  5
50A
330
1F
100
AcDbEntity
  8
0
  6
CONTINUOUS
 62
     8
100
AcDbLine
 10
130.690654
 20
66.894072
 30
0.0
 11
130.690654
 21
62.605396
 31
0.0
  0
LINE
  5
50B
330
1F
100
AcDbEntity
  8
CSLAYER2
  6
CONTINUOUS
 62
     3
100
AcDbLine
 10
116.794626
 20
62.605396
 30
0.0
 11
236.454254
 21
62.605396
 31
0.0
  0
INSERT
  5
50F
330
1F
100
AcDbEntity
  8
0
100
AcDbBlockReference
  2
BLKF026
 10
0.0
 20
0.0
 30
0.0
  0
INSERT
  5
51D
330
1F
100
AcDbEntity
  8
0
100
AcDbBlockReference
  2
BLKF027
 10
0.0
 20
0.0
 30
0.0
  0
INSERT
  5
52B
330
1F
100
AcDbEntity
  8
0
100
AcDbBlockReference
  2
BLKF028
 10
0.0
 20
0.0
 30
0.0
  0
INSERT
  5
539
330
1F
100
AcDbEntity
  8
0
100
AcDbBlockReference
  2
BLKF029
 10
0.0
 20
0.0
 30
0.0
  0
INSERT
  5
547
330
1F
100
AcDbEntity
  8
0
100
AcDbBlockReference
  2
BLKF030
 10
0.0
 20
0.0
 30
0.0
  0
INSERT
  5
555
330
1F
100
AcDbEntity
  8
0
100
AcDbBlockReference
  2
BLKF031
 10
0.0
 20
0.0
 30
0.0
  0
INSERT
  5
565
330
1F
100
AcDbEntity
  8
0
100
AcDbBlockReference
  2
BLKF032
 10
0.0
 20
0.0
 30
0.0
  0
INSERT
  5
579
330
1F
100
AcDbEntity
  8
0
100
AcDbBlockReference
  2
BLKF033
 10
0.0
 20
0.0
 30
0.0
  0
INSERT
  5
58A
330
1F
100
AcDbEntity
  8
0
100
AcDbBlockReference
  2
BLKF034
 10
0.0
 20
0.0
 30
0.0
  0
INSERT
  5
59E
330
1F
100
AcDbEntity
  8
0
100
AcDbBlockReference
  2
BLKF035
 10
0.0
 20
0.0
 30
0.0
  0
INSERT
  5
5AE
330
1F
100
AcDbEntity
  8
0
100
AcDbBlockReference
  2
BLKF036
 10
0.0
 20
0.0
 30
0.0
  0
CIRCLE
  5
5B9
330
1F
100
AcDbEntity
  8
0
  6
CONTINUOUS
 62
     7
100
AcDbCircle
 10
50.229326
 20
62.605396
 30
0.0
 40
9.989999999999995
  0
CIRCLE
  5
5BA
330
1F
100
AcDbEntity
  8
0
  6
CONTINUOUS
 62
     7
100
AcDbCircle
 10
50.229326
 20
62.605396
 30
0.0
 40
10.0
  0
ARC
  5
5BB
330
1F
100
AcDbEntity
  8
0
  6
CONTINUOUS
 62
     7
100
AcDbCircle
 10
50.229326
 20
62.605396
 30
0.0
 40
18.74999999999999
100
AcDbArc
 50
52.55497
 51
127.44503
  0
ARC
  5
5BC
330
1F
100
AcDbEntity
  8
0
  6
CONTINUOUS
 62
     7
100
AcDbCircle
 10
50.229326
 20
62.605396
 30
0.0
 40
18.75
100
AcDbArc
 50
232.55497
 51
307.44503
  0
LINE
  5
5BD
330
1F
100
AcDbEntity
  8
0
  6
CONTINUOUS
 62
     7
100
AcDbLine
 10
38.829326
 20
47.719077
 30
0.0
 11
38.829326
 21
77.491716
 31
0.0
  0
CIRCLE
  5
5BE
330
1F
100
AcDbEntity
  8
0
  6
CONTINUOUS
 62
     7
100
AcDbCircle
 10
42.729326
 20
75.595777
 30
0.0
 40
2.099999999999994
  0
CIRCLE
  5
5BF
330
1F
100
AcDbEntity
  8
0
  6
CONTINUOUS
 62
     7
100
AcDbCircle
 10
42.729326
 20
49.615015
 30
0.0
 40
2.099999999999994
  0
CIRCLE
  5
5C0
330
1F
100
AcDbEntity
  8
0
  6
CONTINUOUS
 62
     7
100
AcDbCircle
 10
57.729326
 20
75.595777
 30
0.0
 40
2.099999999999994
  0
CIRCLE
  5
5C1
330
1F
100
AcDbEntity
  8
0
  6
CONTINUOUS
 62
     7
100
AcDbCircle
 10
57.729326
 20
49.615015
 30
0.0
 40
2.099999999999994
  0
LINE
  5
5C2
330
1F
100
AcDbEntity
  8
0
  6
CONTINUOUS
 62
     7
100
AcDbLine
 10
61.629326
 20
77.491716
 30
0.0
 11
61.629326
 21
47.719077
 31
0.0
  0
CIRCLE
  5
5C3
330
1F
100
AcDbEntity
  8
0
  6
CONTINUOUS
 62
     7
100
AcDbCircle
 10
50.229326
 20
62.605396
 30
0.0
 40
1.5
  0
CIRCLE
  5
5C4
330
1F
100
AcDbEntity
  8
0
  6
CONTINUOUS
 62
     7
100
AcDbCircle
 10
50.229326
 20
62.605396
 30
0.0
 40
1.29999999999999
  0
CIRCLE
  5
5C5
330
1F
100
AcDbEntity
  8
0
  6
CONTINUOUS
 62
     7
100
AcDbCircle
 10
50.229326
 20
62.605396
 30
0.0
 40
3.422649730810392
  0
CIRCLE
  5
5C6
330
1F
100
AcDbEntity
  8
0
  6
CONTINUOUS
 62
     7
100
AcDbCircle
 10
50.229326
 20
62.605396
 30
0.0
 40
4.288675134594811
  0
CIRCLE
  5
5C7
330
1F
100
AcDbEntity
  8
0
  6
CONTINUOUS
 62
     7
100
AcDbCircle
 10
50.229326
 20
62.605396
 30
0.0
 40
2.550000000000011
  0
CIRCLE
  5
5C8
330
1F
100
AcDbEntity
  8
0
  6
CONTINUOUS
 62
     7
100
AcDbCircle
 10
50.229326
 20
62.605396
 30
0.0
 40
5.899999999999999
  0
ARC
  5
5C9
330
1F
100
AcDbEntity
  8
0
  6
CONTINUOUS
 62
     7
100
AcDbCircle
 10
50.229326
 20
62.605396
 30
0.0
 40
2.499999999999997
100
AcDbArc
 50
95.73917
 51
204.26083
  0
ARC
  5
5CA
330
1F
100
AcDbEntity
  8
0
  6
CONTINUOUS
 62
     7
100
AcDbCircle
 10
50.229326
 20
62.605396
 30
0.0
 40
2.500000000000005
100
AcDbArc
 50
215.73917
 51
324.26083
  0
LINE
  5
5CB
330
1F
100
AcDbEntity
  8
0
  6
CONTINUOUS
 62
     7
100
AcDbLine
 10
49.979326
 20
65.092865
 30
0.0
 11
49.979326
 21
64.236347
 31
0.0
  0
ARC
  5
5CC
330
1F
100
AcDbEntity
  8
0
  6
CONTINUOUS
 62
     7
100
AcDbCircle
 10
50.229326
 20
62.605396
 30
0.0
 40
1.649999999999988
100
AcDbArc
 50
98.714742
 51
201.285258
  0
LINE
  5
5CD
330
1F
100
AcDbEntity
  8
0
  6
CONTINUOUS
 62
     7
100
AcDbLine
 10
47.950115
 20
61.578168
 30
0.0
 11
48.691882
 21
62.006427
 31
0.0
  0
ARC
  5
5CE
330
1F
100
AcDbEntity
  8
0
  6
CONTINUOUS
 62
     7
100
AcDbCircle
 10
50.229326
 20
62.605396
 30
0.0
 40
1.649999999999997
100
AcDbArc
 50
218.714742
 51
321.285258
  0
LINE
  5
5CF
330
1F
100
AcDbEntity
  8
0
  6
CONTINUOUS
 62
     7
100
AcDbLine
 10
52.258537
 20
61.145156
 30
0.0
 11
51.516771
 21
61.573415
 31
0.0
  0
LINE
  5
5D0
330
1F
100
AcDbEntity
  8
0
  6
CONTINUOUS
 62
     7
100
AcDbLine
 10
48.200115
 20
61.145156
 30
0.0
 11
48.941882
 21
61.573415
 31
0.0
  0
LINE
  5
5D1
330
1F
100
AcDbEntity
  8
0
  6
CONTINUOUS
 62
     7
100
AcDbLine
 10
49.979326
 20
64.236347
 30
0.0
 11
49.979326
 21
64.084416
 31
0.0
  0
LINE
  5
5D2
330
1F
100
AcDbEntity
  8
0
  6
CONTINUOUS
 62
     7
100
AcDbLine
 10
48.691882
 20
62.006427
 30
0.0
 11
48.823458
 21
62.082393
 31
0.0
  0
LINE
  5
5D3
330
1F
100
AcDbEntity
  8
0
  6
CONTINUOUS
 62
     7
100
AcDbLine
 10
51.516771
 20
61.573415
 30
0.0
 11
51.385195
 21
61.64938
 31
0.0
  0
LINE
  5
5D4
330
1F
100
AcDbEntity
  8
0
  6
CONTINUOUS
 62
     7
100
AcDbLine
 10
48.941882
 20
61.573415
 30
0.0
 11
49.073457
 21
61.64938
 31
0.0
  0
ARC
  5
5D5
330
1F
100
AcDbEntity
  8
0
  6
CONTINUOUS
 62
     7
100
AcDbCircle
 10
50.229326
 20
62.605396
 30
0.0
 40
2.500000000000009
100
AcDbArc
 50
-24.26083
 51
84.26083
  0
ARC
  5
5D6
330
1F
100
AcDbEntity
  8
0
  6
CONTINUOUS
 62
     7
100
AcDbCircle
 10
50.229326
 20
62.605396
 30
0.0
 40
1.65
100
AcDbArc
 50
-21.285258
 51
81.285258
  0
LINE
  5
5D7
330
1F
100
AcDbEntity
  8
0
  6
CONTINUOUS
 62
     7
100
AcDbLine
 10
50.479326
 20
65.092865
 30
0.0
 11
50.479326
 21
64.236347
 31
0.0
  0
LINE
  5
5D8
330
1F
100
AcDbEntity
  8
0
  6
CONTINUOUS
 62
     7
100
AcDbLine
 10
52.508537
 20
61.578168
 30
0.0
 11
51.766771
 21
62.006427
 31
0.0
  0
LINE
  5
5D9
330
1F
100
AcDbEntity
  8
0
  6
CONTINUOUS
 62
     7
100
AcDbLine
 10
51.766771
 20
62.006427
 30
0.0
 11
51.635195
 21
62.082393
 31
0.0
  0
LINE
  5
5DA
330
1F
100
AcDbEntity
  8
0
  6
CONTINUOUS
 62
     7
100
AcDbLine
 10
50.479326
 20
64.236347
 30
0.0
 11
50.479326
 21
64.084416
 31
0.0
  0
INSERT
  5
5DE
330
1F
100
AcDbEntity
  8
0
100
AcDbBlockReference
  2
BLKF037
 10
0.0
 20
0.0
 30
0.0
  0
INSERT
  5
5F0
330
1F
100
AcDbEntity
  8
0
100
AcDbBlockReference
  2
BLKF038
 10
0.0
 20
0.0
 30
0.0
  0
INSERT
  5
602
330
1F
100
AcDbEntity
  8
0
100
AcDbBlockReference
  2
BLKF039
 10
0.0
 20
0.0
 30
0.0
  0
CIRCLE
  5
611
330
1F
100
AcDbEntity
  8
0
  6
CONTINUOUS
 62
     7
100
AcDbCircle
 10
50.229326
 20
62.605396
 30
0.0
 40
9.449999999999996
  0
CIRCLE
  5
612
330
1F
100
AcDbEntity
  8
CSLAYER2
  6
PHANTOM
 62
     3
100
AcDbCircle
 10
50.229326
 20
62.605396
 30
0.0
 40
18.75
  0
CIRCLE
  5
613
330
1F
100
AcDbEntity
  8
CSLAYER2
  6
PHANTOM
 62
     3
100
AcDbCircle
 10
50.229326
 20
62.605396
 30
0.0
 40
15.00000000000002
  0
INSERT
  5
617
330
1F
100
AcDbEntity
  8
0
100
AcDbBlockReference
  2
BLKF040
 10
0.0
 20
0.0
 30
0.0
  0
INSERT
  5
626
330
1F
100
AcDbEntity
  8
0
100
AcDbBlockReference
  2
BLKF041
 10
0.0
 20
0.0
 30
0.0
  0
INSERT
  5
635
330
1F
100
AcDbEntity
  8
0
100
AcDbBlockReference
  2
BLKF042
 10
0.0
 20
0.0
 30
0.0
  0
INSERT
  5
643
330
1F
100
AcDbEntity
  8
0
100
AcDbBlockReference
  2
BLKF043
 10
0.0
 20
0.0
 30
0.0
  0
INSERT
  5
651
330
1F
100
AcDbEntity
  8
0
100
AcDbBlockReference
  2
BLKF044
 10
0.0
 20
0.0
 30
0.0
  0
INSERT
  5
65F
330
1F
100
AcDbEntity
  8
0
100
AcDbBlockReference
  2
BLKF045
 10
0.0
 20
0.0
 30
0.0
  0
INSERT
  5
66B
330
1F
100
AcDbEntity
  8
0
100
AcDbBlockReference
  2
BLKF046
 10
0.0
 20
0.0
 30
0.0
  0
INSERT
  5
673
330
1F
100
AcDbEntity
  8
0
100
AcDbBlockReference
  2
BLKF047
 10
0.0
 20
0.0
 30
0.0
  0
INSERT
  5
67F
330
1F
100
AcDbEntity
  8
0
100
AcDbBlockReference
  2
BLKF048
 10
0.0
 20
0.0
 30
0.0
  0
INSERT
  5
68B
330
1F
100
AcDbEntity
  8
0
100
AcDbBlockReference
  2
BLKF049
 10
0.0
 20
0.0
 30
0.0
  0
INSERT
  5
697
330
1F
100
AcDbEntity
  8
0
100
AcDbBlockReference
  2
BLKF050
 10
0.0
 20
0.0
 30
0.0
  0
INSERT
  5
6A3
330
1F
100
AcDbEntity
  8
0
100
AcDbBlockReference
  2
BLKF051
 10
0.0
 20
0.0
 30
0.0
  0
ENDSEC
  0
SECTION
  2
OBJECTS
  0
DICTIONARY
  5
C
330
0
100
AcDbDictionary
  3
ACAD_GROUP
350
D
  3
ACAD_LAYOUT
350
1A
  3
ACAD_MLINESTYLE
350
17
  3
ACAD_PLOTSETTINGS
350
19
1001
ACAD
1000
TREAT_AS_HARD
1070
     0
  0
DICTIONARY
  5
D
102
{ACAD_REACTORS
330
C
102
}
330
C
100
AcDbDictionary
1001
ACAD
1000
TREAT_AS_HARD
1070
     0
  0
DICTIONARY
  5
1A
102
{ACAD_REACTORS
330
C
102
}
330
C
100
AcDbDictionary
1001
ACAD
1000
TREAT_AS_HARD
1070
     0
  0
DICTIONARY
  5
17
102
{ACAD_REACTORS
330
C
102
}
330
C
100
AcDbDictionary
  3
STANDARD
350
18
1001
ACAD
1000
TREAT_AS_HARD
1070
     0
  0
DICTIONARY
  5
19
102
{ACAD_REACTORS
330
C
102
}
330
C
100
AcDbDictionary
1001
ACAD
1000
TREAT_AS_HARD
1070
     0
  0
MLINESTYLE
  5
18
102
{ACAD_REACTORS
330
17
102
}
330
17
100
AcDbMlineStyle
  2
Standard
 70
     0
  3

 62
   256
 51
90.0
 52
90.0
 71
     2
 49
0.5
 62
   256
  6
BYLAYER
 49
-0.5
 62
   256
  6
BYLAYER
  0
ENDSEC
  0
EOF
