  0
SECTION
  2
HEADER
  9
$ACADVER
  1
AC1012
  9
$DWGCODEPAGE
  3
ansi_932
  9
$INSBASE
 10
0.0
 20
0.0
 30
0.0
  9
$EXTMIN
 10
0.0
 20
0.0
 30
0.0
  9
$EXTMAX
 10
182.459991
 20
93.140019
 30
0.0
  9
$LIMMIN
 10
0.0
 20
0.0
  9
$LIMMAX
 10
182.459991
 20
93.140019
  9
$ORTHOMODE
 70
     0
  9
$REGENMODE
 70
     1
  9
$FILLMODE
 70
     1
  9
$QTEXTMODE
 70
     0
  9
$MIRRTEXT
 70
     1
  9
$DRAGMODE
 70
     2
  9
$LTSCALE
 40
1.0
  9
$OSMODE
 70
    37
  9
$ATTMODE
 70
     1
  9
$TEXTSIZE
 40
0.2
  9
$TRACEWID
 40
0.05
  9
$TEXTSTYLE
  7
ED_VECTOR
  9
$CLAYER
  8
0
  9
$CELTYPE
  6
BYLAYER
  9
$CECOLOR
 62
   256
  9
$CELTSCALE
 40
1.0
  9
$DELOBJ
 70
     1
  9
$DISPSILH
 70
     0
  9
$DIMSCALE
 40
1.0
  9
$DIMASZ
 40
3.0
  9
$DIMEXO
 40
1.0
  9
$DIMDLI
 40
10.0
  9
$DIMRND
 40
0.0
  9
$DIMDLE
 40
5.0
  9
$DIMEXE
 40
1.0
  9
$DIMTP
 40
0.0
  9
$DIMTM
 40
0.0
  9
$DIMTXT
 40
4.0
  9
$DIMCEN
 40
2.5
  9
$DIMTSZ
 40
0.0
  9
$DIMTOL
 70
     0
  9
$DIMLIM
 70
     0
  9
$DIMTIH
 70
     0
  9
$DIMTOH
 70
     0
  9
$DIMSE1
 70
     0
  9
$DIMSE2
 70
     0
  9
$DIMTAD
 70
     1
  9
$DIMZIN
 70
     8
  9
$DIMBLK
  1

  9
$DIMASO
 70
     1
  9
$DIMSHO
 70
     1
  9
$DIMPOST
  1

  9
$DIMAPOST
  1

  9
$DIMALT
 70
     0
  9
$DIMALTD
 70
     3
  9
$DIMALTF
 40
0.03937
  9
$DIMLFAC
 40
1.0
  9
$DIMTOFL
 70
     1
  9
$DIMTVP
 40
0.0
  9
$DIMTIX
 70
     0
  9
$DIMSOXD
 70
     0
  9
$DIMSAH
 70
     1
  9
$DIMBLK1
  1
EDTIP_ARROW_S
  9
$DIMBLK2
  1
EDTIP_ARROW_E
  9
$DIMSTYLE
  2
EDDIMINFO
  9
$DIMCLRD
 70
     7
  9
$DIMCLRE
 70
     7
  9
$DIMCLRT
 70
     7
  9
$DIMTFAC
 40
1.0
  9
$DIMGAP
 40
1.0
  9
$DIMJUST
 70
     0
  9
$DIMSD1
 70
     0
  9
$DIMSD2
 70
     0
  9
$DIMTOLJ
 70
     0
  9
$DIMTZIN
 70
     8
  9
$DIMALTZ
 70
     0
  9
$DIMALTTZ
 70
     0
  9
$DIMFIT
 70
     3
  9
$DIMUPT
 70
     0
  9
$DIMUNIT
 70
     2
  9
$DIMDEC
 70
     2
  9
$DIMTDEC
 70
     2
  9
$DIMALTU
 70
     2
  9
$DIMALTTD
 70
     3
  9
$DIMTXSTY
  7
ED_VECTOR
  9
$DIMAUNIT
 70
     0
  9
$LUNITS
 70
     2
  9
$LUPREC
 70
     4
  9
$SKETCHINC
 40
0.1
  9
$FILLETRAD
 40
0.5
  9
$AUNITS
 70
     0
  9
$AUPREC
 70
     0
  9
$MENU
  1
.
  9
$ELEVATION
 40
0.0
  9
$PELEVATION
 40
0.0
  9
$THICKNESS
 40
0.0
  9
$LIMCHECK
 70
     0
  9
$CHAMFERA
 40
0.5
  9
$CHAMFERB
 40
0.5
  9
$CHAMFERC
 40
1.0
  9
$CHAMFERD
 40
0.0
  9
$SKPOLY
 70
     0
  9
$TDCREATE
 40
2456063.672185672
  9
$TDUPDATE
 40
2456063.672185683
  9
$TDINDWG
 40
0.0000000116
  9
$TDUSRTIMER
 40
0.0000000116
  9
$USRTIMER
 70
     1
  9
$ANGBASE
 50
0.0
  9
$ANGDIR
 70
     0
  9
$PDMODE
 70
     0
  9
$PDSIZE
 40
0.0
  9
$PLINEWID
 40
0.0
  9
$COORDS
 70
     1
  9
$SPLFRAME
 70
     0
  9
$SPLINETYPE
 70
     6
  9
$SPLINESEGS
 70
     8
  9
$ATTDIA
 70
     0
  9
$ATTREQ
 70
     1
  9
$HANDLING
 70
     1
  9
$HANDSEED
  5
785
  9
$SURFTAB1
 70
     6
  9
$SURFTAB2
 70
     6
  9
$SURFTYPE
 70
     6
  9
$SURFU
 70
     6
  9
$SURFV
 70
     6
  9
$UCSNAME
  2

  9
$UCSORG
 10
0.0
 20
0.0
 30
0.0
  9
$UCSXDIR
 10
1.0
 20
0.0
 30
0.0
  9
$UCSYDIR
 10
0.0
 20
1.0
 30
0.0
  9
$PUCSNAME
  2

  9
$PUCSORG
 10
0.0
 20
0.0
 30
0.0
  9
$PUCSXDIR
 10
1.0
 20
0.0
 30
0.0
  9
$PUCSYDIR
 10
0.0
 20
1.0
 30
0.0
  9
$USERI1
 70
     0
  9
$USERI2
 70
     0
  9
$USERI3
 70
     0
  9
$USERI4
 70
     0
  9
$USERI5
 70
     0
  9
$USERR1
 40
0.0
  9
$USERR2
 40
0.0
  9
$USERR3
 40
0.0
  9
$USERR4
 40
0.0
  9
$USERR5
 40
0.0
  9
$WORLDVIEW
 70
     1
  9
$SHADEDGE
 70
     3
  9
$SHADEDIF
 70
    70
  9
$TILEMODE
 70
     1
  9
$MAXACTVP
 70
    64
  9
$PINSBASE
 10
0.0
 20
0.0
 30
0.0
  9
$PLIMCHECK
 70
     0
  9
$PEXTMIN
 10
1.000000E+20
 20
1.000000E+20
 30
1.000000E+20
  9
$PEXTMAX
 10
-1.000000E+20
 20
-1.000000E+20
 30
-1.000000E+20
  9
$PLIMMIN
 10
0.0
 20
0.0
  9
$PLIMMAX
 10
12.0
 20
9.0
  9
$UNITMODE
 70
     0
  9
$VISRETAIN
 70
     1
  9
$PLINEGEN
 70
     0
  9
$PSLTSCALE
 70
     1
  9
$TREEDEPTH
 70
  3020
  9
$PICKSTYLE
 70
     1
  9
$CMLSTYLE
  2
STANDARD
  9
$CMLJUST
 70
     0
  9
$CMLSCALE
 40
1.0
  9
$SAVEIMAGES
 70
     1
  0
ENDSEC
  0
SECTION
  2
CLASSES
  0
CLASS
  1
ACDBDICTIONARYWDFLT
  2
AcDbDictionaryWithDefault
  3
ObjectDBX Classes
 90
    32768
280
     0
281
     0
  0
CLASS
  1
XRECORD
  2
AcDbXrecord
  3
AutoCAD 2000
 90
    32768
280
     0
281
     0
  0
CLASS
  1
LWPOLYLINE
  2
AcDbPolyline
  3
AutoCAD 2000
 90
    32768
280
     0
281
     1
  0
CLASS
  1
HATCH
  2
AcDbHatch
  3
AutoCAD 2000
 90
    32768
280
     0
281
     1
  0
CLASS
  1
ACDBPLACEHOLDER
  2
AcDbPlaceHolder
  3
ObjectDBX Classes
 90
        0
280
     0
281
     0
  0
CLASS
  1
LAYOUT
  2
AcDbLayout
  3
ObjectDBX Classes
 90
        0
280
     0
281
     0
  0
ENDSEC
  0
SECTION
  2
TABLES
  0
TABLE
  2
VPORT
  5
8
330
0
100
AcDbSymbolTable
 70
     1
  0
VPORT
  5
29
330
8
100
AcDbSymbolTableRecord
100
AcDbViewportTableRecord
  2
*ACTIVE
 70
     0
 10
0.0
 20
0.0
 11
1.0
 21
1.0
 12
91.229995
 22
46.570009
 13
0.0
 23
0.0
 14
0.5
 24
0.5
 15
0.5
 25
0.5
 16
0.0
 26
0.0
 36
1.0
 17
0.0
 27
0.0
 37
0.0
 40
93.140019
 41
1.958986
 42
50.0
 43
0.0
 44
0.0
 50
0.0
 51
0.0
 71
     0
 72
   100
 73
     1
 74
     3
 75
     0
 76
     0
 77
     0
 78
     0
  0
ENDTAB
  0
TABLE
  2
LTYPE
  5
5
330
0
100
AcDbSymbolTable
 70
     5
  0
LTYPE
  5
14
330
5
100
AcDbSymbolTableRecord
100
AcDbLinetypeTableRecord
  2
BYBLOCK
 70
     0
  3

 72
    65
 73
     0
 40
0.0
  0
LTYPE
  5
15
330
5
100
AcDbSymbolTableRecord
100
AcDbLinetypeTableRecord
  2
BYLAYER
 70
     0
  3

 72
    65
 73
     0
 40
0.0
  0
LTYPE
  5
16
330
5
100
AcDbSymbolTableRecord
100
AcDbLinetypeTableRecord
  2
CONTINUOUS
 70
     0
  3
--------------------
 72
    65
 73
     0
 40
0.0
  0
LTYPE
  5
2A
330
5
100
AcDbSymbolTableRecord
100
AcDbLinetypeTableRecord
  2
DASHED
 70
     0
  3
- - - - - - - - - - -
 72
    65
 73
     2
 40
19.1
 49
12.7
 74
     0
 49
-6.4
 74
     0
  0
LTYPE
  5
2B
330
5
100
AcDbSymbolTableRecord
100
AcDbLinetypeTableRecord
  2
CENTER
 70
     0
  3
- ･ - ･ - ･ - ･ - ･ - ･ - ･ - ･ - ･ - ･ -
 72
    65
 73
     4
 40
51.0
 49
31.8
 74
     0
 49
-6.4
 74
     0
 49
6.4
 74
     0
 49
-6.4
 74
     0
  0
LTYPE
  5
2C
330
5
100
AcDbSymbolTableRecord
100
AcDbLinetypeTableRecord
  2
PHANTOM
 70
     0
  3
- ･ ･ - ･ ･ - ･ ･ - ･ ･ - ･ ･ - ･ ･ - ･ ･ - 
 72
    65
 73
     6
 40
63.8
 49
31.8
 74
     0
 49
-6.4
 74
     0
 49
6.4
 74
     0
 49
-6.4
 74
     0
 49
6.4
 74
     0
 49
-6.4
 74
     0
  0
LTYPE
  5
2D
330
5
100
AcDbSymbolTableRecord
100
AcDbLinetypeTableRecord
  2
DOT
 70
     0
  3
・・・・・・・・・・・・・・・
 72
    65
 73
     2
 40
6.5
 49
0.1
 74
     0
 49
-6.4
 74
     0
  0
ENDTAB
  0
TABLE
  2
LAYER
  5
2
330
0
100
AcDbSymbolTable
 70
    16
  0
LAYER
  5
10
330
2
100
AcDbSymbolTableRecord
100
AcDbLayerTableRecord
  2
0
 70
     0
 62
     7
  6
CONTINUOUS
  0
LAYER
  5
2E
330
2
100
AcDbSymbolTableRecord
100
AcDbLayerTableRecord
  2
CSLAYER2
 70
     0
 62
     7
  6
CONTINUOUS
  0
ENDTAB
  0
TABLE
  2
STYLE
  5
3
330
0
100
AcDbSymbolTable
 70
     2
  0
STYLE
  5
11
330
3
100
AcDbSymbolTableRecord
100
AcDbTextStyleTableRecord
  2
STANDARD
 70
     0
 40
0.0
 41
1.0
 50
0.0
 71
     0
 42
0.2
  3
txt
  4

  0
STYLE
  5
3D
330
3
100
AcDbSymbolTableRecord
100
AcDbTextStyleTableRecord
  2
ED_VECTOR
 70
     0
 40
0.0
 41
1.0
 50
0.0
 71
     0
 42
0.2
  3
MONOTXT.SHX
  4
BIGFONT.SHX
  0
ENDTAB
  0
TABLE
  2
VIEW
  5
6
330
0
100
AcDbSymbolTable
 70
     0
  0
ENDTAB
  0
TABLE
  2
UCS
  5
7
330
0
100
AcDbSymbolTable
 70
     0
  0
ENDTAB
  0
TABLE
  2
APPID
  5
9
330
0
100
AcDbSymbolTable
 70
     1
  0
APPID
  5
12
330
9
100
AcDbSymbolTableRecord
100
AcDbRegAppTableRecord
  2
ACAD
 70
     0
  0
ENDTAB
  0
TABLE
  2
DIMSTYLE
  5
A
330
0
100
AcDbSymbolTable
 70
     2
  0
DIMSTYLE
105
27
330
A
100
AcDbSymbolTableRecord
100
AcDbDimStyleTableRecord
  2
STANDARD
 70
     0
  3

  4

  5

  6

  7

 40
1.0
 41
0.18
 42
0.0625
 43
0.38
 44
0.18
 45
0.0
 46
0.0
 47
0.0
 48
0.0
140
0.18
141
0.09
142
0.0
143
25.4
144
1.0
145
0.0
146
1.0
147
0.09
 71
     0
 72
     0
 73
     1
 74
     1
 75
     0
 76
     0
 77
     0
 78
     0
170
     0
171
     2
172
     0
173
     0
174
     0
175
     0
176
     0
177
     0
178
     0
270
     2
271
     4
272
     4
273
     2
274
     2
340
11
275
     0
280
     0
281
     0
282
     0
283
     1
284
     0
285
     0
286
     0
287
     3
288
     0
  0
DIMSTYLE
105
6E
330
A
100
AcDbSymbolTableRecord
100
AcDbDimStyleTableRecord
  2
EDDIMINFO
 70
     0
  3

  4

  5

  6
EDTIP_ARROW_S
  7
EDTIP_ARROW_E
 40
1.0
 41
3.0
 42
1.0
 43
10.0
 44
1.0
 45
0.0
 46
5.0
 47
0.0
 48
0.0
140
4.0
141
2.5
142
0.0
143
0.03937
144
1.0
145
0.0
146
1.0
147
1.0
 71
     0
 72
     0
 73
     0
 74
     0
 75
     0
 76
     0
 77
     1
 78
     8
170
     0
171
     3
172
     1
173
     1
174
     0
175
     0
176
     7
177
     7
178
     7
179
     2
270
     2
271
     2
272
     2
273
     2
274
     3
340
3D
275
     0
280
     0
281
     0
282
     0
283
     0
284
     8
285
     0
286
     0
287
     3
288
     0
  0
ENDTAB
  0
TABLE
  2
BLOCK_RECORD
  5
1
330
0
100
AcDbSymbolTable
 70
    22
  0
BLOCK_RECORD
  5
1F
330
1
100
AcDbSymbolTableRecord
100
AcDbBlockTableRecord
  2
*MODEL_SPACE
  0
BLOCK_RECORD
  5
1B
330
1
100
AcDbSymbolTableRecord
100
AcDbBlockTableRecord
  2
*PAPER_SPACE
  0
BLOCK_RECORD
  5
3E
330
1
100
AcDbSymbolTableRecord
100
AcDbBlockTableRecord
  2
EDTIP_ARROW_S
  0
BLOCK_RECORD
  5
44
330
1
100
AcDbSymbolTableRecord
100
AcDbBlockTableRecord
  2
EDTIP_ARROW_E
  0
BLOCK_RECORD
  5
4A
330
1
100
AcDbSymbolTableRecord
100
AcDbBlockTableRecord
  2
EDTIP_BLACKDOT_S
  0
BLOCK_RECORD
  5
50
330
1
100
AcDbSymbolTableRecord
100
AcDbBlockTableRecord
  2
EDTIP_BLACKDOT_E
  0
BLOCK_RECORD
  5
56
330
1
100
AcDbSymbolTableRecord
100
AcDbBlockTableRecord
  2
EDTIP_ARCHITECT_S
  0
BLOCK_RECORD
  5
5C
330
1
100
AcDbSymbolTableRecord
100
AcDbBlockTableRecord
  2
EDTIP_ARCHITECT_E
  0
BLOCK_RECORD
  5
62
330
1
100
AcDbSymbolTableRecord
100
AcDbBlockTableRecord
  2
EDTIP_CIVIL_S
  0
BLOCK_RECORD
  5
68
330
1
100
AcDbSymbolTableRecord
100
AcDbBlockTableRecord
  2
EDTIP_CIVIL_E
  0
BLOCK_RECORD
  5
BC
330
1
100
AcDbSymbolTableRecord
100
AcDbBlockTableRecord
  2
BLKF011
  0
BLOCK_RECORD
  5
EE
330
1
100
AcDbSymbolTableRecord
100
AcDbBlockTableRecord
  2
BLKF012
  0
BLOCK_RECORD
  5
22E
330
1
100
AcDbSymbolTableRecord
100
AcDbBlockTableRecord
  2
BLKF013
  0
BLOCK_RECORD
  5
245
330
1
100
AcDbSymbolTableRecord
100
AcDbBlockTableRecord
  2
BLKF014
  0
BLOCK_RECORD
  5
279
330
1
100
AcDbSymbolTableRecord
100
AcDbBlockTableRecord
  2
BLKF015
  0
BLOCK_RECORD
  5
3C8
330
1
100
AcDbSymbolTableRecord
100
AcDbBlockTableRecord
  2
BLKF016
  0
BLOCK_RECORD
  5
718
330
1
100
AcDbSymbolTableRecord
100
AcDbBlockTableRecord
  2
BLKF017
  0
BLOCK_RECORD
  5
726
330
1
100
AcDbSymbolTableRecord
100
AcDbBlockTableRecord
  2
BLKF018
  0
BLOCK_RECORD
  5
734
330
1
100
AcDbSymbolTableRecord
100
AcDbBlockTableRecord
  2
BLKF019
  0
BLOCK_RECORD
  5
742
330
1
100
AcDbSymbolTableRecord
100
AcDbBlockTableRecord
  2
BLKF020
  0
BLOCK_RECORD
  5
756
330
1
100
AcDbSymbolTableRecord
100
AcDbBlockTableRecord
  2
BLKF021
  0
BLOCK_RECORD
  5
767
330
1
100
AcDbSymbolTableRecord
100
AcDbBlockTableRecord
  2
BLKF022
  0
BLOCK_RECORD
  5
777
330
1
100
AcDbSymbolTableRecord
100
AcDbBlockTableRecord
  2
BLKF023
  0
ENDTAB
  0
ENDSEC
  0
SECTION
  2
BLOCKS
  0
BLOCK
  5
20
330
1F
100
AcDbEntity
  8
0
100
AcDbBlockBegin
  2
*MODEL_SPACE
 70
     0
 71
     0
 10
0.0
 20
0.0
 30
0.0
  3
*MODEL_SPACE
  1

  0
ENDBLK
  5
21
330
1F
100
AcDbEntity
  8
0
100
AcDbBlockEnd
  0
BLOCK
  5
1C
330
1B
100
AcDbEntity
 67
     1
  8
0
100
AcDbBlockBegin
  2
*PAPER_SPACE
 70
     0
 71
     0
 10
0.0
 20
0.0
 30
0.0
  3
*PAPER_SPACE
  1

  0
ENDBLK
  5
1D
330
1B
100
AcDbEntity
 67
     1
  8
0
100
AcDbBlockEnd
  0
BLOCK
  5
3F
330
3E
100
AcDbEntity
  8
0
100
AcDbBlockBegin
  2
EDTIP_ARROW_S
 70
     0
 71
     0
 10
0.0
 20
0.0
 30
0.0
  3
EDTIP_ARROW_S
  1

  0
LINE
  5
41
330
3E
100
AcDbEntity
  8
0
  6
CONTINUOUS
 62
     0
100
AcDbLine
 10
0.0
 20
0.0
 30
0.0
 11
-1.0
 21
0.0
 31
0.0
  0
LINE
  5
42
330
3E
100
AcDbEntity
  8
0
  6
CONTINUOUS
 62
     0
100
AcDbLine
 10
0.0
 20
0.0
 30
0.0
 11
-0.965926
 21
0.258819
 31
0.0
  0
LINE
  5
43
330
3E
100
AcDbEntity
  8
0
  6
CONTINUOUS
 62
     0
100
AcDbLine
 10
0.0
 20
0.0
 30
0.0
 11
-0.965926
 21
-0.258819
 31
0.0
  0
ENDBLK
  5
40
330
3E
100
AcDbEntity
  8
0
100
AcDbBlockEnd
  0
BLOCK
  5
45
330
44
100
AcDbEntity
  8
0
100
AcDbBlockBegin
  2
EDTIP_ARROW_E
 70
     0
 71
     0
 10
0.0
 20
0.0
 30
0.0
  3
EDTIP_ARROW_E
  1

  0
LINE
  5
47
330
44
100
AcDbEntity
  8
0
  6
CONTINUOUS
 62
     0
100
AcDbLine
 10
0.0
 20
0.0
 30
0.0
 11
-1.0
 21
0.0
 31
0.0
  0
LINE
  5
48
330
44
100
AcDbEntity
  8
0
  6
CONTINUOUS
 62
     0
100
AcDbLine
 10
0.0
 20
0.0
 30
0.0
 11
-0.965926
 21
-0.258819
 31
0.0
  0
LINE
  5
49
330
44
100
AcDbEntity
  8
0
  6
CONTINUOUS
 62
     0
100
AcDbLine
 10
0.0
 20
0.0
 30
0.0
 11
-0.965926
 21
0.258819
 31
0.0
  0
ENDBLK
  5
46
330
44
100
AcDbEntity
  8
0
100
AcDbBlockEnd
  0
BLOCK
  5
4B
330
4A
100
AcDbEntity
  8
0
100
AcDbBlockBegin
  2
EDTIP_BLACKDOT_S
 70
     0
 71
     0
 10
0.0
 20
0.0
 30
0.0
  3
EDTIP_BLACKDOT_S
  1

  0
LINE
  5
4D
330
4A
100
AcDbEntity
  8
0
  6
CONTINUOUS
 62
     0
100
AcDbLine
 10
0.0
 20
0.0
 30
0.0
 11
-1.0
 21
0.0
 31
0.0
  0
CIRCLE
  5
4E
330
4A
100
AcDbEntity
  8
0
  6
CONTINUOUS
 62
     0
100
AcDbCircle
 10
0.0
 20
0.0
 30
0.0
 40
0.5
  0
CIRCLE
  5
4F
330
4A
100
AcDbEntity
  8
0
  6
CONTINUOUS
 62
     0
100
AcDbCircle
 10
0.0
 20
0.0
 30
0.0
 40
0.25
  0
ENDBLK
  5
4C
330
4A
100
AcDbEntity
  8
0
100
AcDbBlockEnd
  0
BLOCK
  5
51
330
50
100
AcDbEntity
  8
0
100
AcDbBlockBegin
  2
EDTIP_BLACKDOT_E
 70
     0
 71
     0
 10
0.0
 20
0.0
 30
0.0
  3
EDTIP_BLACKDOT_E
  1

  0
LINE
  5
53
330
50
100
AcDbEntity
  8
0
  6
CONTINUOUS
 62
     0
100
AcDbLine
 10
0.0
 20
0.0
 30
0.0
 11
-1.0
 21
0.0
 31
0.0
  0
CIRCLE
  5
54
330
50
100
AcDbEntity
  8
0
  6
CONTINUOUS
 62
     0
100
AcDbCircle
 10
0.0
 20
0.0
 30
0.0
 40
0.5
  0
CIRCLE
  5
55
330
50
100
AcDbEntity
  8
0
  6
CONTINUOUS
 62
     0
100
AcDbCircle
 10
0.0
 20
0.0
 30
0.0
 40
0.25
  0
ENDBLK
  5
52
330
50
100
AcDbEntity
  8
0
100
AcDbBlockEnd
  0
BLOCK
  5
57
330
56
100
AcDbEntity
  8
0
100
AcDbBlockBegin
  2
EDTIP_ARCHITECT_S
 70
     0
 71
     0
 10
0.0
 20
0.0
 30
0.0
  3
EDTIP_ARCHITECT_S
  1

  0
LINE
  5
59
330
56
100
AcDbEntity
  8
0
  6
CONTINUOUS
 62
     0
100
AcDbLine
 10
0.0
 20
0.0
 30
0.0
 11
-1.0
 21
0.0
 31
0.0
  0
LINE
  5
5A
330
56
100
AcDbEntity
  8
0
  6
CONTINUOUS
 62
     0
100
AcDbLine
 10
0.0
 20
0.0
 30
0.0
 11
-0.707107
 21
-0.707107
 31
0.0
  0
LINE
  5
5B
330
56
100
AcDbEntity
  8
0
  6
CONTINUOUS
 62
     0
100
AcDbLine
 10
0.0
 20
0.0
 30
0.0
 11
0.707107
 21
0.707107
 31
0.0
  0
ENDBLK
  5
58
330
56
100
AcDbEntity
  8
0
100
AcDbBlockEnd
  0
BLOCK
  5
5D
330
5C
100
AcDbEntity
  8
0
100
AcDbBlockBegin
  2
EDTIP_ARCHITECT_E
 70
     0
 71
     0
 10
0.0
 20
0.0
 30
0.0
  3
EDTIP_ARCHITECT_E
  1

  0
LINE
  5
5F
330
5C
100
AcDbEntity
  8
0
  6
CONTINUOUS
 62
     0
100
AcDbLine
 10
0.0
 20
0.0
 30
0.0
 11
-1.0
 21
0.0
 31
0.0
  0
LINE
  5
60
330
5C
100
AcDbEntity
  8
0
  6
CONTINUOUS
 62
     0
100
AcDbLine
 10
0.0
 20
0.0
 30
0.0
 11
-0.707107
 21
-0.707107
 31
0.0
  0
LINE
  5
61
330
5C
100
AcDbEntity
  8
0
  6
CONTINUOUS
 62
     0
100
AcDbLine
 10
0.0
 20
0.0
 30
0.0
 11
0.707107
 21
0.707107
 31
0.0
  0
ENDBLK
  5
5E
330
5C
100
AcDbEntity
  8
0
100
AcDbBlockEnd
  0
BLOCK
  5
63
330
62
100
AcDbEntity
  8
0
100
AcDbBlockBegin
  2
EDTIP_CIVIL_S
 70
     0
 71
     0
 10
0.0
 20
0.0
 30
0.0
  3
EDTIP_CIVIL_S
  1

  0
LINE
  5
65
330
62
100
AcDbEntity
  8
0
  6
CONTINUOUS
 62
     0
100
AcDbLine
 10
0.0
 20
0.0
 30
0.0
 11
-1.0
 21
0.0
 31
0.0
  0
LINE
  5
66
330
62
100
AcDbEntity
  8
0
  6
CONTINUOUS
 62
     0
100
AcDbLine
 10
0.0
 20
-0.083333
 30
0.0
 11
-1.0
 21
-0.083333
 31
0.0
  0
LINE
  5
67
330
62
100
AcDbEntity
  8
0
  6
CONTINUOUS
 62
     0
100
AcDbLine
 10
0.0
 20
-0.166667
 30
0.0
 11
-1.0
 21
-0.166667
 31
0.0
  0
ENDBLK
  5
64
330
62
100
AcDbEntity
  8
0
100
AcDbBlockEnd
  0
BLOCK
  5
69
330
68
100
AcDbEntity
  8
0
100
AcDbBlockBegin
  2
EDTIP_CIVIL_E
 70
     0
 71
     0
 10
0.0
 20
0.0
 30
0.0
  3
EDTIP_CIVIL_E
  1

  0
LINE
  5
6B
330
68
100
AcDbEntity
  8
0
  6
CONTINUOUS
 62
     0
100
AcDbLine
 10
0.0
 20
0.0
 30
0.0
 11
-1.0
 21
0.0
 31
0.0
  0
LINE
  5
6C
330
68
100
AcDbEntity
  8
0
  6
CONTINUOUS
 62
     0
100
AcDbLine
 10
0.0
 20
0.083333
 30
0.0
 11
-1.0
 21
0.083333
 31
0.0
  0
LINE
  5
6D
330
68
100
AcDbEntity
  8
0
  6
CONTINUOUS
 62
     0
100
AcDbLine
 10
0.0
 20
0.166667
 30
0.0
 11
-1.0
 21
0.166667
 31
0.0
  0
ENDBLK
  5
6A
330
68
100
AcDbEntity
  8
0
100
AcDbBlockEnd
  0
BLOCK
  5
BD
330
BC
100
AcDbEntity
  8
0
100
AcDbBlockBegin
  2
BLKF011
 70
     0
 71
     0
 10
0.0
 20
0.0
 30
0.0
  3
BLKF011
  1

  0
LINE
  5
C0
330
BC
100
AcDbEntity
  8
0
  6
CONTINUOUS
 62
     7
100
AcDbLine
 10
150.106933
 20
70.057505
 30
0.0
 11
150.066098
 21
70.057688
 31
0.0
  0
LINE
  5
C1
330
BC
100
AcDbEntity
  8
0
  6
CONTINUOUS
 62
     7
100
AcDbLine
 10
150.066098
 20
70.057688
 30
0.0
 11
150.045713
 21
70.057795
 31
0.0
  0
LINE
  5
C2
330
BC
100
AcDbEntity
  8
0
  6
CONTINUOUS
 62
     7
100
AcDbLine
 10
150.045713
 20
70.057795
 30
0.0
 11
150.025367
 21
70.05792
 31
0.0
  0
LINE
  5
C3
330
BC
100
AcDbEntity
  8
0
  6
CONTINUOUS
 62
     7
100
AcDbLine
 10
150.025367
 20
70.05792
 30
0.0
 11
150.005073
 21
70.058069
 31
0.0
  0
LINE
  5
C4
330
BC
100
AcDbEntity
  8
0
  6
CONTINUOUS
 62
     7
100
AcDbLine
 10
150.005073
 20
70.058069
 30
0.0
 11
149.984843
 21
70.058249
 31
0.0
  0
LINE
  5
C5
330
BC
100
AcDbEntity
  8
0
  6
CONTINUOUS
 62
     7
100
AcDbLine
 10
149.984843
 20
70.058249
 30
0.0
 11
149.964691
 21
70.058466
 31
0.0
  0
LINE
  5
C6
330
BC
100
AcDbEntity
  8
0
  6
CONTINUOUS
 62
     7
100
AcDbLine
 10
149.964691
 20
70.058466
 30
0.0
 11
149.944629
 21
70.058725
 31
0.0
  0
LINE
  5
C7
330
BC
100
AcDbEntity
  8
0
  6
CONTINUOUS
 62
     7
100
AcDbLine
 10
149.944629
 20
70.058725
 30
0.0
 11
149.925173
 21
70.059024
 31
0.0
  0
LINE
  5
C8
330
BC
100
AcDbEntity
  8
0
  6
CONTINUOUS
 62
     7
100
AcDbLine
 10
149.925173
 20
70.059024
 30
0.0
 11
149.905829
 21
70.059367
 31
0.0
  0
LINE
  5
C9
330
BC
100
AcDbEntity
  8
0
  6
CONTINUOUS
 62
     7
100
AcDbLine
 10
149.905829
 20
70.059367
 30
0.0
 11
149.886611
 21
70.059751
 31
0.0
  0
LINE
  5
CA
330
BC
100
AcDbEntity
  8
0
  6
CONTINUOUS
 62
     7
100
AcDbLine
 10
149.886611
 20
70.059751
 30
0.0
 11
149.867535
 21
70.060175
 31
0.0
  0
LINE
  5
CB
330
BC
100
AcDbEntity
  8
0
  6
CONTINUOUS
 62
     7
100
AcDbLine
 10
149.867535
 20
70.060175
 30
0.0
 11
149.848613
 21
70.060635
 31
0.0
  0
LINE
  5
CC
330
BC
100
AcDbEntity
  8
0
  6
CONTINUOUS
 62
     7
100
AcDbLine
 10
149.848613
 20
70.060635
 30
0.0
 11
149.829861
 21
70.06113
 31
0.0
  0
LINE
  5
CD
330
BC
100
AcDbEntity
  8
0
  6
CONTINUOUS
 62
     7
100
AcDbLine
 10
149.829861
 20
70.06113
 30
0.0
 11
149.811292
 21
70.061657
 31
0.0
  0
LINE
  5
CE
330
BC
100
AcDbEntity
  8
0
  6
CONTINUOUS
 62
     7
100
AcDbLine
 10
149.811292
 20
70.061657
 30
0.0
 11
149.79292
 21
70.062214
 31
0.0
  0
LINE
  5
CF
330
BC
100
AcDbEntity
  8
0
  6
CONTINUOUS
 62
     7
100
AcDbLine
 10
149.79292
 20
70.062214
 30
0.0
 11
149.774001
 21
70.062823
 31
0.0
  0
LINE
  5
D0
330
BC
100
AcDbEntity
  8
0
  6
CONTINUOUS
 62
     7
100
AcDbLine
 10
149.774001
 20
70.062823
 30
0.0
 11
149.755316
 21
70.06346
 31
0.0
  0
LINE
  5
D1
330
BC
100
AcDbEntity
  8
0
  6
CONTINUOUS
 62
     7
100
AcDbLine
 10
149.755316
 20
70.06346
 30
0.0
 11
149.736871
 21
70.064123
 31
0.0
  0
LINE
  5
D2
330
BC
100
AcDbEntity
  8
0
  6
CONTINUOUS
 62
     7
100
AcDbLine
 10
149.736871
 20
70.064123
 30
0.0
 11
149.718672
 21
70.064809
 31
0.0
  0
LINE
  5
D3
330
BC
100
AcDbEntity
  8
0
  6
CONTINUOUS
 62
     7
100
AcDbLine
 10
149.718672
 20
70.064809
 30
0.0
 11
149.700723
 21
70.065515
 31
0.0
  0
LINE
  5
D4
330
BC
100
AcDbEntity
  8
0
  6
CONTINUOUS
 62
     7
100
AcDbLine
 10
149.700723
 20
70.065515
 30
0.0
 11
149.683029
 21
70.066241
 31
0.0
  0
LINE
  5
D5
330
BC
100
AcDbEntity
  8
0
  6
CONTINUOUS
 62
     7
100
AcDbLine
 10
149.683029
 20
70.066241
 30
0.0
 11
149.665596
 21
70.066984
 31
0.0
  0
LINE
  5
D6
330
BC
100
AcDbEntity
  8
0
  6
CONTINUOUS
 62
     7
100
AcDbLine
 10
149.665596
 20
70.066984
 30
0.0
 11
149.648429
 21
70.067742
 31
0.0
  0
LINE
  5
D7
330
BC
100
AcDbEntity
  8
0
  6
CONTINUOUS
 62
     7
100
AcDbLine
 10
149.648429
 20
70.067742
 30
0.0
 11
149.631533
 21
70.068513
 31
0.0
  0
LINE
  5
D8
330
BC
100
AcDbEntity
  8
0
  6
CONTINUOUS
 62
     7
100
AcDbLine
 10
149.631533
 20
70.068513
 30
0.0
 11
149.614912
 21
70.069294
 31
0.0
  0
LINE
  5
D9
330
BC
100
AcDbEntity
  8
0
  6
CONTINUOUS
 62
     7
100
AcDbLine
 10
149.614912
 20
70.069294
 30
0.0
 11
149.598573
 21
70.070083
 31
0.0
  0
LINE
  5
DA
330
BC
100
AcDbEntity
  8
0
  6
CONTINUOUS
 62
     7
100
AcDbLine
 10
149.598573
 20
70.070083
 30
0.0
 11
149.58252
 21
70.070879
 31
0.0
  0
LINE
  5
DB
330
BC
100
AcDbEntity
  8
0
  6
CONTINUOUS
 62
     7
100
AcDbLine
 10
149.58252
 20
70.070879
 30
0.0
 11
149.566758
 21
70.071679
 31
0.0
  0
LINE
  5
DC
330
BC
100
AcDbEntity
  8
0
  6
CONTINUOUS
 62
     7
100
AcDbLine
 10
149.566758
 20
70.071679
 30
0.0
 11
149.551293
 21
70.072481
 31
0.0
  0
LINE
  5
DD
330
BC
100
AcDbEntity
  8
0
  6
CONTINUOUS
 62
     7
100
AcDbLine
 10
149.551293
 20
70.072481
 30
0.0
 11
149.536129
 21
70.073284
 31
0.0
  0
LINE
  5
DE
330
BC
100
AcDbEntity
  8
0
  6
CONTINUOUS
 62
     7
100
AcDbLine
 10
149.536129
 20
70.073284
 30
0.0
 11
149.521272
 21
70.074084
 31
0.0
  0
LINE
  5
DF
330
BC
100
AcDbEntity
  8
0
  6
CONTINUOUS
 62
     7
100
AcDbLine
 10
149.521272
 20
70.074084
 30
0.0
 11
149.506692
 21
70.074882
 31
0.0
  0
LINE
  5
E0
330
BC
100
AcDbEntity
  8
0
  6
CONTINUOUS
 62
     7
100
AcDbLine
 10
149.506692
 20
70.074882
 30
0.0
 11
149.492437
 21
70.075674
 31
0.0
  0
LINE
  5
E1
330
BC
100
AcDbEntity
  8
0
  6
CONTINUOUS
 62
     7
100
AcDbLine
 10
149.492437
 20
70.075674
 30
0.0
 11
149.464948
 21
70.077237
 31
0.0
  0
LINE
  5
E2
330
BC
100
AcDbEntity
  8
0
  6
CONTINUOUS
 62
     7
100
AcDbLine
 10
149.464948
 20
70.077237
 30
0.0
 11
149.438901
 21
70.078761
 31
0.0
  0
LINE
  5
E3
330
BC
100
AcDbEntity
  8
0
  6
CONTINUOUS
 62
     7
100
AcDbLine
 10
149.438901
 20
70.078761
 30
0.0
 11
149.414388
 21
70.080236
 31
0.0
  0
LINE
  5
E4
330
BC
100
AcDbEntity
  8
0
  6
CONTINUOUS
 62
     7
100
AcDbLine
 10
149.414388
 20
70.080236
 30
0.0
 11
149.391502
 21
70.081652
 31
0.0
  0
LINE
  5
E5
330
BC
100
AcDbEntity
  8
0
  6
CONTINUOUS
 62
     7
100
AcDbLine
 10
149.391502
 20
70.081652
 30
0.0
 11
149.370338
 21
70.082998
 31
0.0
  0
LINE
  5
E6
330
BC
100
AcDbEntity
  8
0
  6
CONTINUOUS
 62
     7
100
AcDbLine
 10
149.370338
 20
70.082998
 30
0.0
 11
149.350988
 21
70.084263
 31
0.0
  0
LINE
  5
E7
330
BC
100
AcDbEntity
  8
0
  6
CONTINUOUS
 62
     7
100
AcDbLine
 10
149.350988
 20
70.084263
 30
0.0
 11
149.333547
 21
70.085437
 31
0.0
  0
LINE
  5
E8
330
BC
100
AcDbEntity
  8
0
  6
CONTINUOUS
 62
     7
100
AcDbLine
 10
149.333547
 20
70.085437
 30
0.0
 11
149.318637
 21
70.08647
 31
0.0
  0
LINE
  5
E9
330
BC
100
AcDbEntity
  8
0
  6
CONTINUOUS
 62
     7
100
AcDbLine
 10
149.318637
 20
70.08647
 30
0.0
 11
149.30574
 21
70.087388
 31
0.0
  0
LINE
  5
EA
330
BC
100
AcDbEntity
  8
0
  6
CONTINUOUS
 62
     7
100
AcDbLine
 10
149.30574
 20
70.087388
 30
0.0
 11
149.286601
 21
70.088796
 31
0.0
  0
LINE
  5
EB
330
BC
100
AcDbEntity
  8
0
  6
CONTINUOUS
 62
     7
100
AcDbLine
 10
149.286601
 20
70.088796
 30
0.0
 11
149.276164
 21
70.089594
 31
0.0
  0
LINE
  5
EC
330
BC
100
AcDbEntity
  8
0
  6
CONTINUOUS
 62
     7
100
AcDbLine
 10
149.276164
 20
70.089594
 30
0.0
 11
149.27094
 21
70.090018
 31
0.0
  0
ENDBLK
  5
BE
330
BC
100
AcDbEntity
  8
0
100
AcDbBlockEnd
  0
BLOCK
  5
EF
330
EE
100
AcDbEntity
  8
0
100
AcDbBlockBegin
  2
BLKF012
 70
     0
 71
     0
 10
0.0
 20
0.0
 30
0.0
  3
BLKF012
  1

  0
LINE
  5
F2
330
EE
100
AcDbEntity
  8
0
  6
CONTINUOUS
 62
     7
100
AcDbLine
 10
150.942895
 20
70.090016
 30
0.0
 11
150.942932
 21
70.090019
 31
0.0
  0
LINE
  5
F3
330
EE
100
AcDbEntity
  8
0
  6
CONTINUOUS
 62
     7
100
AcDbLine
 10
150.942932
 20
70.090019
 30
0.0
 11
150.943724
 21
70.090078
 31
0.0
  0
LINE
  5
F4
330
EE
100
AcDbEntity
  8
0
  6
CONTINUOUS
 62
     7
100
AcDbLine
 10
150.943724
 20
70.090078
 30
0.0
 11
150.944207
 21
70.090112
 31
0.0
  0
LINE
  5
F5
330
EE
100
AcDbEntity
  8
0
  6
CONTINUOUS
 62
     7
100
AcDbLine
 10
150.944207
 20
70.090112
 30
0.0
 11
150.944399
 21
70.090124
 31
0.0
  0
LINE
  5
F6
330
EE
100
AcDbEntity
  8
0
  6
CONTINUOUS
 62
     7
100
AcDbLine
 10
150.944399
 20
70.090124
 30
0.0
 11
150.944314
 21
70.090115
 31
0.0
  0
LINE
  5
F7
330
EE
100
AcDbEntity
  8
0
  6
CONTINUOUS
 62
     7
100
AcDbLine
 10
150.944314
 20
70.090115
 30
0.0
 11
150.943373
 21
70.090037
 31
0.0
  0
LINE
  5
F8
330
EE
100
AcDbEntity
  8
0
  6
CONTINUOUS
 62
     7
100
AcDbLine
 10
150.943373
 20
70.090037
 30
0.0
 11
150.942549
 21
70.089971
 31
0.0
  0
LINE
  5
F9
330
EE
100
AcDbEntity
  8
0
  6
CONTINUOUS
 62
     7
100
AcDbLine
 10
150.942549
 20
70.089971
 30
0.0
 11
150.94151
 21
70.089889
 31
0.0
  0
LINE
  5
FA
330
EE
100
AcDbEntity
  8
0
  6
CONTINUOUS
 62
     7
100
AcDbLine
 10
150.94151
 20
70.089889
 30
0.0
 11
150.94027
 21
70.089791
 31
0.0
  0
LINE
  5
FB
330
EE
100
AcDbEntity
  8
0
  6
CONTINUOUS
 62
     7
100
AcDbLine
 10
150.94027
 20
70.089791
 30
0.0
 11
150.938845
 21
70.089679
 31
0.0
  0
LINE
  5
FC
330
EE
100
AcDbEntity
  8
0
  6
CONTINUOUS
 62
     7
100
AcDbLine
 10
150.938845
 20
70.089679
 30
0.0
 11
150.93725
 21
70.089555
 31
0.0
  0
LINE
  5
FD
330
EE
100
AcDbEntity
  8
0
  6
CONTINUOUS
 62
     7
100
AcDbLine
 10
150.93725
 20
70.089555
 30
0.0
 11
150.935502
 21
70.08942
 31
0.0
  0
LINE
  5
FE
330
EE
100
AcDbEntity
  8
0
  6
CONTINUOUS
 62
     7
100
AcDbLine
 10
150.935502
 20
70.08942
 30
0.0
 11
150.933614
 21
70.089275
 31
0.0
  0
LINE
  5
FF
330
EE
100
AcDbEntity
  8
0
  6
CONTINUOUS
 62
     7
100
AcDbLine
 10
150.933614
 20
70.089275
 30
0.0
 11
150.931603
 21
70.089121
 31
0.0
  0
LINE
  5
100
330
EE
100
AcDbEntity
  8
0
  6
CONTINUOUS
 62
     7
100
AcDbLine
 10
150.931603
 20
70.089121
 30
0.0
 11
150.929484
 21
70.088959
 31
0.0
  0
LINE
  5
101
330
EE
100
AcDbEntity
  8
0
  6
CONTINUOUS
 62
     7
100
AcDbLine
 10
150.929484
 20
70.088959
 30
0.0
 11
150.927271
 21
70.088791
 31
0.0
  0
LINE
  5
102
330
EE
100
AcDbEntity
  8
0
  6
CONTINUOUS
 62
     7
100
AcDbLine
 10
150.927271
 20
70.088791
 30
0.0
 11
150.925039
 21
70.088623
 31
0.0
  0
LINE
  5
103
330
EE
100
AcDbEntity
  8
0
  6
CONTINUOUS
 62
     7
100
AcDbLine
 10
150.925039
 20
70.088623
 30
0.0
 11
150.922729
 21
70.088449
 31
0.0
  0
LINE
  5
104
330
EE
100
AcDbEntity
  8
0
  6
CONTINUOUS
 62
     7
100
AcDbLine
 10
150.922729
 20
70.088449
 30
0.0
 11
150.920339
 21
70.088271
 31
0.0
  0
LINE
  5
105
330
EE
100
AcDbEntity
  8
0
  6
CONTINUOUS
 62
     7
100
AcDbLine
 10
150.920339
 20
70.088271
 30
0.0
 11
150.917864
 21
70.088088
 31
0.0
  0
LINE
  5
106
330
EE
100
AcDbEntity
  8
0
  6
CONTINUOUS
 62
     7
100
AcDbLine
 10
150.917864
 20
70.088088
 30
0.0
 11
150.915301
 21
70.087899
 31
0.0
  0
LINE
  5
107
330
EE
100
AcDbEntity
  8
0
  6
CONTINUOUS
 62
     7
100
AcDbLine
 10
150.915301
 20
70.087899
 30
0.0
 11
150.912648
 21
70.087705
 31
0.0
  0
LINE
  5
108
330
EE
100
AcDbEntity
  8
0
  6
CONTINUOUS
 62
     7
100
AcDbLine
 10
150.912648
 20
70.087705
 30
0.0
 11
150.909899
 21
70.087505
 31
0.0
  0
LINE
  5
109
330
EE
100
AcDbEntity
  8
0
  6
CONTINUOUS
 62
     7
100
AcDbLine
 10
150.909899
 20
70.087505
 30
0.0
 11
150.907052
 21
70.0873
 31
0.0
  0
LINE
  5
10A
330
EE
100
AcDbEntity
  8
0
  6
CONTINUOUS
 62
     7
100
AcDbLine
 10
150.907052
 20
70.0873
 30
0.0
 11
150.904102
 21
70.087088
 31
0.0
  0
LINE
  5
10B
330
EE
100
AcDbEntity
  8
0
  6
CONTINUOUS
 62
     7
100
AcDbLine
 10
150.904102
 20
70.087088
 30
0.0
 11
150.901047
 21
70.086871
 31
0.0
  0
LINE
  5
10C
330
EE
100
AcDbEntity
  8
0
  6
CONTINUOUS
 62
     7
100
AcDbLine
 10
150.901047
 20
70.086871
 30
0.0
 11
150.897884
 21
70.086647
 31
0.0
  0
LINE
  5
10D
330
EE
100
AcDbEntity
  8
0
  6
CONTINUOUS
 62
     7
100
AcDbLine
 10
150.897884
 20
70.086647
 30
0.0
 11
150.894607
 21
70.086417
 31
0.0
  0
LINE
  5
10E
330
EE
100
AcDbEntity
  8
0
  6
CONTINUOUS
 62
     7
100
AcDbLine
 10
150.894607
 20
70.086417
 30
0.0
 11
150.891214
 21
70.086181
 31
0.0
  0
LINE
  5
10F
330
EE
100
AcDbEntity
  8
0
  6
CONTINUOUS
 62
     7
100
AcDbLine
 10
150.891214
 20
70.086181
 30
0.0
 11
150.889473
 21
70.086061
 31
0.0
  0
LINE
  5
110
330
EE
100
AcDbEntity
  8
0
  6
CONTINUOUS
 62
     7
100
AcDbLine
 10
150.889473
 20
70.086061
 30
0.0
 11
150.887701
 21
70.085938
 31
0.0
  0
LINE
  5
111
330
EE
100
AcDbEntity
  8
0
  6
CONTINUOUS
 62
     7
100
AcDbLine
 10
150.887701
 20
70.085938
 30
0.0
 11
150.885899
 21
70.085814
 31
0.0
  0
LINE
  5
112
330
EE
100
AcDbEntity
  8
0
  6
CONTINUOUS
 62
     7
100
AcDbLine
 10
150.885899
 20
70.085814
 30
0.0
 11
150.884066
 21
70.085689
 31
0.0
  0
LINE
  5
113
330
EE
100
AcDbEntity
  8
0
  6
CONTINUOUS
 62
     7
100
AcDbLine
 10
150.884066
 20
70.085689
 30
0.0
 11
150.8822
 21
70.085561
 31
0.0
  0
LINE
  5
114
330
EE
100
AcDbEntity
  8
0
  6
CONTINUOUS
 62
     7
100
AcDbLine
 10
150.8822
 20
70.085561
 30
0.0
 11
150.880303
 21
70.085432
 31
0.0
  0
LINE
  5
115
330
EE
100
AcDbEntity
  8
0
  6
CONTINUOUS
 62
     7
100
AcDbLine
 10
150.880303
 20
70.085432
 30
0.0
 11
150.878298
 21
70.085296
 31
0.0
  0
LINE
  5
116
330
EE
100
AcDbEntity
  8
0
  6
CONTINUOUS
 62
     7
100
AcDbLine
 10
150.878298
 20
70.085296
 30
0.0
 11
150.876258
 21
70.085158
 31
0.0
  0
LINE
  5
117
330
EE
100
AcDbEntity
  8
0
  6
CONTINUOUS
 62
     7
100
AcDbLine
 10
150.876258
 20
70.085158
 30
0.0
 11
150.874183
 21
70.085018
 31
0.0
  0
LINE
  5
118
330
EE
100
AcDbEntity
  8
0
  6
CONTINUOUS
 62
     7
100
AcDbLine
 10
150.874183
 20
70.085018
 30
0.0
 11
150.872074
 21
70.084877
 31
0.0
  0
LINE
  5
119
330
EE
100
AcDbEntity
  8
0
  6
CONTINUOUS
 62
     7
100
AcDbLine
 10
150.872074
 20
70.084877
 30
0.0
 11
150.869931
 21
70.084733
 31
0.0
  0
LINE
  5
11A
330
EE
100
AcDbEntity
  8
0
  6
CONTINUOUS
 62
     7
100
AcDbLine
 10
150.869931
 20
70.084733
 30
0.0
 11
150.867754
 21
70.084588
 31
0.0
  0
LINE
  5
11B
330
EE
100
AcDbEntity
  8
0
  6
CONTINUOUS
 62
     7
100
AcDbLine
 10
150.867754
 20
70.084588
 30
0.0
 11
150.865543
 21
70.084441
 31
0.0
  0
LINE
  5
11C
330
EE
100
AcDbEntity
  8
0
  6
CONTINUOUS
 62
     7
100
AcDbLine
 10
150.865543
 20
70.084441
 30
0.0
 11
150.863299
 21
70.084293
 31
0.0
  0
LINE
  5
11D
330
EE
100
AcDbEntity
  8
0
  6
CONTINUOUS
 62
     7
100
AcDbLine
 10
150.863299
 20
70.084293
 30
0.0
 11
150.861022
 21
70.084143
 31
0.0
  0
LINE
  5
11E
330
EE
100
AcDbEntity
  8
0
  6
CONTINUOUS
 62
     7
100
AcDbLine
 10
150.861022
 20
70.084143
 30
0.0
 11
150.858712
 21
70.083991
 31
0.0
  0
LINE
  5
11F
330
EE
100
AcDbEntity
  8
0
  6
CONTINUOUS
 62
     7
100
AcDbLine
 10
150.858712
 20
70.083991
 30
0.0
 11
150.856369
 21
70.083837
 31
0.0
  0
LINE
  5
120
330
EE
100
AcDbEntity
  8
0
  6
CONTINUOUS
 62
     7
100
AcDbLine
 10
150.856369
 20
70.083837
 30
0.0
 11
150.853995
 21
70.083682
 31
0.0
  0
LINE
  5
121
330
EE
100
AcDbEntity
  8
0
  6
CONTINUOUS
 62
     7
100
AcDbLine
 10
150.853995
 20
70.083682
 30
0.0
 11
150.851588
 21
70.083525
 31
0.0
  0
LINE
  5
122
330
EE
100
AcDbEntity
  8
0
  6
CONTINUOUS
 62
     7
100
AcDbLine
 10
150.851588
 20
70.083525
 30
0.0
 11
150.849149
 21
70.083367
 31
0.0
  0
LINE
  5
123
330
EE
100
AcDbEntity
  8
0
  6
CONTINUOUS
 62
     7
100
AcDbLine
 10
150.849149
 20
70.083367
 30
0.0
 11
150.846679
 21
70.083207
 31
0.0
  0
LINE
  5
124
330
EE
100
AcDbEntity
  8
0
  6
CONTINUOUS
 62
     7
100
AcDbLine
 10
150.846679
 20
70.083207
 30
0.0
 11
150.844177
 21
70.083046
 31
0.0
  0
LINE
  5
125
330
EE
100
AcDbEntity
  8
0
  6
CONTINUOUS
 62
     7
100
AcDbLine
 10
150.844177
 20
70.083046
 30
0.0
 11
150.841645
 21
70.082883
 31
0.0
  0
LINE
  5
126
330
EE
100
AcDbEntity
  8
0
  6
CONTINUOUS
 62
     7
100
AcDbLine
 10
150.841645
 20
70.082883
 30
0.0
 11
150.839082
 21
70.082719
 31
0.0
  0
LINE
  5
127
330
EE
100
AcDbEntity
  8
0
  6
CONTINUOUS
 62
     7
100
AcDbLine
 10
150.839082
 20
70.082719
 30
0.0
 11
150.836488
 21
70.082553
 31
0.0
  0
LINE
  5
128
330
EE
100
AcDbEntity
  8
0
  6
CONTINUOUS
 62
     7
100
AcDbLine
 10
150.836488
 20
70.082553
 30
0.0
 11
150.833864
 21
70.082386
 31
0.0
  0
LINE
  5
129
330
EE
100
AcDbEntity
  8
0
  6
CONTINUOUS
 62
     7
100
AcDbLine
 10
150.833864
 20
70.082386
 30
0.0
 11
150.83121
 21
70.082218
 31
0.0
  0
LINE
  5
12A
330
EE
100
AcDbEntity
  8
0
  6
CONTINUOUS
 62
     7
100
AcDbLine
 10
150.83121
 20
70.082218
 30
0.0
 11
150.828527
 21
70.082048
 31
0.0
  0
LINE
  5
12B
330
EE
100
AcDbEntity
  8
0
  6
CONTINUOUS
 62
     7
100
AcDbLine
 10
150.828527
 20
70.082048
 30
0.0
 11
150.825814
 21
70.081877
 31
0.0
  0
LINE
  5
12C
330
EE
100
AcDbEntity
  8
0
  6
CONTINUOUS
 62
     7
100
AcDbLine
 10
150.825814
 20
70.081877
 30
0.0
 11
150.823072
 21
70.081704
 31
0.0
  0
LINE
  5
12D
330
EE
100
AcDbEntity
  8
0
  6
CONTINUOUS
 62
     7
100
AcDbLine
 10
150.823072
 20
70.081704
 30
0.0
 11
150.8203
 21
70.081531
 31
0.0
  0
LINE
  5
12E
330
EE
100
AcDbEntity
  8
0
  6
CONTINUOUS
 62
     7
100
AcDbLine
 10
150.8203
 20
70.081531
 30
0.0
 11
150.817501
 21
70.081356
 31
0.0
  0
LINE
  5
12F
330
EE
100
AcDbEntity
  8
0
  6
CONTINUOUS
 62
     7
100
AcDbLine
 10
150.817501
 20
70.081356
 30
0.0
 11
150.814673
 21
70.08118
 31
0.0
  0
LINE
  5
130
330
EE
100
AcDbEntity
  8
0
  6
CONTINUOUS
 62
     7
100
AcDbLine
 10
150.814673
 20
70.08118
 30
0.0
 11
150.811816
 21
70.081003
 31
0.0
  0
LINE
  5
131
330
EE
100
AcDbEntity
  8
0
  6
CONTINUOUS
 62
     7
100
AcDbLine
 10
150.811816
 20
70.081003
 30
0.0
 11
150.808932
 21
70.080824
 31
0.0
  0
LINE
  5
132
330
EE
100
AcDbEntity
  8
0
  6
CONTINUOUS
 62
     7
100
AcDbLine
 10
150.808932
 20
70.080824
 30
0.0
 11
150.80602
 21
70.080645
 31
0.0
  0
LINE
  5
133
330
EE
100
AcDbEntity
  8
0
  6
CONTINUOUS
 62
     7
100
AcDbLine
 10
150.80602
 20
70.080645
 30
0.0
 11
150.803081
 21
70.080464
 31
0.0
  0
LINE
  5
134
330
EE
100
AcDbEntity
  8
0
  6
CONTINUOUS
 62
     7
100
AcDbLine
 10
150.803081
 20
70.080464
 30
0.0
 11
150.800115
 21
70.080282
 31
0.0
  0
LINE
  5
135
330
EE
100
AcDbEntity
  8
0
  6
CONTINUOUS
 62
     7
100
AcDbLine
 10
150.800115
 20
70.080282
 30
0.0
 11
150.797122
 21
70.0801
 31
0.0
  0
LINE
  5
136
330
EE
100
AcDbEntity
  8
0
  6
CONTINUOUS
 62
     7
100
AcDbLine
 10
150.797122
 20
70.0801
 30
0.0
 11
150.794102
 21
70.079916
 31
0.0
  0
LINE
  5
137
330
EE
100
AcDbEntity
  8
0
  6
CONTINUOUS
 62
     7
100
AcDbLine
 10
150.794102
 20
70.079916
 30
0.0
 11
150.791056
 21
70.079731
 31
0.0
  0
LINE
  5
138
330
EE
100
AcDbEntity
  8
0
  6
CONTINUOUS
 62
     7
100
AcDbLine
 10
150.791056
 20
70.079731
 30
0.0
 11
150.787984
 21
70.079546
 31
0.0
  0
LINE
  5
139
330
EE
100
AcDbEntity
  8
0
  6
CONTINUOUS
 62
     7
100
AcDbLine
 10
150.787984
 20
70.079546
 30
0.0
 11
150.784886
 21
70.079359
 31
0.0
  0
LINE
  5
13A
330
EE
100
AcDbEntity
  8
0
  6
CONTINUOUS
 62
     7
100
AcDbLine
 10
150.784886
 20
70.079359
 30
0.0
 11
150.781763
 21
70.079171
 31
0.0
  0
LINE
  5
13B
330
EE
100
AcDbEntity
  8
0
  6
CONTINUOUS
 62
     7
100
AcDbLine
 10
150.781763
 20
70.079171
 30
0.0
 11
150.778614
 21
70.078983
 31
0.0
  0
LINE
  5
13C
330
EE
100
AcDbEntity
  8
0
  6
CONTINUOUS
 62
     7
100
AcDbLine
 10
150.778614
 20
70.078983
 30
0.0
 11
150.77544
 21
70.078794
 31
0.0
  0
LINE
  5
13D
330
EE
100
AcDbEntity
  8
0
  6
CONTINUOUS
 62
     7
100
AcDbLine
 10
150.77544
 20
70.078794
 30
0.0
 11
150.772242
 21
70.078603
 31
0.0
  0
LINE
  5
13E
330
EE
100
AcDbEntity
  8
0
  6
CONTINUOUS
 62
     7
100
AcDbLine
 10
150.772242
 20
70.078603
 30
0.0
 11
150.769019
 21
70.078412
 31
0.0
  0
LINE
  5
13F
330
EE
100
AcDbEntity
  8
0
  6
CONTINUOUS
 62
     7
100
AcDbLine
 10
150.769019
 20
70.078412
 30
0.0
 11
150.765772
 21
70.078221
 31
0.0
  0
LINE
  5
140
330
EE
100
AcDbEntity
  8
0
  6
CONTINUOUS
 62
     7
100
AcDbLine
 10
150.765772
 20
70.078221
 30
0.0
 11
150.762501
 21
70.078028
 31
0.0
  0
LINE
  5
141
330
EE
100
AcDbEntity
  8
0
  6
CONTINUOUS
 62
     7
100
AcDbLine
 10
150.762501
 20
70.078028
 30
0.0
 11
150.759206
 21
70.077835
 31
0.0
  0
LINE
  5
142
330
EE
100
AcDbEntity
  8
0
  6
CONTINUOUS
 62
     7
100
AcDbLine
 10
150.759206
 20
70.077835
 30
0.0
 11
150.755887
 21
70.077641
 31
0.0
  0
LINE
  5
143
330
EE
100
AcDbEntity
  8
0
  6
CONTINUOUS
 62
     7
100
AcDbLine
 10
150.755887
 20
70.077641
 30
0.0
 11
150.752546
 21
70.077447
 31
0.0
  0
LINE
  5
144
330
EE
100
AcDbEntity
  8
0
  6
CONTINUOUS
 62
     7
100
AcDbLine
 10
150.752546
 20
70.077447
 30
0.0
 11
150.749181
 21
70.077251
 31
0.0
  0
LINE
  5
145
330
EE
100
AcDbEntity
  8
0
  6
CONTINUOUS
 62
     7
100
AcDbLine
 10
150.749181
 20
70.077251
 30
0.0
 11
150.745794
 21
70.077056
 31
0.0
  0
LINE
  5
146
330
EE
100
AcDbEntity
  8
0
  6
CONTINUOUS
 62
     7
100
AcDbLine
 10
150.745794
 20
70.077056
 30
0.0
 11
150.742385
 21
70.076859
 31
0.0
  0
LINE
  5
147
330
EE
100
AcDbEntity
  8
0
  6
CONTINUOUS
 62
     7
100
AcDbLine
 10
150.742385
 20
70.076859
 30
0.0
 11
150.738953
 21
70.076662
 31
0.0
  0
LINE
  5
148
330
EE
100
AcDbEntity
  8
0
  6
CONTINUOUS
 62
     7
100
AcDbLine
 10
150.738953
 20
70.076662
 30
0.0
 11
150.7355
 21
70.076465
 31
0.0
  0
LINE
  5
149
330
EE
100
AcDbEntity
  8
0
  6
CONTINUOUS
 62
     7
100
AcDbLine
 10
150.7355
 20
70.076465
 30
0.0
 11
150.732024
 21
70.076267
 31
0.0
  0
LINE
  5
14A
330
EE
100
AcDbEntity
  8
0
  6
CONTINUOUS
 62
     7
100
AcDbLine
 10
150.732024
 20
70.076267
 30
0.0
 11
150.728528
 21
70.076068
 31
0.0
  0
LINE
  5
14B
330
EE
100
AcDbEntity
  8
0
  6
CONTINUOUS
 62
     7
100
AcDbLine
 10
150.728528
 20
70.076068
 30
0.0
 11
150.72501
 21
70.075869
 31
0.0
  0
LINE
  5
14C
330
EE
100
AcDbEntity
  8
0
  6
CONTINUOUS
 62
     7
100
AcDbLine
 10
150.72501
 20
70.075869
 30
0.0
 11
150.721472
 21
70.07567
 31
0.0
  0
LINE
  5
14D
330
EE
100
AcDbEntity
  8
0
  6
CONTINUOUS
 62
     7
100
AcDbLine
 10
150.721472
 20
70.07567
 30
0.0
 11
150.717912
 21
70.07547
 31
0.0
  0
LINE
  5
14E
330
EE
100
AcDbEntity
  8
0
  6
CONTINUOUS
 62
     7
100
AcDbLine
 10
150.717912
 20
70.07547
 30
0.0
 11
150.714333
 21
70.07527
 31
0.0
  0
LINE
  5
14F
330
EE
100
AcDbEntity
  8
0
  6
CONTINUOUS
 62
     7
100
AcDbLine
 10
150.714333
 20
70.07527
 30
0.0
 11
150.710733
 21
70.075069
 31
0.0
  0
LINE
  5
150
330
EE
100
AcDbEntity
  8
0
  6
CONTINUOUS
 62
     7
100
AcDbLine
 10
150.710733
 20
70.075069
 30
0.0
 11
150.707114
 21
70.074868
 31
0.0
  0
LINE
  5
151
330
EE
100
AcDbEntity
  8
0
  6
CONTINUOUS
 62
     7
100
AcDbLine
 10
150.707114
 20
70.074868
 30
0.0
 11
150.703475
 21
70.074667
 31
0.0
  0
LINE
  5
152
330
EE
100
AcDbEntity
  8
0
  6
CONTINUOUS
 62
     7
100
AcDbLine
 10
150.703475
 20
70.074667
 30
0.0
 11
150.699817
 21
70.074466
 31
0.0
  0
LINE
  5
153
330
EE
100
AcDbEntity
  8
0
  6
CONTINUOUS
 62
     7
100
AcDbLine
 10
150.699817
 20
70.074466
 30
0.0
 11
150.69614
 21
70.074264
 31
0.0
  0
LINE
  5
154
330
EE
100
AcDbEntity
  8
0
  6
CONTINUOUS
 62
     7
100
AcDbLine
 10
150.69614
 20
70.074264
 30
0.0
 11
150.692444
 21
70.074062
 31
0.0
  0
LINE
  5
155
330
EE
100
AcDbEntity
  8
0
  6
CONTINUOUS
 62
     7
100
AcDbLine
 10
150.692444
 20
70.074062
 30
0.0
 11
150.68874
 21
70.073861
 31
0.0
  0
LINE
  5
156
330
EE
100
AcDbEntity
  8
0
  6
CONTINUOUS
 62
     7
100
AcDbLine
 10
150.68874
 20
70.073861
 30
0.0
 11
150.685018
 21
70.073659
 31
0.0
  0
LINE
  5
157
330
EE
100
AcDbEntity
  8
0
  6
CONTINUOUS
 62
     7
100
AcDbLine
 10
150.685018
 20
70.073659
 30
0.0
 11
150.681278
 21
70.073458
 31
0.0
  0
LINE
  5
158
330
EE
100
AcDbEntity
  8
0
  6
CONTINUOUS
 62
     7
100
AcDbLine
 10
150.681278
 20
70.073458
 30
0.0
 11
150.67752
 21
70.073256
 31
0.0
  0
LINE
  5
159
330
EE
100
AcDbEntity
  8
0
  6
CONTINUOUS
 62
     7
100
AcDbLine
 10
150.67752
 20
70.073256
 30
0.0
 11
150.673743
 21
70.073054
 31
0.0
  0
LINE
  5
15A
330
EE
100
AcDbEntity
  8
0
  6
CONTINUOUS
 62
     7
100
AcDbLine
 10
150.673743
 20
70.073054
 30
0.0
 11
150.669949
 21
70.072852
 31
0.0
  0
LINE
  5
15B
330
EE
100
AcDbEntity
  8
0
  6
CONTINUOUS
 62
     7
100
AcDbLine
 10
150.669949
 20
70.072852
 30
0.0
 11
150.666136
 21
70.07265
 31
0.0
  0
LINE
  5
15C
330
EE
100
AcDbEntity
  8
0
  6
CONTINUOUS
 62
     7
100
AcDbLine
 10
150.666136
 20
70.07265
 30
0.0
 11
150.662305
 21
70.072448
 31
0.0
  0
LINE
  5
15D
330
EE
100
AcDbEntity
  8
0
  6
CONTINUOUS
 62
     7
100
AcDbLine
 10
150.662305
 20
70.072448
 30
0.0
 11
150.658457
 21
70.072246
 31
0.0
  0
LINE
  5
15E
330
EE
100
AcDbEntity
  8
0
  6
CONTINUOUS
 62
     7
100
AcDbLine
 10
150.658457
 20
70.072246
 30
0.0
 11
150.65459
 21
70.072044
 31
0.0
  0
LINE
  5
15F
330
EE
100
AcDbEntity
  8
0
  6
CONTINUOUS
 62
     7
100
AcDbLine
 10
150.65459
 20
70.072044
 30
0.0
 11
150.650706
 21
70.071843
 31
0.0
  0
LINE
  5
160
330
EE
100
AcDbEntity
  8
0
  6
CONTINUOUS
 62
     7
100
AcDbLine
 10
150.650706
 20
70.071843
 30
0.0
 11
150.646803
 21
70.071641
 31
0.0
  0
LINE
  5
161
330
EE
100
AcDbEntity
  8
0
  6
CONTINUOUS
 62
     7
100
AcDbLine
 10
150.646803
 20
70.071641
 30
0.0
 11
150.642883
 21
70.07144
 31
0.0
  0
LINE
  5
162
330
EE
100
AcDbEntity
  8
0
  6
CONTINUOUS
 62
     7
100
AcDbLine
 10
150.642883
 20
70.07144
 30
0.0
 11
150.638946
 21
70.071239
 31
0.0
  0
LINE
  5
163
330
EE
100
AcDbEntity
  8
0
  6
CONTINUOUS
 62
     7
100
AcDbLine
 10
150.638946
 20
70.071239
 30
0.0
 11
150.63499
 21
70.071038
 31
0.0
  0
LINE
  5
164
330
EE
100
AcDbEntity
  8
0
  6
CONTINUOUS
 62
     7
100
AcDbLine
 10
150.63499
 20
70.071038
 30
0.0
 11
150.631018
 21
70.070838
 31
0.0
  0
LINE
  5
165
330
EE
100
AcDbEntity
  8
0
  6
CONTINUOUS
 62
     7
100
AcDbLine
 10
150.631018
 20
70.070838
 30
0.0
 11
150.627027
 21
70.070638
 31
0.0
  0
LINE
  5
166
330
EE
100
AcDbEntity
  8
0
  6
CONTINUOUS
 62
     7
100
AcDbLine
 10
150.627027
 20
70.070638
 30
0.0
 11
150.623019
 21
70.070438
 31
0.0
  0
LINE
  5
167
330
EE
100
AcDbEntity
  8
0
  6
CONTINUOUS
 62
     7
100
AcDbLine
 10
150.623019
 20
70.070438
 30
0.0
 11
150.618994
 21
70.070238
 31
0.0
  0
LINE
  5
168
330
EE
100
AcDbEntity
  8
0
  6
CONTINUOUS
 62
     7
100
AcDbLine
 10
150.618994
 20
70.070238
 30
0.0
 11
150.614952
 21
70.070039
 31
0.0
  0
LINE
  5
169
330
EE
100
AcDbEntity
  8
0
  6
CONTINUOUS
 62
     7
100
AcDbLine
 10
150.614952
 20
70.070039
 30
0.0
 11
150.610892
 21
70.069841
 31
0.0
  0
LINE
  5
16A
330
EE
100
AcDbEntity
  8
0
  6
CONTINUOUS
 62
     7
100
AcDbLine
 10
150.610892
 20
70.069841
 30
0.0
 11
150.606815
 21
70.069643
 31
0.0
  0
LINE
  5
16B
330
EE
100
AcDbEntity
  8
0
  6
CONTINUOUS
 62
     7
100
AcDbLine
 10
150.606815
 20
70.069643
 30
0.0
 11
150.602721
 21
70.069445
 31
0.0
  0
LINE
  5
16C
330
EE
100
AcDbEntity
  8
0
  6
CONTINUOUS
 62
     7
100
AcDbLine
 10
150.602721
 20
70.069445
 30
0.0
 11
150.598609
 21
70.069248
 31
0.0
  0
LINE
  5
16D
330
EE
100
AcDbEntity
  8
0
  6
CONTINUOUS
 62
     7
100
AcDbLine
 10
150.598609
 20
70.069248
 30
0.0
 11
150.594481
 21
70.069052
 31
0.0
  0
LINE
  5
16E
330
EE
100
AcDbEntity
  8
0
  6
CONTINUOUS
 62
     7
100
AcDbLine
 10
150.594481
 20
70.069052
 30
0.0
 11
150.590335
 21
70.068856
 31
0.0
  0
LINE
  5
16F
330
EE
100
AcDbEntity
  8
0
  6
CONTINUOUS
 62
     7
100
AcDbLine
 10
150.590335
 20
70.068856
 30
0.0
 11
150.588256
 21
70.068758
 31
0.0
  0
LINE
  5
170
330
EE
100
AcDbEntity
  8
0
  6
CONTINUOUS
 62
     7
100
AcDbLine
 10
150.588256
 20
70.068758
 30
0.0
 11
150.586173
 21
70.06866
 31
0.0
  0
LINE
  5
171
330
EE
100
AcDbEntity
  8
0
  6
CONTINUOUS
 62
     7
100
AcDbLine
 10
150.586173
 20
70.06866
 30
0.0
 11
150.584085
 21
70.068563
 31
0.0
  0
LINE
  5
172
330
EE
100
AcDbEntity
  8
0
  6
CONTINUOUS
 62
     7
100
AcDbLine
 10
150.584085
 20
70.068563
 30
0.0
 11
150.581994
 21
70.068466
 31
0.0
  0
LINE
  5
173
330
EE
100
AcDbEntity
  8
0
  6
CONTINUOUS
 62
     7
100
AcDbLine
 10
150.581994
 20
70.068466
 30
0.0
 11
150.579898
 21
70.068369
 31
0.0
  0
LINE
  5
174
330
EE
100
AcDbEntity
  8
0
  6
CONTINUOUS
 62
     7
100
AcDbLine
 10
150.579898
 20
70.068369
 30
0.0
 11
150.577798
 21
70.068272
 31
0.0
  0
LINE
  5
175
330
EE
100
AcDbEntity
  8
0
  6
CONTINUOUS
 62
     7
100
AcDbLine
 10
150.577798
 20
70.068272
 30
0.0
 11
150.575693
 21
70.068175
 31
0.0
  0
LINE
  5
176
330
EE
100
AcDbEntity
  8
0
  6
CONTINUOUS
 62
     7
100
AcDbLine
 10
150.575693
 20
70.068175
 30
0.0
 11
150.573585
 21
70.068079
 31
0.0
  0
LINE
  5
177
330
EE
100
AcDbEntity
  8
0
  6
CONTINUOUS
 62
     7
100
AcDbLine
 10
150.573585
 20
70.068079
 30
0.0
 11
150.571472
 21
70.067983
 31
0.0
  0
LINE
  5
178
330
EE
100
AcDbEntity
  8
0
  6
CONTINUOUS
 62
     7
100
AcDbLine
 10
150.571472
 20
70.067983
 30
0.0
 11
150.569355
 21
70.067886
 31
0.0
  0
LINE
  5
179
330
EE
100
AcDbEntity
  8
0
  6
CONTINUOUS
 62
     7
100
AcDbLine
 10
150.569355
 20
70.067886
 30
0.0
 11
150.567234
 21
70.067791
 31
0.0
  0
LINE
  5
17A
330
EE
100
AcDbEntity
  8
0
  6
CONTINUOUS
 62
     7
100
AcDbLine
 10
150.567234
 20
70.067791
 30
0.0
 11
150.565109
 21
70.067695
 31
0.0
  0
LINE
  5
17B
330
EE
100
AcDbEntity
  8
0
  6
CONTINUOUS
 62
     7
100
AcDbLine
 10
150.565109
 20
70.067695
 30
0.0
 11
150.562979
 21
70.067599
 31
0.0
  0
LINE
  5
17C
330
EE
100
AcDbEntity
  8
0
  6
CONTINUOUS
 62
     7
100
AcDbLine
 10
150.562979
 20
70.067599
 30
0.0
 11
150.560846
 21
70.067504
 31
0.0
  0
LINE
  5
17D
330
EE
100
AcDbEntity
  8
0
  6
CONTINUOUS
 62
     7
100
AcDbLine
 10
150.560846
 20
70.067504
 30
0.0
 11
150.558708
 21
70.067409
 31
0.0
  0
LINE
  5
17E
330
EE
100
AcDbEntity
  8
0
  6
CONTINUOUS
 62
     7
100
AcDbLine
 10
150.558708
 20
70.067409
 30
0.0
 11
150.556566
 21
70.067314
 31
0.0
  0
LINE
  5
17F
330
EE
100
AcDbEntity
  8
0
  6
CONTINUOUS
 62
     7
100
AcDbLine
 10
150.556566
 20
70.067314
 30
0.0
 11
150.55442
 21
70.06722
 31
0.0
  0
LINE
  5
180
330
EE
100
AcDbEntity
  8
0
  6
CONTINUOUS
 62
     7
100
AcDbLine
 10
150.55442
 20
70.06722
 30
0.0
 11
150.55227
 21
70.067125
 31
0.0
  0
LINE
  5
181
330
EE
100
AcDbEntity
  8
0
  6
CONTINUOUS
 62
     7
100
AcDbLine
 10
150.55227
 20
70.067125
 30
0.0
 11
150.550116
 21
70.067031
 31
0.0
  0
LINE
  5
182
330
EE
100
AcDbEntity
  8
0
  6
CONTINUOUS
 62
     7
100
AcDbLine
 10
150.550116
 20
70.067031
 30
0.0
 11
150.547958
 21
70.066937
 31
0.0
  0
LINE
  5
183
330
EE
100
AcDbEntity
  8
0
  6
CONTINUOUS
 62
     7
100
AcDbLine
 10
150.547958
 20
70.066937
 30
0.0
 11
150.545795
 21
70.066843
 31
0.0
  0
LINE
  5
184
330
EE
100
AcDbEntity
  8
0
  6
CONTINUOUS
 62
     7
100
AcDbLine
 10
150.545795
 20
70.066843
 30
0.0
 11
150.543629
 21
70.06675
 31
0.0
  0
LINE
  5
185
330
EE
100
AcDbEntity
  8
0
  6
CONTINUOUS
 62
     7
100
AcDbLine
 10
150.543629
 20
70.06675
 30
0.0
 11
150.541458
 21
70.066657
 31
0.0
  0
LINE
  5
186
330
EE
100
AcDbEntity
  8
0
  6
CONTINUOUS
 62
     7
100
AcDbLine
 10
150.541458
 20
70.066657
 30
0.0
 11
150.539283
 21
70.066564
 31
0.0
  0
LINE
  5
187
330
EE
100
AcDbEntity
  8
0
  6
CONTINUOUS
 62
     7
100
AcDbLine
 10
150.539283
 20
70.066564
 30
0.0
 11
150.537105
 21
70.066471
 31
0.0
  0
LINE
  5
188
330
EE
100
AcDbEntity
  8
0
  6
CONTINUOUS
 62
     7
100
AcDbLine
 10
150.537105
 20
70.066471
 30
0.0
 11
150.534922
 21
70.066379
 31
0.0
  0
LINE
  5
189
330
EE
100
AcDbEntity
  8
0
  6
CONTINUOUS
 62
     7
100
AcDbLine
 10
150.534922
 20
70.066379
 30
0.0
 11
150.532735
 21
70.066287
 31
0.0
  0
LINE
  5
18A
330
EE
100
AcDbEntity
  8
0
  6
CONTINUOUS
 62
     7
100
AcDbLine
 10
150.532735
 20
70.066287
 30
0.0
 11
150.530544
 21
70.066195
 31
0.0
  0
LINE
  5
18B
330
EE
100
AcDbEntity
  8
0
  6
CONTINUOUS
 62
     7
100
AcDbLine
 10
150.530544
 20
70.066195
 30
0.0
 11
150.528349
 21
70.066103
 31
0.0
  0
LINE
  5
18C
330
EE
100
AcDbEntity
  8
0
  6
CONTINUOUS
 62
     7
100
AcDbLine
 10
150.528349
 20
70.066103
 30
0.0
 11
150.52615
 21
70.066012
 31
0.0
  0
LINE
  5
18D
330
EE
100
AcDbEntity
  8
0
  6
CONTINUOUS
 62
     7
100
AcDbLine
 10
150.52615
 20
70.066012
 30
0.0
 11
150.523947
 21
70.065921
 31
0.0
  0
LINE
  5
18E
330
EE
100
AcDbEntity
  8
0
  6
CONTINUOUS
 62
     7
100
AcDbLine
 10
150.523947
 20
70.065921
 30
0.0
 11
150.52174
 21
70.06583
 31
0.0
  0
LINE
  5
18F
330
EE
100
AcDbEntity
  8
0
  6
CONTINUOUS
 62
     7
100
AcDbLine
 10
150.52174
 20
70.06583
 30
0.0
 11
150.519529
 21
70.065739
 31
0.0
  0
LINE
  5
190
330
EE
100
AcDbEntity
  8
0
  6
CONTINUOUS
 62
     7
100
AcDbLine
 10
150.519529
 20
70.065739
 30
0.0
 11
150.517314
 21
70.065649
 31
0.0
  0
LINE
  5
191
330
EE
100
AcDbEntity
  8
0
  6
CONTINUOUS
 62
     7
100
AcDbLine
 10
150.517314
 20
70.065649
 30
0.0
 11
150.515095
 21
70.065559
 31
0.0
  0
LINE
  5
192
330
EE
100
AcDbEntity
  8
0
  6
CONTINUOUS
 62
     7
100
AcDbLine
 10
150.515095
 20
70.065559
 30
0.0
 11
150.512872
 21
70.065469
 31
0.0
  0
LINE
  5
193
330
EE
100
AcDbEntity
  8
0
  6
CONTINUOUS
 62
     7
100
AcDbLine
 10
150.512872
 20
70.065469
 30
0.0
 11
150.510645
 21
70.06538
 31
0.0
  0
LINE
  5
194
330
EE
100
AcDbEntity
  8
0
  6
CONTINUOUS
 62
     7
100
AcDbLine
 10
150.510645
 20
70.06538
 30
0.0
 11
150.508414
 21
70.065291
 31
0.0
  0
LINE
  5
195
330
EE
100
AcDbEntity
  8
0
  6
CONTINUOUS
 62
     7
100
AcDbLine
 10
150.508414
 20
70.065291
 30
0.0
 11
150.506179
 21
70.065202
 31
0.0
  0
LINE
  5
196
330
EE
100
AcDbEntity
  8
0
  6
CONTINUOUS
 62
     7
100
AcDbLine
 10
150.506179
 20
70.065202
 30
0.0
 11
150.50394
 21
70.065114
 31
0.0
  0
LINE
  5
197
330
EE
100
AcDbEntity
  8
0
  6
CONTINUOUS
 62
     7
100
AcDbLine
 10
150.50394
 20
70.065114
 30
0.0
 11
150.501697
 21
70.065026
 31
0.0
  0
LINE
  5
198
330
EE
100
AcDbEntity
  8
0
  6
CONTINUOUS
 62
     7
100
AcDbLine
 10
150.501697
 20
70.065026
 30
0.0
 11
150.49945
 21
70.064938
 31
0.0
  0
LINE
  5
199
330
EE
100
AcDbEntity
  8
0
  6
CONTINUOUS
 62
     7
100
AcDbLine
 10
150.49945
 20
70.064938
 30
0.0
 11
150.497199
 21
70.064851
 31
0.0
  0
LINE
  5
19A
330
EE
100
AcDbEntity
  8
0
  6
CONTINUOUS
 62
     7
100
AcDbLine
 10
150.497199
 20
70.064851
 30
0.0
 11
150.494944
 21
70.064764
 31
0.0
  0
LINE
  5
19B
330
EE
100
AcDbEntity
  8
0
  6
CONTINUOUS
 62
     7
100
AcDbLine
 10
150.494944
 20
70.064764
 30
0.0
 11
150.492685
 21
70.064677
 31
0.0
  0
LINE
  5
19C
330
EE
100
AcDbEntity
  8
0
  6
CONTINUOUS
 62
     7
100
AcDbLine
 10
150.492685
 20
70.064677
 30
0.0
 11
150.490423
 21
70.06459
 31
0.0
  0
LINE
  5
19D
330
EE
100
AcDbEntity
  8
0
  6
CONTINUOUS
 62
     7
100
AcDbLine
 10
150.490423
 20
70.06459
 30
0.0
 11
150.488156
 21
70.064504
 31
0.0
  0
LINE
  5
19E
330
EE
100
AcDbEntity
  8
0
  6
CONTINUOUS
 62
     7
100
AcDbLine
 10
150.488156
 20
70.064504
 30
0.0
 11
150.485886
 21
70.064419
 31
0.0
  0
LINE
  5
19F
330
EE
100
AcDbEntity
  8
0
  6
CONTINUOUS
 62
     7
100
AcDbLine
 10
150.485886
 20
70.064419
 30
0.0
 11
150.483611
 21
70.064333
 31
0.0
  0
LINE
  5
1A0
330
EE
100
AcDbEntity
  8
0
  6
CONTINUOUS
 62
     7
100
AcDbLine
 10
150.483611
 20
70.064333
 30
0.0
 11
150.481333
 21
70.064248
 31
0.0
  0
LINE
  5
1A1
330
EE
100
AcDbEntity
  8
0
  6
CONTINUOUS
 62
     7
100
AcDbLine
 10
150.481333
 20
70.064248
 30
0.0
 11
150.479051
 21
70.064163
 31
0.0
  0
LINE
  5
1A2
330
EE
100
AcDbEntity
  8
0
  6
CONTINUOUS
 62
     7
100
AcDbLine
 10
150.479051
 20
70.064163
 30
0.0
 11
150.476765
 21
70.064079
 31
0.0
  0
LINE
  5
1A3
330
EE
100
AcDbEntity
  8
0
  6
CONTINUOUS
 62
     7
100
AcDbLine
 10
150.476765
 20
70.064079
 30
0.0
 11
150.474475
 21
70.063995
 31
0.0
  0
LINE
  5
1A4
330
EE
100
AcDbEntity
  8
0
  6
CONTINUOUS
 62
     7
100
AcDbLine
 10
150.474475
 20
70.063995
 30
0.0
 11
150.472181
 21
70.063912
 31
0.0
  0
LINE
  5
1A5
330
EE
100
AcDbEntity
  8
0
  6
CONTINUOUS
 62
     7
100
AcDbLine
 10
150.472181
 20
70.063912
 30
0.0
 11
150.469883
 21
70.063828
 31
0.0
  0
LINE
  5
1A6
330
EE
100
AcDbEntity
  8
0
  6
CONTINUOUS
 62
     7
100
AcDbLine
 10
150.469883
 20
70.063828
 30
0.0
 11
150.467582
 21
70.063746
 31
0.0
  0
LINE
  5
1A7
330
EE
100
AcDbEntity
  8
0
  6
CONTINUOUS
 62
     7
100
AcDbLine
 10
150.467582
 20
70.063746
 30
0.0
 11
150.465276
 21
70.063663
 31
0.0
  0
LINE
  5
1A8
330
EE
100
AcDbEntity
  8
0
  6
CONTINUOUS
 62
     7
100
AcDbLine
 10
150.465276
 20
70.063663
 30
0.0
 11
150.462967
 21
70.063581
 31
0.0
  0
LINE
  5
1A9
330
EE
100
AcDbEntity
  8
0
  6
CONTINUOUS
 62
     7
100
AcDbLine
 10
150.462967
 20
70.063581
 30
0.0
 11
150.460654
 21
70.063499
 31
0.0
  0
LINE
  5
1AA
330
EE
100
AcDbEntity
  8
0
  6
CONTINUOUS
 62
     7
100
AcDbLine
 10
150.460654
 20
70.063499
 30
0.0
 11
150.458337
 21
70.063418
 31
0.0
  0
LINE
  5
1AB
330
EE
100
AcDbEntity
  8
0
  6
CONTINUOUS
 62
     7
100
AcDbLine
 10
150.458337
 20
70.063418
 30
0.0
 11
150.456016
 21
70.063337
 31
0.0
  0
LINE
  5
1AC
330
EE
100
AcDbEntity
  8
0
  6
CONTINUOUS
 62
     7
100
AcDbLine
 10
150.456016
 20
70.063337
 30
0.0
 11
150.453692
 21
70.063257
 31
0.0
  0
LINE
  5
1AD
330
EE
100
AcDbEntity
  8
0
  6
CONTINUOUS
 62
     7
100
AcDbLine
 10
150.453692
 20
70.063257
 30
0.0
 11
150.451363
 21
70.063177
 31
0.0
  0
LINE
  5
1AE
330
EE
100
AcDbEntity
  8
0
  6
CONTINUOUS
 62
     7
100
AcDbLine
 10
150.451363
 20
70.063177
 30
0.0
 11
150.449031
 21
70.063097
 31
0.0
  0
LINE
  5
1AF
330
EE
100
AcDbEntity
  8
0
  6
CONTINUOUS
 62
     7
100
AcDbLine
 10
150.449031
 20
70.063097
 30
0.0
 11
150.446695
 21
70.063018
 31
0.0
  0
LINE
  5
1B0
330
EE
100
AcDbEntity
  8
0
  6
CONTINUOUS
 62
     7
100
AcDbLine
 10
150.446695
 20
70.063018
 30
0.0
 11
150.444355
 21
70.062939
 31
0.0
  0
LINE
  5
1B1
330
EE
100
AcDbEntity
  8
0
  6
CONTINUOUS
 62
     7
100
AcDbLine
 10
150.444355
 20
70.062939
 30
0.0
 11
150.442012
 21
70.06286
 31
0.0
  0
LINE
  5
1B2
330
EE
100
AcDbEntity
  8
0
  6
CONTINUOUS
 62
     7
100
AcDbLine
 10
150.442012
 20
70.06286
 30
0.0
 11
150.439664
 21
70.062782
 31
0.0
  0
LINE
  5
1B3
330
EE
100
AcDbEntity
  8
0
  6
CONTINUOUS
 62
     7
100
AcDbLine
 10
150.439664
 20
70.062782
 30
0.0
 11
150.437313
 21
70.062705
 31
0.0
  0
LINE
  5
1B4
330
EE
100
AcDbEntity
  8
0
  6
CONTINUOUS
 62
     7
100
AcDbLine
 10
150.437313
 20
70.062705
 30
0.0
 11
150.434959
 21
70.062628
 31
0.0
  0
LINE
  5
1B5
330
EE
100
AcDbEntity
  8
0
  6
CONTINUOUS
 62
     7
100
AcDbLine
 10
150.434959
 20
70.062628
 30
0.0
 11
150.4326
 21
70.062551
 31
0.0
  0
LINE
  5
1B6
330
EE
100
AcDbEntity
  8
0
  6
CONTINUOUS
 62
     7
100
AcDbLine
 10
150.4326
 20
70.062551
 30
0.0
 11
150.430238
 21
70.062475
 31
0.0
  0
LINE
  5
1B7
330
EE
100
AcDbEntity
  8
0
  6
CONTINUOUS
 62
     7
100
AcDbLine
 10
150.430238
 20
70.062475
 30
0.0
 11
150.427872
 21
70.062399
 31
0.0
  0
LINE
  5
1B8
330
EE
100
AcDbEntity
  8
0
  6
CONTINUOUS
 62
     7
100
AcDbLine
 10
150.427872
 20
70.062399
 30
0.0
 11
150.425502
 21
70.062323
 31
0.0
  0
LINE
  5
1B9
330
EE
100
AcDbEntity
  8
0
  6
CONTINUOUS
 62
     7
100
AcDbLine
 10
150.425502
 20
70.062323
 30
0.0
 11
150.423128
 21
70.062248
 31
0.0
  0
LINE
  5
1BA
330
EE
100
AcDbEntity
  8
0
  6
CONTINUOUS
 62
     7
100
AcDbLine
 10
150.423128
 20
70.062248
 30
0.0
 11
150.420751
 21
70.062174
 31
0.0
  0
LINE
  5
1BB
330
EE
100
AcDbEntity
  8
0
  6
CONTINUOUS
 62
     7
100
AcDbLine
 10
150.420751
 20
70.062174
 30
0.0
 11
150.418469
 21
70.062103
 31
0.0
  0
LINE
  5
1BC
330
EE
100
AcDbEntity
  8
0
  6
CONTINUOUS
 62
     7
100
AcDbLine
 10
150.418469
 20
70.062103
 30
0.0
 11
150.416183
 21
70.062033
 31
0.0
  0
LINE
  5
1BD
330
EE
100
AcDbEntity
  8
0
  6
CONTINUOUS
 62
     7
100
AcDbLine
 10
150.416183
 20
70.062033
 30
0.0
 11
150.413894
 21
70.061962
 31
0.0
  0
LINE
  5
1BE
330
EE
100
AcDbEntity
  8
0
  6
CONTINUOUS
 62
     7
100
AcDbLine
 10
150.413894
 20
70.061962
 30
0.0
 11
150.411601
 21
70.061893
 31
0.0
  0
LINE
  5
1BF
330
EE
100
AcDbEntity
  8
0
  6
CONTINUOUS
 62
     7
100
AcDbLine
 10
150.411601
 20
70.061893
 30
0.0
 11
150.409305
 21
70.061824
 31
0.0
  0
LINE
  5
1C0
330
EE
100
AcDbEntity
  8
0
  6
CONTINUOUS
 62
     7
100
AcDbLine
 10
150.409305
 20
70.061824
 30
0.0
 11
150.407006
 21
70.061755
 31
0.0
  0
LINE
  5
1C1
330
EE
100
AcDbEntity
  8
0
  6
CONTINUOUS
 62
     7
100
AcDbLine
 10
150.407006
 20
70.061755
 30
0.0
 11
150.404704
 21
70.061687
 31
0.0
  0
LINE
  5
1C2
330
EE
100
AcDbEntity
  8
0
  6
CONTINUOUS
 62
     7
100
AcDbLine
 10
150.404704
 20
70.061687
 30
0.0
 11
150.402399
 21
70.061619
 31
0.0
  0
LINE
  5
1C3
330
EE
100
AcDbEntity
  8
0
  6
CONTINUOUS
 62
     7
100
AcDbLine
 10
150.402399
 20
70.061619
 30
0.0
 11
150.40009
 21
70.061551
 31
0.0
  0
LINE
  5
1C4
330
EE
100
AcDbEntity
  8
0
  6
CONTINUOUS
 62
     7
100
AcDbLine
 10
150.40009
 20
70.061551
 30
0.0
 11
150.397778
 21
70.061484
 31
0.0
  0
LINE
  5
1C5
330
EE
100
AcDbEntity
  8
0
  6
CONTINUOUS
 62
     7
100
AcDbLine
 10
150.397778
 20
70.061484
 30
0.0
 11
150.395463
 21
70.061418
 31
0.0
  0
LINE
  5
1C6
330
EE
100
AcDbEntity
  8
0
  6
CONTINUOUS
 62
     7
100
AcDbLine
 10
150.395463
 20
70.061418
 30
0.0
 11
150.393145
 21
70.061352
 31
0.0
  0
LINE
  5
1C7
330
EE
100
AcDbEntity
  8
0
  6
CONTINUOUS
 62
     7
100
AcDbLine
 10
150.393145
 20
70.061352
 30
0.0
 11
150.390824
 21
70.061286
 31
0.0
  0
LINE
  5
1C8
330
EE
100
AcDbEntity
  8
0
  6
CONTINUOUS
 62
     7
100
AcDbLine
 10
150.390824
 20
70.061286
 30
0.0
 11
150.3885
 21
70.061221
 31
0.0
  0
LINE
  5
1C9
330
EE
100
AcDbEntity
  8
0
  6
CONTINUOUS
 62
     7
100
AcDbLine
 10
150.3885
 20
70.061221
 30
0.0
 11
150.386173
 21
70.061157
 31
0.0
  0
LINE
  5
1CA
330
EE
100
AcDbEntity
  8
0
  6
CONTINUOUS
 62
     7
100
AcDbLine
 10
150.386173
 20
70.061157
 30
0.0
 11
150.383843
 21
70.061093
 31
0.0
  0
LINE
  5
1CB
330
EE
100
AcDbEntity
  8
0
  6
CONTINUOUS
 62
     7
100
AcDbLine
 10
150.383843
 20
70.061093
 30
0.0
 11
150.38151
 21
70.061029
 31
0.0
  0
LINE
  5
1CC
330
EE
100
AcDbEntity
  8
0
  6
CONTINUOUS
 62
     7
100
AcDbLine
 10
150.38151
 20
70.061029
 30
0.0
 11
150.379175
 21
70.060966
 31
0.0
  0
LINE
  5
1CD
330
EE
100
AcDbEntity
  8
0
  6
CONTINUOUS
 62
     7
100
AcDbLine
 10
150.379175
 20
70.060966
 30
0.0
 11
150.376836
 21
70.060904
 31
0.0
  0
LINE
  5
1CE
330
EE
100
AcDbEntity
  8
0
  6
CONTINUOUS
 62
     7
100
AcDbLine
 10
150.376836
 20
70.060904
 30
0.0
 11
150.374494
 21
70.060842
 31
0.0
  0
LINE
  5
1CF
330
EE
100
AcDbEntity
  8
0
  6
CONTINUOUS
 62
     7
100
AcDbLine
 10
150.374494
 20
70.060842
 30
0.0
 11
150.37215
 21
70.06078
 31
0.0
  0
LINE
  5
1D0
330
EE
100
AcDbEntity
  8
0
  6
CONTINUOUS
 62
     7
100
AcDbLine
 10
150.37215
 20
70.06078
 30
0.0
 11
150.369803
 21
70.060719
 31
0.0
  0
LINE
  5
1D1
330
EE
100
AcDbEntity
  8
0
  6
CONTINUOUS
 62
     7
100
AcDbLine
 10
150.369803
 20
70.060719
 30
0.0
 11
150.367453
 21
70.060659
 31
0.0
  0
LINE
  5
1D2
330
EE
100
AcDbEntity
  8
0
  6
CONTINUOUS
 62
     7
100
AcDbLine
 10
150.367453
 20
70.060659
 30
0.0
 11
150.3651
 21
70.060599
 31
0.0
  0
LINE
  5
1D3
330
EE
100
AcDbEntity
  8
0
  6
CONTINUOUS
 62
     7
100
AcDbLine
 10
150.3651
 20
70.060599
 30
0.0
 11
150.362745
 21
70.06054
 31
0.0
  0
LINE
  5
1D4
330
EE
100
AcDbEntity
  8
0
  6
CONTINUOUS
 62
     7
100
AcDbLine
 10
150.362745
 20
70.06054
 30
0.0
 11
150.360387
 21
70.060481
 31
0.0
  0
LINE
  5
1D5
330
EE
100
AcDbEntity
  8
0
  6
CONTINUOUS
 62
     7
100
AcDbLine
 10
150.360387
 20
70.060481
 30
0.0
 11
150.358026
 21
70.060423
 31
0.0
  0
LINE
  5
1D6
330
EE
100
AcDbEntity
  8
0
  6
CONTINUOUS
 62
     7
100
AcDbLine
 10
150.358026
 20
70.060423
 30
0.0
 11
150.355663
 21
70.060365
 31
0.0
  0
LINE
  5
1D7
330
EE
100
AcDbEntity
  8
0
  6
CONTINUOUS
 62
     7
100
AcDbLine
 10
150.355663
 20
70.060365
 30
0.0
 11
150.353297
 21
70.060308
 31
0.0
  0
LINE
  5
1D8
330
EE
100
AcDbEntity
  8
0
  6
CONTINUOUS
 62
     7
100
AcDbLine
 10
150.353297
 20
70.060308
 30
0.0
 11
150.350929
 21
70.060251
 31
0.0
  0
LINE
  5
1D9
330
EE
100
AcDbEntity
  8
0
  6
CONTINUOUS
 62
     7
100
AcDbLine
 10
150.350929
 20
70.060251
 30
0.0
 11
150.348558
 21
70.060195
 31
0.0
  0
LINE
  5
1DA
330
EE
100
AcDbEntity
  8
0
  6
CONTINUOUS
 62
     7
100
AcDbLine
 10
150.348558
 20
70.060195
 30
0.0
 11
150.346185
 21
70.06014
 31
0.0
  0
LINE
  5
1DB
330
EE
100
AcDbEntity
  8
0
  6
CONTINUOUS
 62
     7
100
AcDbLine
 10
150.346185
 20
70.06014
 30
0.0
 11
150.343809
 21
70.060085
 31
0.0
  0
LINE
  5
1DC
330
EE
100
AcDbEntity
  8
0
  6
CONTINUOUS
 62
     7
100
AcDbLine
 10
150.343809
 20
70.060085
 30
0.0
 11
150.341431
 21
70.060031
 31
0.0
  0
LINE
  5
1DD
330
EE
100
AcDbEntity
  8
0
  6
CONTINUOUS
 62
     7
100
AcDbLine
 10
150.341431
 20
70.060031
 30
0.0
 11
150.33905
 21
70.059977
 31
0.0
  0
LINE
  5
1DE
330
EE
100
AcDbEntity
  8
0
  6
CONTINUOUS
 62
     7
100
AcDbLine
 10
150.33905
 20
70.059977
 30
0.0
 11
150.336667
 21
70.059924
 31
0.0
  0
LINE
  5
1DF
330
EE
100
AcDbEntity
  8
0
  6
CONTINUOUS
 62
     7
100
AcDbLine
 10
150.336667
 20
70.059924
 30
0.0
 11
150.334281
 21
70.059871
 31
0.0
  0
LINE
  5
1E0
330
EE
100
AcDbEntity
  8
0
  6
CONTINUOUS
 62
     7
100
AcDbLine
 10
150.334281
 20
70.059871
 30
0.0
 11
150.331894
 21
70.05982
 31
0.0
  0
LINE
  5
1E1
330
EE
100
AcDbEntity
  8
0
  6
CONTINUOUS
 62
     7
100
AcDbLine
 10
150.331894
 20
70.05982
 30
0.0
 11
150.329504
 21
70.059768
 31
0.0
  0
LINE
  5
1E2
330
EE
100
AcDbEntity
  8
0
  6
CONTINUOUS
 62
     7
100
AcDbLine
 10
150.329504
 20
70.059768
 30
0.0
 11
150.327112
 21
70.059718
 31
0.0
  0
LINE
  5
1E3
330
EE
100
AcDbEntity
  8
0
  6
CONTINUOUS
 62
     7
100
AcDbLine
 10
150.327112
 20
70.059718
 30
0.0
 11
150.324717
 21
70.059668
 31
0.0
  0
LINE
  5
1E4
330
EE
100
AcDbEntity
  8
0
  6
CONTINUOUS
 62
     7
100
AcDbLine
 10
150.324717
 20
70.059668
 30
0.0
 11
150.322321
 21
70.059618
 31
0.0
  0
LINE
  5
1E5
330
EE
100
AcDbEntity
  8
0
  6
CONTINUOUS
 62
     7
100
AcDbLine
 10
150.322321
 20
70.059618
 30
0.0
 11
150.319922
 21
70.059569
 31
0.0
  0
LINE
  5
1E6
330
EE
100
AcDbEntity
  8
0
  6
CONTINUOUS
 62
     7
100
AcDbLine
 10
150.319922
 20
70.059569
 30
0.0
 11
150.317521
 21
70.059521
 31
0.0
  0
LINE
  5
1E7
330
EE
100
AcDbEntity
  8
0
  6
CONTINUOUS
 62
     7
100
AcDbLine
 10
150.317521
 20
70.059521
 30
0.0
 11
150.315118
 21
70.059474
 31
0.0
  0
LINE
  5
1E8
330
EE
100
AcDbEntity
  8
0
  6
CONTINUOUS
 62
     7
100
AcDbLine
 10
150.315118
 20
70.059474
 30
0.0
 11
150.312713
 21
70.059427
 31
0.0
  0
LINE
  5
1E9
330
EE
100
AcDbEntity
  8
0
  6
CONTINUOUS
 62
     7
100
AcDbLine
 10
150.312713
 20
70.059427
 30
0.0
 11
150.310306
 21
70.05938
 31
0.0
  0
LINE
  5
1EA
330
EE
100
AcDbEntity
  8
0
  6
CONTINUOUS
 62
     7
100
AcDbLine
 10
150.310306
 20
70.05938
 30
0.0
 11
150.307897
 21
70.059335
 31
0.0
  0
LINE
  5
1EB
330
EE
100
AcDbEntity
  8
0
  6
CONTINUOUS
 62
     7
100
AcDbLine
 10
150.307897
 20
70.059335
 30
0.0
 11
150.305486
 21
70.05929
 31
0.0
  0
LINE
  5
1EC
330
EE
100
AcDbEntity
  8
0
  6
CONTINUOUS
 62
     7
100
AcDbLine
 10
150.305486
 20
70.05929
 30
0.0
 11
150.303073
 21
70.059246
 31
0.0
  0
LINE
  5
1ED
330
EE
100
AcDbEntity
  8
0
  6
CONTINUOUS
 62
     7
100
AcDbLine
 10
150.303073
 20
70.059246
 30
0.0
 11
150.300658
 21
70.059202
 31
0.0
  0
LINE
  5
1EE
330
EE
100
AcDbEntity
  8
0
  6
CONTINUOUS
 62
     7
100
AcDbLine
 10
150.300658
 20
70.059202
 30
0.0
 11
150.298241
 21
70.059159
 31
0.0
  0
LINE
  5
1EF
330
EE
100
AcDbEntity
  8
0
  6
CONTINUOUS
 62
     7
100
AcDbLine
 10
150.298241
 20
70.059159
 30
0.0
 11
150.295822
 21
70.059117
 31
0.0
  0
LINE
  5
1F0
330
EE
100
AcDbEntity
  8
0
  6
CONTINUOUS
 62
     7
100
AcDbLine
 10
150.295822
 20
70.059117
 30
0.0
 11
150.293401
 21
70.059075
 31
0.0
  0
LINE
  5
1F1
330
EE
100
AcDbEntity
  8
0
  6
CONTINUOUS
 62
     7
100
AcDbLine
 10
150.293401
 20
70.059075
 30
0.0
 11
150.290979
 21
70.059034
 31
0.0
  0
LINE
  5
1F2
330
EE
100
AcDbEntity
  8
0
  6
CONTINUOUS
 62
     7
100
AcDbLine
 10
150.290979
 20
70.059034
 30
0.0
 11
150.288555
 21
70.058994
 31
0.0
  0
LINE
  5
1F3
330
EE
100
AcDbEntity
  8
0
  6
CONTINUOUS
 62
     7
100
AcDbLine
 10
150.288555
 20
70.058994
 30
0.0
 11
150.286129
 21
70.058954
 31
0.0
  0
LINE
  5
1F4
330
EE
100
AcDbEntity
  8
0
  6
CONTINUOUS
 62
     7
100
AcDbLine
 10
150.286129
 20
70.058954
 30
0.0
 11
150.283702
 21
70.058916
 31
0.0
  0
LINE
  5
1F5
330
EE
100
AcDbEntity
  8
0
  6
CONTINUOUS
 62
     7
100
AcDbLine
 10
150.283702
 20
70.058916
 30
0.0
 11
150.281272
 21
70.058877
 31
0.0
  0
LINE
  5
1F6
330
EE
100
AcDbEntity
  8
0
  6
CONTINUOUS
 62
     7
100
AcDbLine
 10
150.281272
 20
70.058877
 30
0.0
 11
150.278841
 21
70.05884
 31
0.0
  0
LINE
  5
1F7
330
EE
100
AcDbEntity
  8
0
  6
CONTINUOUS
 62
     7
100
AcDbLine
 10
150.278841
 20
70.05884
 30
0.0
 11
150.276409
 21
70.058803
 31
0.0
  0
LINE
  5
1F8
330
EE
100
AcDbEntity
  8
0
  6
CONTINUOUS
 62
     7
100
AcDbLine
 10
150.276409
 20
70.058803
 30
0.0
 11
150.273975
 21
70.058767
 31
0.0
  0
LINE
  5
1F9
330
EE
100
AcDbEntity
  8
0
  6
CONTINUOUS
 62
     7
100
AcDbLine
 10
150.273975
 20
70.058767
 30
0.0
 11
150.271539
 21
70.058732
 31
0.0
  0
LINE
  5
1FA
330
EE
100
AcDbEntity
  8
0
  6
CONTINUOUS
 62
     7
100
AcDbLine
 10
150.271539
 20
70.058732
 30
0.0
 11
150.269102
 21
70.058697
 31
0.0
  0
LINE
  5
1FB
330
EE
100
AcDbEntity
  8
0
  6
CONTINUOUS
 62
     7
100
AcDbLine
 10
150.269102
 20
70.058697
 30
0.0
 11
150.266601
 21
70.058663
 31
0.0
  0
LINE
  5
1FC
330
EE
100
AcDbEntity
  8
0
  6
CONTINUOUS
 62
     7
100
AcDbLine
 10
150.266601
 20
70.058663
 30
0.0
 11
150.264098
 21
70.058629
 31
0.0
  0
LINE
  5
1FD
330
EE
100
AcDbEntity
  8
0
  6
CONTINUOUS
 62
     7
100
AcDbLine
 10
150.264098
 20
70.058629
 30
0.0
 11
150.261594
 21
70.058596
 31
0.0
  0
LINE
  5
1FE
330
EE
100
AcDbEntity
  8
0
  6
CONTINUOUS
 62
     7
100
AcDbLine
 10
150.261594
 20
70.058596
 30
0.0
 11
150.259089
 21
70.058563
 31
0.0
  0
LINE
  5
1FF
330
EE
100
AcDbEntity
  8
0
  6
CONTINUOUS
 62
     7
100
AcDbLine
 10
150.259089
 20
70.058563
 30
0.0
 11
150.256582
 21
70.058531
 31
0.0
  0
LINE
  5
200
330
EE
100
AcDbEntity
  8
0
  6
CONTINUOUS
 62
     7
100
AcDbLine
 10
150.256582
 20
70.058531
 30
0.0
 11
150.254073
 21
70.0585
 31
0.0
  0
LINE
  5
201
330
EE
100
AcDbEntity
  8
0
  6
CONTINUOUS
 62
     7
100
AcDbLine
 10
150.254073
 20
70.0585
 30
0.0
 11
150.251563
 21
70.05847
 31
0.0
  0
LINE
  5
202
330
EE
100
AcDbEntity
  8
0
  6
CONTINUOUS
 62
     7
100
AcDbLine
 10
150.251563
 20
70.05847
 30
0.0
 11
150.249052
 21
70.058441
 31
0.0
  0
LINE
  5
203
330
EE
100
AcDbEntity
  8
0
  6
CONTINUOUS
 62
     7
100
AcDbLine
 10
150.249052
 20
70.058441
 30
0.0
 11
150.246539
 21
70.058412
 31
0.0
  0
LINE
  5
204
330
EE
100
AcDbEntity
  8
0
  6
CONTINUOUS
 62
     7
100
AcDbLine
 10
150.246539
 20
70.058412
 30
0.0
 11
150.244025
 21
70.058383
 31
0.0
  0
LINE
  5
205
330
EE
100
AcDbEntity
  8
0
  6
CONTINUOUS
 62
     7
100
AcDbLine
 10
150.244025
 20
70.058383
 30
0.0
 11
150.24151
 21
70.058356
 31
0.0
  0
LINE
  5
206
330
EE
100
AcDbEntity
  8
0
  6
CONTINUOUS
 62
     7
100
AcDbLine
 10
150.24151
 20
70.058356
 30
0.0
 11
150.238993
 21
70.058329
 31
0.0
  0
LINE
  5
207
330
EE
100
AcDbEntity
  8
0
  6
CONTINUOUS
 62
     7
100
AcDbLine
 10
150.238993
 20
70.058329
 30
0.0
 11
150.236475
 21
70.058302
 31
0.0
  0
LINE
  5
208
330
EE
100
AcDbEntity
  8
0
  6
CONTINUOUS
 62
     7
100
AcDbLine
 10
150.236475
 20
70.058302
 30
0.0
 11
150.233956
 21
70.058277
 31
0.0
  0
LINE
  5
209
330
EE
100
AcDbEntity
  8
0
  6
CONTINUOUS
 62
     7
100
AcDbLine
 10
150.233956
 20
70.058277
 30
0.0
 11
150.231435
 21
70.058251
 31
0.0
  0
LINE
  5
20A
330
EE
100
AcDbEntity
  8
0
  6
CONTINUOUS
 62
     7
100
AcDbLine
 10
150.231435
 20
70.058251
 30
0.0
 11
150.228914
 21
70.058227
 31
0.0
  0
LINE
  5
20B
330
EE
100
AcDbEntity
  8
0
  6
CONTINUOUS
 62
     7
100
AcDbLine
 10
150.228914
 20
70.058227
 30
0.0
 11
150.226391
 21
70.058203
 31
0.0
  0
LINE
  5
20C
330
EE
100
AcDbEntity
  8
0
  6
CONTINUOUS
 62
     7
100
AcDbLine
 10
150.226391
 20
70.058203
 30
0.0
 11
150.223867
 21
70.058179
 31
0.0
  0
LINE
  5
20D
330
EE
100
AcDbEntity
  8
0
  6
CONTINUOUS
 62
     7
100
AcDbLine
 10
150.223867
 20
70.058179
 30
0.0
 11
150.221342
 21
70.058157
 31
0.0
  0
LINE
  5
20E
330
EE
100
AcDbEntity
  8
0
  6
CONTINUOUS
 62
     7
100
AcDbLine
 10
150.221342
 20
70.058157
 30
0.0
 11
150.218815
 21
70.058134
 31
0.0
  0
LINE
  5
20F
330
EE
100
AcDbEntity
  8
0
  6
CONTINUOUS
 62
     7
100
AcDbLine
 10
150.218815
 20
70.058134
 30
0.0
 11
150.216288
 21
70.058112
 31
0.0
  0
LINE
  5
210
330
EE
100
AcDbEntity
  8
0
  6
CONTINUOUS
 62
     7
100
AcDbLine
 10
150.216288
 20
70.058112
 30
0.0
 11
150.213759
 21
70.058091
 31
0.0
  0
LINE
  5
211
330
EE
100
AcDbEntity
  8
0
  6
CONTINUOUS
 62
     7
100
AcDbLine
 10
150.213759
 20
70.058091
 30
0.0
 11
150.21123
 21
70.05807
 31
0.0
  0
LINE
  5
212
330
EE
100
AcDbEntity
  8
0
  6
CONTINUOUS
 62
     7
100
AcDbLine
 10
150.21123
 20
70.05807
 30
0.0
 11
150.208699
 21
70.05805
 31
0.0
  0
LINE
  5
213
330
EE
100
AcDbEntity
  8
0
  6
CONTINUOUS
 62
     7
100
AcDbLine
 10
150.208699
 20
70.05805
 30
0.0
 11
150.206168
 21
70.05803
 31
0.0
  0
LINE
  5
214
330
EE
100
AcDbEntity
  8
0
  6
CONTINUOUS
 62
     7
100
AcDbLine
 10
150.206168
 20
70.05803
 30
0.0
 11
150.203635
 21
70.058011
 31
0.0
  0
LINE
  5
215
330
EE
100
AcDbEntity
  8
0
  6
CONTINUOUS
 62
     7
100
AcDbLine
 10
150.203635
 20
70.058011
 30
0.0
 11
150.201102
 21
70.057992
 31
0.0
  0
LINE
  5
216
330
EE
100
AcDbEntity
  8
0
  6
CONTINUOUS
 62
     7
100
AcDbLine
 10
150.201102
 20
70.057992
 30
0.0
 11
150.198568
 21
70.057974
 31
0.0
  0
LINE
  5
217
330
EE
100
AcDbEntity
  8
0
  6
CONTINUOUS
 62
     7
100
AcDbLine
 10
150.198568
 20
70.057974
 30
0.0
 11
150.196033
 21
70.057956
 31
0.0
  0
LINE
  5
218
330
EE
100
AcDbEntity
  8
0
  6
CONTINUOUS
 62
     7
100
AcDbLine
 10
150.196033
 20
70.057956
 30
0.0
 11
150.193497
 21
70.057938
 31
0.0
  0
LINE
  5
219
330
EE
100
AcDbEntity
  8
0
  6
CONTINUOUS
 62
     7
100
AcDbLine
 10
150.193497
 20
70.057938
 30
0.0
 11
150.19096
 21
70.057921
 31
0.0
  0
LINE
  5
21A
330
EE
100
AcDbEntity
  8
0
  6
CONTINUOUS
 62
     7
100
AcDbLine
 10
150.19096
 20
70.057921
 30
0.0
 11
150.188422
 21
70.057904
 31
0.0
  0
LINE
  5
21B
330
EE
100
AcDbEntity
  8
0
  6
CONTINUOUS
 62
     7
100
AcDbLine
 10
150.188422
 20
70.057904
 30
0.0
 11
150.185883
 21
70.057888
 31
0.0
  0
LINE
  5
21C
330
EE
100
AcDbEntity
  8
0
  6
CONTINUOUS
 62
     7
100
AcDbLine
 10
150.185883
 20
70.057888
 30
0.0
 11
150.183344
 21
70.057872
 31
0.0
  0
LINE
  5
21D
330
EE
100
AcDbEntity
  8
0
  6
CONTINUOUS
 62
     7
100
AcDbLine
 10
150.183344
 20
70.057872
 30
0.0
 11
150.180804
 21
70.057856
 31
0.0
  0
LINE
  5
21E
330
EE
100
AcDbEntity
  8
0
  6
CONTINUOUS
 62
     7
100
AcDbLine
 10
150.180804
 20
70.057856
 30
0.0
 11
150.178263
 21
70.057841
 31
0.0
  0
LINE
  5
21F
330
EE
100
AcDbEntity
  8
0
  6
CONTINUOUS
 62
     7
100
AcDbLine
 10
150.178263
 20
70.057841
 30
0.0
 11
150.175722
 21
70.057826
 31
0.0
  0
LINE
  5
220
330
EE
100
AcDbEntity
  8
0
  6
CONTINUOUS
 62
     7
100
AcDbLine
 10
150.175722
 20
70.057826
 30
0.0
 11
150.17318
 21
70.057811
 31
0.0
  0
LINE
  5
221
330
EE
100
AcDbEntity
  8
0
  6
CONTINUOUS
 62
     7
100
AcDbLine
 10
150.17318
 20
70.057811
 30
0.0
 11
150.170637
 21
70.057797
 31
0.0
  0
LINE
  5
222
330
EE
100
AcDbEntity
  8
0
  6
CONTINUOUS
 62
     7
100
AcDbLine
 10
150.170637
 20
70.057797
 30
0.0
 11
150.168094
 21
70.057783
 31
0.0
  0
LINE
  5
223
330
EE
100
AcDbEntity
  8
0
  6
CONTINUOUS
 62
     7
100
AcDbLine
 10
150.168094
 20
70.057783
 30
0.0
 11
150.163005
 21
70.057756
 31
0.0
  0
LINE
  5
224
330
EE
100
AcDbEntity
  8
0
  6
CONTINUOUS
 62
     7
100
AcDbLine
 10
150.163005
 20
70.057756
 30
0.0
 11
150.157915
 21
70.05773
 31
0.0
  0
LINE
  5
225
330
EE
100
AcDbEntity
  8
0
  6
CONTINUOUS
 62
     7
100
AcDbLine
 10
150.157915
 20
70.05773
 30
0.0
 11
150.152822
 21
70.057704
 31
0.0
  0
LINE
  5
226
330
EE
100
AcDbEntity
  8
0
  6
CONTINUOUS
 62
     7
100
AcDbLine
 10
150.152822
 20
70.057704
 30
0.0
 11
150.147728
 21
70.05768
 31
0.0
  0
LINE
  5
227
330
EE
100
AcDbEntity
  8
0
  6
CONTINUOUS
 62
     7
100
AcDbLine
 10
150.147728
 20
70.05768
 30
0.0
 11
150.142632
 21
70.057657
 31
0.0
  0
LINE
  5
228
330
EE
100
AcDbEntity
  8
0
  6
CONTINUOUS
 62
     7
100
AcDbLine
 10
150.142632
 20
70.057657
 30
0.0
 11
150.137535
 21
70.057634
 31
0.0
  0
LINE
  5
229
330
EE
100
AcDbEntity
  8
0
  6
CONTINUOUS
 62
     7
100
AcDbLine
 10
150.137535
 20
70.057634
 30
0.0
 11
150.132436
 21
70.057611
 31
0.0
  0
LINE
  5
22A
330
EE
100
AcDbEntity
  8
0
  6
CONTINUOUS
 62
     7
100
AcDbLine
 10
150.132436
 20
70.057611
 30
0.0
 11
150.127336
 21
70.05759
 31
0.0
  0
LINE
  5
22B
330
EE
100
AcDbEntity
  8
0
  6
CONTINUOUS
 62
     7
100
AcDbLine
 10
150.127336
 20
70.05759
 30
0.0
 11
150.122236
 21
70.057568
 31
0.0
  0
LINE
  5
22C
330
EE
100
AcDbEntity
  8
0
  6
CONTINUOUS
 62
     7
100
AcDbLine
 10
150.122236
 20
70.057568
 30
0.0
 11
150.117135
 21
70.057547
 31
0.0
  0
LINE
  5
22D
330
EE
100
AcDbEntity
  8
0
  6
CONTINUOUS
 62
     7
100
AcDbLine
 10
150.117135
 20
70.057547
 30
0.0
 11
150.106933
 21
70.057505
 31
0.0
  0
ENDBLK
  5
F0
330
EE
100
AcDbEntity
  8
0
100
AcDbBlockEnd
  0
BLOCK
  5
22F
330
22E
100
AcDbEntity
  8
0
100
AcDbBlockBegin
  2
BLKF013
 70
     0
 71
     0
 10
0.0
 20
0.0
 30
0.0
  3
BLKF013
  1

  0
LINE
  5
232
330
22E
100
AcDbEntity
  8
0
  6
CONTINUOUS
 62
     7
100
AcDbLine
 10
149.271015
 20
48.190025
 30
0.0
 11
149.270933
 21
48.190019
 31
0.0
  0
LINE
  5
233
330
22E
100
AcDbEntity
  8
0
  6
CONTINUOUS
 62
     7
100
AcDbLine
 10
149.270933
 20
48.190019
 30
0.0
 11
149.286594
 21
48.191256
 31
0.0
  0
LINE
  5
234
330
22E
100
AcDbEntity
  8
0
  6
CONTINUOUS
 62
     7
100
AcDbLine
 10
149.286594
 20
48.191256
 30
0.0
 11
149.333592
 21
48.194628
 31
0.0
  0
LINE
  5
235
330
22E
100
AcDbEntity
  8
0
  6
CONTINUOUS
 62
     7
100
AcDbLine
 10
149.333592
 20
48.194628
 30
0.0
 11
149.521593
 21
48.20601
 31
0.0
  0
LINE
  5
236
330
22E
100
AcDbEntity
  8
0
  6
CONTINUOUS
 62
     7
100
AcDbLine
 10
149.521593
 20
48.20601
 30
0.0
 11
149.792972
 21
48.217853
 31
0.0
  0
LINE
  5
237
330
22E
100
AcDbEntity
  8
0
  6
CONTINUOUS
 62
     7
100
AcDbLine
 10
149.792972
 20
48.217853
 30
0.0
 11
149.944771
 21
48.221325
 31
0.0
  0
LINE
  5
238
330
22E
100
AcDbEntity
  8
0
  6
CONTINUOUS
 62
     7
100
AcDbLine
 10
149.944771
 20
48.221325
 30
0.0
 11
150.107312
 21
48.222532
 31
0.0
  0
LINE
  5
239
330
22E
100
AcDbEntity
  8
0
  6
CONTINUOUS
 62
     7
100
AcDbLine
 10
150.107312
 20
48.222532
 30
0.0
 11
150.269348
 21
48.22133
 31
0.0
  0
LINE
  5
23A
330
22E
100
AcDbEntity
  8
0
  6
CONTINUOUS
 62
     7
100
AcDbLine
 10
150.269348
 20
48.22133
 30
0.0
 11
150.420937
 21
48.217846
 31
0.0
  0
LINE
  5
23B
330
22E
100
AcDbEntity
  8
0
  6
CONTINUOUS
 62
     7
100
AcDbLine
 10
150.420937
 20
48.217846
 30
0.0
 11
150.692794
 21
48.205955
 31
0.0
  0
LINE
  5
23C
330
22E
100
AcDbEntity
  8
0
  6
CONTINUOUS
 62
     7
100
AcDbLine
 10
150.692794
 20
48.205955
 30
0.0
 11
150.880444
 21
48.194602
 31
0.0
  0
LINE
  5
23D
330
22E
100
AcDbEntity
  8
0
  6
CONTINUOUS
 62
     7
100
AcDbLine
 10
150.880444
 20
48.194602
 30
0.0
 11
150.927338
 21
48.191243
 31
0.0
  0
LINE
  5
23E
330
22E
100
AcDbEntity
  8
0
  6
CONTINUOUS
 62
     7
100
AcDbLine
 10
150.927338
 20
48.191243
 30
0.0
 11
150.942932
 21
48.190019
 31
0.0
  0
ENDBLK
  5
230
330
22E
100
AcDbEntity
  8
0
100
AcDbBlockEnd
  0
BLOCK
  5
246
330
245
100
AcDbEntity
  8
0
100
AcDbBlockBegin
  2
BLKF014
 70
     0
 71
     0
 10
0.0
 20
0.0
 30
0.0
  3
BLKF014
  1

  0
LINE
  5
249
330
245
100
AcDbEntity
  8
0
  6
CONTINUOUS
 62
     7
100
AcDbLine
 10
70.756932
 20
69.999205
 30
0.0
 11
70.711295
 21
69.999434
 31
0.0
  0
LINE
  5
24A
330
245
100
AcDbEntity
  8
0
  6
CONTINUOUS
 62
     7
100
AcDbLine
 10
70.711295
 20
69.999434
 30
0.0
 11
70.688514
 21
69.999568
 31
0.0
  0
LINE
  5
24B
330
245
100
AcDbEntity
  8
0
  6
CONTINUOUS
 62
     7
100
AcDbLine
 10
70.688514
 20
69.999568
 30
0.0
 11
70.665775
 21
69.999725
 31
0.0
  0
LINE
  5
24C
330
245
100
AcDbEntity
  8
0
  6
CONTINUOUS
 62
     7
100
AcDbLine
 10
70.665775
 20
69.999725
 30
0.0
 11
70.643094
 21
69.999912
 31
0.0
  0
LINE
  5
24D
330
245
100
AcDbEntity
  8
0
  6
CONTINUOUS
 62
     7
100
AcDbLine
 10
70.643094
 20
69.999912
 30
0.0
 11
70.620486
 21
70.000138
 31
0.0
  0
LINE
  5
24E
330
245
100
AcDbEntity
  8
0
  6
CONTINUOUS
 62
     7
100
AcDbLine
 10
70.620486
 20
70.000138
 30
0.0
 11
70.597964
 21
70.00041
 31
0.0
  0
LINE
  5
24F
330
245
100
AcDbEntity
  8
0
  6
CONTINUOUS
 62
     7
100
AcDbLine
 10
70.597964
 20
70.00041
 30
0.0
 11
70.575544
 21
70.000736
 31
0.0
  0
LINE
  5
250
330
245
100
AcDbEntity
  8
0
  6
CONTINUOUS
 62
     7
100
AcDbLine
 10
70.575544
 20
70.000736
 30
0.0
 11
70.553797
 21
70.00111
 31
0.0
  0
LINE
  5
251
330
245
100
AcDbEntity
  8
0
  6
CONTINUOUS
 62
     7
100
AcDbLine
 10
70.553797
 20
70.00111
 30
0.0
 11
70.532177
 21
70.00154
 31
0.0
  0
LINE
  5
252
330
245
100
AcDbEntity
  8
0
  6
CONTINUOUS
 62
     7
100
AcDbLine
 10
70.532177
 20
70.00154
 30
0.0
 11
70.510698
 21
70.002023
 31
0.0
  0
LINE
  5
253
330
245
100
AcDbEntity
  8
0
  6
CONTINUOUS
 62
     7
100
AcDbLine
 10
70.510698
 20
70.002023
 30
0.0
 11
70.489376
 21
70.002555
 31
0.0
  0
LINE
  5
254
330
245
100
AcDbEntity
  8
0
  6
CONTINUOUS
 62
     7
100
AcDbLine
 10
70.489376
 20
70.002555
 30
0.0
 11
70.468228
 21
70.003133
 31
0.0
  0
LINE
  5
255
330
245
100
AcDbEntity
  8
0
  6
CONTINUOUS
 62
     7
100
AcDbLine
 10
70.468228
 20
70.003133
 30
0.0
 11
70.44727
 21
70.003754
 31
0.0
  0
LINE
  5
256
330
245
100
AcDbEntity
  8
0
  6
CONTINUOUS
 62
     7
100
AcDbLine
 10
70.44727
 20
70.003754
 30
0.0
 11
70.426516
 21
70.004416
 31
0.0
  0
LINE
  5
257
330
245
100
AcDbEntity
  8
0
  6
CONTINUOUS
 62
     7
100
AcDbLine
 10
70.426516
 20
70.004416
 30
0.0
 11
70.405983
 21
70.005115
 31
0.0
  0
LINE
  5
258
330
245
100
AcDbEntity
  8
0
  6
CONTINUOUS
 62
     7
100
AcDbLine
 10
70.405983
 20
70.005115
 30
0.0
 11
70.384834
 21
70.00588
 31
0.0
  0
LINE
  5
259
330
245
100
AcDbEntity
  8
0
  6
CONTINUOUS
 62
     7
100
AcDbLine
 10
70.384834
 20
70.00588
 30
0.0
 11
70.363948
 21
70.00668
 31
0.0
  0
LINE
  5
25A
330
245
100
AcDbEntity
  8
0
  6
CONTINUOUS
 62
     7
100
AcDbLine
 10
70.363948
 20
70.00668
 30
0.0
 11
70.34333
 21
70.007511
 31
0.0
  0
LINE
  5
25B
330
245
100
AcDbEntity
  8
0
  6
CONTINUOUS
 62
     7
100
AcDbLine
 10
70.34333
 20
70.007511
 30
0.0
 11
70.322987
 21
70.008372
 31
0.0
  0
LINE
  5
25C
330
245
100
AcDbEntity
  8
0
  6
CONTINUOUS
 62
     7
100
AcDbLine
 10
70.322987
 20
70.008372
 30
0.0
 11
70.302924
 21
70.00926
 31
0.0
  0
LINE
  5
25D
330
245
100
AcDbEntity
  8
0
  6
CONTINUOUS
 62
     7
100
AcDbLine
 10
70.302924
 20
70.00926
 30
0.0
 11
70.283146
 21
70.010172
 31
0.0
  0
LINE
  5
25E
330
245
100
AcDbEntity
  8
0
  6
CONTINUOUS
 62
     7
100
AcDbLine
 10
70.283146
 20
70.010172
 30
0.0
 11
70.26366
 21
70.011104
 31
0.0
  0
LINE
  5
25F
330
245
100
AcDbEntity
  8
0
  6
CONTINUOUS
 62
     7
100
AcDbLine
 10
70.26366
 20
70.011104
 30
0.0
 11
70.244471
 21
70.012056
 31
0.0
  0
LINE
  5
260
330
245
100
AcDbEntity
  8
0
  6
CONTINUOUS
 62
     7
100
AcDbLine
 10
70.244471
 20
70.012056
 30
0.0
 11
70.225586
 21
70.013023
 31
0.0
  0
LINE
  5
261
330
245
100
AcDbEntity
  8
0
  6
CONTINUOUS
 62
     7
100
AcDbLine
 10
70.225586
 20
70.013023
 30
0.0
 11
70.207008
 21
70.014004
 31
0.0
  0
LINE
  5
262
330
245
100
AcDbEntity
  8
0
  6
CONTINUOUS
 62
     7
100
AcDbLine
 10
70.207008
 20
70.014004
 30
0.0
 11
70.188746
 21
70.014996
 31
0.0
  0
LINE
  5
263
330
245
100
AcDbEntity
  8
0
  6
CONTINUOUS
 62
     7
100
AcDbLine
 10
70.188746
 20
70.014996
 30
0.0
 11
70.170803
 21
70.015995
 31
0.0
  0
LINE
  5
264
330
245
100
AcDbEntity
  8
0
  6
CONTINUOUS
 62
     7
100
AcDbLine
 10
70.170803
 20
70.015995
 30
0.0
 11
70.153186
 21
70.017
 31
0.0
  0
LINE
  5
265
330
245
100
AcDbEntity
  8
0
  6
CONTINUOUS
 62
     7
100
AcDbLine
 10
70.153186
 20
70.017
 30
0.0
 11
70.1359
 21
70.018007
 31
0.0
  0
LINE
  5
266
330
245
100
AcDbEntity
  8
0
  6
CONTINUOUS
 62
     7
100
AcDbLine
 10
70.1359
 20
70.018007
 30
0.0
 11
70.118951
 21
70.019014
 31
0.0
  0
LINE
  5
267
330
245
100
AcDbEntity
  8
0
  6
CONTINUOUS
 62
     7
100
AcDbLine
 10
70.118951
 20
70.019014
 30
0.0
 11
70.102346
 21
70.020019
 31
0.0
  0
LINE
  5
268
330
245
100
AcDbEntity
  8
0
  6
CONTINUOUS
 62
     7
100
AcDbLine
 10
70.102346
 20
70.020019
 30
0.0
 11
70.08605
 21
70.02102
 31
0.0
  0
LINE
  5
269
330
245
100
AcDbEntity
  8
0
  6
CONTINUOUS
 62
     7
100
AcDbLine
 10
70.08605
 20
70.02102
 30
0.0
 11
70.070119
 21
70.022015
 31
0.0
  0
LINE
  5
26A
330
245
100
AcDbEntity
  8
0
  6
CONTINUOUS
 62
     7
100
AcDbLine
 10
70.070119
 20
70.022015
 30
0.0
 11
70.054563
 21
70.023001
 31
0.0
  0
LINE
  5
26B
330
245
100
AcDbEntity
  8
0
  6
CONTINUOUS
 62
     7
100
AcDbLine
 10
70.054563
 20
70.023001
 30
0.0
 11
70.039397
 21
70.023977
 31
0.0
  0
LINE
  5
26C
330
245
100
AcDbEntity
  8
0
  6
CONTINUOUS
 62
     7
100
AcDbLine
 10
70.039397
 20
70.023977
 30
0.0
 11
70.024634
 21
70.02494
 31
0.0
  0
LINE
  5
26D
330
245
100
AcDbEntity
  8
0
  6
CONTINUOUS
 62
     7
100
AcDbLine
 10
70.024634
 20
70.02494
 30
0.0
 11
70.010286
 21
70.02589
 31
0.0
  0
LINE
  5
26E
330
245
100
AcDbEntity
  8
0
  6
CONTINUOUS
 62
     7
100
AcDbLine
 10
70.010286
 20
70.02589
 30
0.0
 11
69.982889
 21
70.027742
 31
0.0
  0
LINE
  5
26F
330
245
100
AcDbEntity
  8
0
  6
CONTINUOUS
 62
     7
100
AcDbLine
 10
69.982889
 20
70.027742
 30
0.0
 11
69.957312
 21
70.029519
 31
0.0
  0
LINE
  5
270
330
245
100
AcDbEntity
  8
0
  6
CONTINUOUS
 62
     7
100
AcDbLine
 10
69.957312
 20
70.029519
 30
0.0
 11
69.933658
 21
70.031208
 31
0.0
  0
LINE
  5
271
330
245
100
AcDbEntity
  8
0
  6
CONTINUOUS
 62
     7
100
AcDbLine
 10
69.933658
 20
70.031208
 30
0.0
 11
69.912032
 21
70.032796
 31
0.0
  0
LINE
  5
272
330
245
100
AcDbEntity
  8
0
  6
CONTINUOUS
 62
     7
100
AcDbLine
 10
69.912032
 20
70.032796
 30
0.0
 11
69.892539
 21
70.034269
 31
0.0
  0
LINE
  5
273
330
245
100
AcDbEntity
  8
0
  6
CONTINUOUS
 62
     7
100
AcDbLine
 10
69.892539
 20
70.034269
 30
0.0
 11
69.875875
 21
70.035566
 31
0.0
  0
LINE
  5
274
330
245
100
AcDbEntity
  8
0
  6
CONTINUOUS
 62
     7
100
AcDbLine
 10
69.875875
 20
70.035566
 30
0.0
 11
69.861462
 21
70.036718
 31
0.0
  0
LINE
  5
275
330
245
100
AcDbEntity
  8
0
  6
CONTINUOUS
 62
     7
100
AcDbLine
 10
69.861462
 20
70.036718
 30
0.0
 11
69.840075
 21
70.038484
 31
0.0
  0
LINE
  5
276
330
245
100
AcDbEntity
  8
0
  6
CONTINUOUS
 62
     7
100
AcDbLine
 10
69.840075
 20
70.038484
 30
0.0
 11
69.828416
 21
70.039485
 31
0.0
  0
LINE
  5
277
330
245
100
AcDbEntity
  8
0
  6
CONTINUOUS
 62
     7
100
AcDbLine
 10
69.828416
 20
70.039485
 30
0.0
 11
69.822586
 21
70.040017
 31
0.0
  0
ENDBLK
  5
247
330
245
100
AcDbEntity
  8
0
100
AcDbBlockEnd
  0
BLOCK
  5
27A
330
279
100
AcDbEntity
  8
0
100
AcDbBlockBegin
  2
BLKF015
 70
     0
 71
     0
 10
0.0
 20
0.0
 30
0.0
  3
BLKF015
  1

  0
LINE
  5
27D
330
279
100
AcDbEntity
  8
0
  6
CONTINUOUS
 62
     7
100
AcDbLine
 10
71.69125
 20
70.040015
 30
0.0
 11
71.691294
 21
70.040019
 31
0.0
  0
LINE
  5
27E
330
279
100
AcDbEntity
  8
0
  6
CONTINUOUS
 62
     7
100
AcDbLine
 10
71.691294
 20
70.040019
 30
0.0
 11
71.692195
 21
70.040095
 31
0.0
  0
LINE
  5
27F
330
279
100
AcDbEntity
  8
0
  6
CONTINUOUS
 62
     7
100
AcDbLine
 10
71.692195
 20
70.040095
 30
0.0
 11
71.692749
 21
70.04014
 31
0.0
  0
LINE
  5
280
330
279
100
AcDbEntity
  8
0
  6
CONTINUOUS
 62
     7
100
AcDbLine
 10
71.692749
 20
70.04014
 30
0.0
 11
71.692973
 21
70.040156
 31
0.0
  0
LINE
  5
281
330
279
100
AcDbEntity
  8
0
  6
CONTINUOUS
 62
     7
100
AcDbLine
 10
71.692973
 20
70.040156
 30
0.0
 11
71.692884
 21
70.040145
 31
0.0
  0
LINE
  5
282
330
279
100
AcDbEntity
  8
0
  6
CONTINUOUS
 62
     7
100
AcDbLine
 10
71.692884
 20
70.040145
 30
0.0
 11
71.6925
 21
70.040109
 31
0.0
  0
LINE
  5
283
330
279
100
AcDbEntity
  8
0
  6
CONTINUOUS
 62
     7
100
AcDbLine
 10
71.6925
 20
70.040109
 30
0.0
 11
71.691838
 21
70.040048
 31
0.0
  0
LINE
  5
284
330
279
100
AcDbEntity
  8
0
  6
CONTINUOUS
 62
     7
100
AcDbLine
 10
71.691838
 20
70.040048
 30
0.0
 11
71.690915
 21
70.039965
 31
0.0
  0
LINE
  5
285
330
279
100
AcDbEntity
  8
0
  6
CONTINUOUS
 62
     7
100
AcDbLine
 10
71.690915
 20
70.039965
 30
0.0
 11
71.68975
 21
70.039861
 31
0.0
  0
LINE
  5
286
330
279
100
AcDbEntity
  8
0
  6
CONTINUOUS
 62
     7
100
AcDbLine
 10
71.68975
 20
70.039861
 30
0.0
 11
71.688359
 21
70.039738
 31
0.0
  0
LINE
  5
287
330
279
100
AcDbEntity
  8
0
  6
CONTINUOUS
 62
     7
100
AcDbLine
 10
71.688359
 20
70.039738
 30
0.0
 11
71.686761
 21
70.039597
 31
0.0
  0
LINE
  5
288
330
279
100
AcDbEntity
  8
0
  6
CONTINUOUS
 62
     7
100
AcDbLine
 10
71.686761
 20
70.039597
 30
0.0
 11
71.684972
 21
70.039441
 31
0.0
  0
LINE
  5
289
330
279
100
AcDbEntity
  8
0
  6
CONTINUOUS
 62
     7
100
AcDbLine
 10
71.684972
 20
70.039441
 30
0.0
 11
71.68301
 21
70.03927
 31
0.0
  0
LINE
  5
28A
330
279
100
AcDbEntity
  8
0
  6
CONTINUOUS
 62
     7
100
AcDbLine
 10
71.68301
 20
70.03927
 30
0.0
 11
71.680892
 21
70.039087
 31
0.0
  0
LINE
  5
28B
330
279
100
AcDbEntity
  8
0
  6
CONTINUOUS
 62
     7
100
AcDbLine
 10
71.680892
 20
70.039087
 30
0.0
 11
71.678637
 21
70.038893
 31
0.0
  0
LINE
  5
28C
330
279
100
AcDbEntity
  8
0
  6
CONTINUOUS
 62
     7
100
AcDbLine
 10
71.678637
 20
70.038893
 30
0.0
 11
71.676261
 21
70.038689
 31
0.0
  0
LINE
  5
28D
330
279
100
AcDbEntity
  8
0
  6
CONTINUOUS
 62
     7
100
AcDbLine
 10
71.676261
 20
70.038689
 30
0.0
 11
71.673782
 21
70.038477
 31
0.0
  0
LINE
  5
28E
330
279
100
AcDbEntity
  8
0
  6
CONTINUOUS
 62
     7
100
AcDbLine
 10
71.673782
 20
70.038477
 30
0.0
 11
71.671282
 21
70.038265
 31
0.0
  0
LINE
  5
28F
330
279
100
AcDbEntity
  8
0
  6
CONTINUOUS
 62
     7
100
AcDbLine
 10
71.671282
 20
70.038265
 30
0.0
 11
71.668696
 21
70.038047
 31
0.0
  0
LINE
  5
290
330
279
100
AcDbEntity
  8
0
  6
CONTINUOUS
 62
     7
100
AcDbLine
 10
71.668696
 20
70.038047
 30
0.0
 11
71.666022
 21
70.037823
 31
0.0
  0
LINE
  5
291
330
279
100
AcDbEntity
  8
0
  6
CONTINUOUS
 62
     7
100
AcDbLine
 10
71.666022
 20
70.037823
 30
0.0
 11
71.663254
 21
70.037593
 31
0.0
  0
LINE
  5
292
330
279
100
AcDbEntity
  8
0
  6
CONTINUOUS
 62
     7
100
AcDbLine
 10
71.663254
 20
70.037593
 30
0.0
 11
71.660389
 21
70.037356
 31
0.0
  0
LINE
  5
293
330
279
100
AcDbEntity
  8
0
  6
CONTINUOUS
 62
     7
100
AcDbLine
 10
71.660389
 20
70.037356
 30
0.0
 11
71.657422
 21
70.037112
 31
0.0
  0
LINE
  5
294
330
279
100
AcDbEntity
  8
0
  6
CONTINUOUS
 62
     7
100
AcDbLine
 10
71.657422
 20
70.037112
 30
0.0
 11
71.65435
 21
70.036861
 31
0.0
  0
LINE
  5
295
330
279
100
AcDbEntity
  8
0
  6
CONTINUOUS
 62
     7
100
AcDbLine
 10
71.65435
 20
70.036861
 30
0.0
 11
71.651168
 21
70.036603
 31
0.0
  0
LINE
  5
296
330
279
100
AcDbEntity
  8
0
  6
CONTINUOUS
 62
     7
100
AcDbLine
 10
71.651168
 20
70.036603
 30
0.0
 11
71.647873
 21
70.036338
 31
0.0
  0
LINE
  5
297
330
279
100
AcDbEntity
  8
0
  6
CONTINUOUS
 62
     7
100
AcDbLine
 10
71.647873
 20
70.036338
 30
0.0
 11
71.64446
 21
70.036065
 31
0.0
  0
LINE
  5
298
330
279
100
AcDbEntity
  8
0
  6
CONTINUOUS
 62
     7
100
AcDbLine
 10
71.64446
 20
70.036065
 30
0.0
 11
71.642709
 21
70.035926
 31
0.0
  0
LINE
  5
299
330
279
100
AcDbEntity
  8
0
  6
CONTINUOUS
 62
     7
100
AcDbLine
 10
71.642709
 20
70.035926
 30
0.0
 11
71.640926
 21
70.035785
 31
0.0
  0
LINE
  5
29A
330
279
100
AcDbEntity
  8
0
  6
CONTINUOUS
 62
     7
100
AcDbLine
 10
71.640926
 20
70.035785
 30
0.0
 11
71.639112
 21
70.035642
 31
0.0
  0
LINE
  5
29B
330
279
100
AcDbEntity
  8
0
  6
CONTINUOUS
 62
     7
100
AcDbLine
 10
71.639112
 20
70.035642
 30
0.0
 11
71.637266
 21
70.035497
 31
0.0
  0
LINE
  5
29C
330
279
100
AcDbEntity
  8
0
  6
CONTINUOUS
 62
     7
100
AcDbLine
 10
71.637266
 20
70.035497
 30
0.0
 11
71.635387
 21
70.035349
 31
0.0
  0
LINE
  5
29D
330
279
100
AcDbEntity
  8
0
  6
CONTINUOUS
 62
     7
100
AcDbLine
 10
71.635387
 20
70.035349
 30
0.0
 11
71.633476
 21
70.0352
 31
0.0
  0
LINE
  5
29E
330
279
100
AcDbEntity
  8
0
  6
CONTINUOUS
 62
     7
100
AcDbLine
 10
71.633476
 20
70.0352
 30
0.0
 11
71.631531
 21
70.035049
 31
0.0
  0
LINE
  5
29F
330
279
100
AcDbEntity
  8
0
  6
CONTINUOUS
 62
     7
100
AcDbLine
 10
71.631531
 20
70.035049
 30
0.0
 11
71.629552
 21
70.034895
 31
0.0
  0
LINE
  5
2A0
330
279
100
AcDbEntity
  8
0
  6
CONTINUOUS
 62
     7
100
AcDbLine
 10
71.629552
 20
70.034895
 30
0.0
 11
71.627539
 21
70.03474
 31
0.0
  0
LINE
  5
2A1
330
279
100
AcDbEntity
  8
0
  6
CONTINUOUS
 62
     7
100
AcDbLine
 10
71.627539
 20
70.03474
 30
0.0
 11
71.625491
 21
70.034582
 31
0.0
  0
LINE
  5
2A2
330
279
100
AcDbEntity
  8
0
  6
CONTINUOUS
 62
     7
100
AcDbLine
 10
71.625491
 20
70.034582
 30
0.0
 11
71.623407
 21
70.034422
 31
0.0
  0
LINE
  5
2A3
330
279
100
AcDbEntity
  8
0
  6
CONTINUOUS
 62
     7
100
AcDbLine
 10
71.623407
 20
70.034422
 30
0.0
 11
71.621287
 21
70.03426
 31
0.0
  0
LINE
  5
2A4
330
279
100
AcDbEntity
  8
0
  6
CONTINUOUS
 62
     7
100
AcDbLine
 10
71.621287
 20
70.03426
 30
0.0
 11
71.619047
 21
70.03409
 31
0.0
  0
LINE
  5
2A5
330
279
100
AcDbEntity
  8
0
  6
CONTINUOUS
 62
     7
100
AcDbLine
 10
71.619047
 20
70.03409
 30
0.0
 11
71.616768
 21
70.033917
 31
0.0
  0
LINE
  5
2A6
330
279
100
AcDbEntity
  8
0
  6
CONTINUOUS
 62
     7
100
AcDbLine
 10
71.616768
 20
70.033917
 30
0.0
 11
71.614451
 21
70.033742
 31
0.0
  0
LINE
  5
2A7
330
279
100
AcDbEntity
  8
0
  6
CONTINUOUS
 62
     7
100
AcDbLine
 10
71.614451
 20
70.033742
 30
0.0
 11
71.612094
 21
70.033564
 31
0.0
  0
LINE
  5
2A8
330
279
100
AcDbEntity
  8
0
  6
CONTINUOUS
 62
     7
100
AcDbLine
 10
71.612094
 20
70.033564
 30
0.0
 11
71.6097
 21
70.033384
 31
0.0
  0
LINE
  5
2A9
330
279
100
AcDbEntity
  8
0
  6
CONTINUOUS
 62
     7
100
AcDbLine
 10
71.6097
 20
70.033384
 30
0.0
 11
71.607268
 21
70.033202
 31
0.0
  0
LINE
  5
2AA
330
279
100
AcDbEntity
  8
0
  6
CONTINUOUS
 62
     7
100
AcDbLine
 10
71.607268
 20
70.033202
 30
0.0
 11
71.604798
 21
70.033018
 31
0.0
  0
LINE
  5
2AB
330
279
100
AcDbEntity
  8
0
  6
CONTINUOUS
 62
     7
100
AcDbLine
 10
71.604798
 20
70.033018
 30
0.0
 11
71.602291
 21
70.032831
 31
0.0
  0
LINE
  5
2AC
330
279
100
AcDbEntity
  8
0
  6
CONTINUOUS
 62
     7
100
AcDbLine
 10
71.602291
 20
70.032831
 30
0.0
 11
71.599746
 21
70.032643
 31
0.0
  0
LINE
  5
2AD
330
279
100
AcDbEntity
  8
0
  6
CONTINUOUS
 62
     7
100
AcDbLine
 10
71.599746
 20
70.032643
 30
0.0
 11
71.597166
 21
70.032452
 31
0.0
  0
LINE
  5
2AE
330
279
100
AcDbEntity
  8
0
  6
CONTINUOUS
 62
     7
100
AcDbLine
 10
71.597166
 20
70.032452
 30
0.0
 11
71.594548
 21
70.03226
 31
0.0
  0
LINE
  5
2AF
330
279
100
AcDbEntity
  8
0
  6
CONTINUOUS
 62
     7
100
AcDbLine
 10
71.594548
 20
70.03226
 30
0.0
 11
71.591895
 21
70.032065
 31
0.0
  0
LINE
  5
2B0
330
279
100
AcDbEntity
  8
0
  6
CONTINUOUS
 62
     7
100
AcDbLine
 10
71.591895
 20
70.032065
 30
0.0
 11
71.589205
 21
70.031868
 31
0.0
  0
LINE
  5
2B1
330
279
100
AcDbEntity
  8
0
  6
CONTINUOUS
 62
     7
100
AcDbLine
 10
71.589205
 20
70.031868
 30
0.0
 11
71.58648
 21
70.031669
 31
0.0
  0
LINE
  5
2B2
330
279
100
AcDbEntity
  8
0
  6
CONTINUOUS
 62
     7
100
AcDbLine
 10
71.58648
 20
70.031669
 30
0.0
 11
71.58372
 21
70.031469
 31
0.0
  0
LINE
  5
2B3
330
279
100
AcDbEntity
  8
0
  6
CONTINUOUS
 62
     7
100
AcDbLine
 10
71.58372
 20
70.031469
 30
0.0
 11
71.580925
 21
70.031266
 31
0.0
  0
LINE
  5
2B4
330
279
100
AcDbEntity
  8
0
  6
CONTINUOUS
 62
     7
100
AcDbLine
 10
71.580925
 20
70.031266
 30
0.0
 11
71.578095
 21
70.031062
 31
0.0
  0
LINE
  5
2B5
330
279
100
AcDbEntity
  8
0
  6
CONTINUOUS
 62
     7
100
AcDbLine
 10
71.578095
 20
70.031062
 30
0.0
 11
71.575231
 21
70.030856
 31
0.0
  0
LINE
  5
2B6
330
279
100
AcDbEntity
  8
0
  6
CONTINUOUS
 62
     7
100
AcDbLine
 10
71.575231
 20
70.030856
 30
0.0
 11
71.572333
 21
70.030648
 31
0.0
  0
LINE
  5
2B7
330
279
100
AcDbEntity
  8
0
  6
CONTINUOUS
 62
     7
100
AcDbLine
 10
71.572333
 20
70.030648
 30
0.0
 11
71.5694
 21
70.030438
 31
0.0
  0
LINE
  5
2B8
330
279
100
AcDbEntity
  8
0
  6
CONTINUOUS
 62
     7
100
AcDbLine
 10
71.5694
 20
70.030438
 30
0.0
 11
71.566435
 21
70.030227
 31
0.0
  0
LINE
  5
2B9
330
279
100
AcDbEntity
  8
0
  6
CONTINUOUS
 62
     7
100
AcDbLine
 10
71.566435
 20
70.030227
 30
0.0
 11
71.563436
 21
70.030014
 31
0.0
  0
LINE
  5
2BA
330
279
100
AcDbEntity
  8
0
  6
CONTINUOUS
 62
     7
100
AcDbLine
 10
71.563436
 20
70.030014
 30
0.0
 11
71.560404
 21
70.029799
 31
0.0
  0
LINE
  5
2BB
330
279
100
AcDbEntity
  8
0
  6
CONTINUOUS
 62
     7
100
AcDbLine
 10
71.560404
 20
70.029799
 30
0.0
 11
71.55734
 21
70.029583
 31
0.0
  0
LINE
  5
2BC
330
279
100
AcDbEntity
  8
0
  6
CONTINUOUS
 62
     7
100
AcDbLine
 10
71.55734
 20
70.029583
 30
0.0
 11
71.554243
 21
70.029365
 31
0.0
  0
LINE
  5
2BD
330
279
100
AcDbEntity
  8
0
  6
CONTINUOUS
 62
     7
100
AcDbLine
 10
71.554243
 20
70.029365
 30
0.0
 11
71.551114
 21
70.029146
 31
0.0
  0
LINE
  5
2BE
330
279
100
AcDbEntity
  8
0
  6
CONTINUOUS
 62
     7
100
AcDbLine
 10
71.551114
 20
70.029146
 30
0.0
 11
71.547953
 21
70.028925
 31
0.0
  0
LINE
  5
2BF
330
279
100
AcDbEntity
  8
0
  6
CONTINUOUS
 62
     7
100
AcDbLine
 10
71.547953
 20
70.028925
 30
0.0
 11
71.544761
 21
70.028702
 31
0.0
  0
LINE
  5
2C0
330
279
100
AcDbEntity
  8
0
  6
CONTINUOUS
 62
     7
100
AcDbLine
 10
71.544761
 20
70.028702
 30
0.0
 11
71.541538
 21
70.028478
 31
0.0
  0
LINE
  5
2C1
330
279
100
AcDbEntity
  8
0
  6
CONTINUOUS
 62
     7
100
AcDbLine
 10
71.541538
 20
70.028478
 30
0.0
 11
71.538284
 21
70.028253
 31
0.0
  0
LINE
  5
2C2
330
279
100
AcDbEntity
  8
0
  6
CONTINUOUS
 62
     7
100
AcDbLine
 10
71.538284
 20
70.028253
 30
0.0
 11
71.534999
 21
70.028026
 31
0.0
  0
LINE
  5
2C3
330
279
100
AcDbEntity
  8
0
  6
CONTINUOUS
 62
     7
100
AcDbLine
 10
71.534999
 20
70.028026
 30
0.0
 11
71.531684
 21
70.027798
 31
0.0
  0
LINE
  5
2C4
330
279
100
AcDbEntity
  8
0
  6
CONTINUOUS
 62
     7
100
AcDbLine
 10
71.531684
 20
70.027798
 30
0.0
 11
71.528339
 21
70.027569
 31
0.0
  0
LINE
  5
2C5
330
279
100
AcDbEntity
  8
0
  6
CONTINUOUS
 62
     7
100
AcDbLine
 10
71.528339
 20
70.027569
 30
0.0
 11
71.524964
 21
70.027338
 31
0.0
  0
LINE
  5
2C6
330
279
100
AcDbEntity
  8
0
  6
CONTINUOUS
 62
     7
100
AcDbLine
 10
71.524964
 20
70.027338
 30
0.0
 11
71.52156
 21
70.027106
 31
0.0
  0
LINE
  5
2C7
330
279
100
AcDbEntity
  8
0
  6
CONTINUOUS
 62
     7
100
AcDbLine
 10
71.52156
 20
70.027106
 30
0.0
 11
71.518126
 21
70.026873
 31
0.0
  0
LINE
  5
2C8
330
279
100
AcDbEntity
  8
0
  6
CONTINUOUS
 62
     7
100
AcDbLine
 10
71.518126
 20
70.026873
 30
0.0
 11
71.514664
 21
70.026639
 31
0.0
  0
LINE
  5
2C9
330
279
100
AcDbEntity
  8
0
  6
CONTINUOUS
 62
     7
100
AcDbLine
 10
71.514664
 20
70.026639
 30
0.0
 11
71.511173
 21
70.026403
 31
0.0
  0
LINE
  5
2CA
330
279
100
AcDbEntity
  8
0
  6
CONTINUOUS
 62
     7
100
AcDbLine
 10
71.511173
 20
70.026403
 30
0.0
 11
71.507654
 21
70.026167
 31
0.0
  0
LINE
  5
2CB
330
279
100
AcDbEntity
  8
0
  6
CONTINUOUS
 62
     7
100
AcDbLine
 10
71.507654
 20
70.026167
 30
0.0
 11
71.504107
 21
70.025929
 31
0.0
  0
LINE
  5
2CC
330
279
100
AcDbEntity
  8
0
  6
CONTINUOUS
 62
     7
100
AcDbLine
 10
71.504107
 20
70.025929
 30
0.0
 11
71.500533
 21
70.02569
 31
0.0
  0
LINE
  5
2CD
330
279
100
AcDbEntity
  8
0
  6
CONTINUOUS
 62
     7
100
AcDbLine
 10
71.500533
 20
70.02569
 30
0.0
 11
71.49693
 21
70.025451
 31
0.0
  0
LINE
  5
2CE
330
279
100
AcDbEntity
  8
0
  6
CONTINUOUS
 62
     7
100
AcDbLine
 10
71.49693
 20
70.025451
 30
0.0
 11
71.493301
 21
70.02521
 31
0.0
  0
LINE
  5
2CF
330
279
100
AcDbEntity
  8
0
  6
CONTINUOUS
 62
     7
100
AcDbLine
 10
71.493301
 20
70.02521
 30
0.0
 11
71.489645
 21
70.024968
 31
0.0
  0
LINE
  5
2D0
330
279
100
AcDbEntity
  8
0
  6
CONTINUOUS
 62
     7
100
AcDbLine
 10
71.489645
 20
70.024968
 30
0.0
 11
71.485963
 21
70.024726
 31
0.0
  0
LINE
  5
2D1
330
279
100
AcDbEntity
  8
0
  6
CONTINUOUS
 62
     7
100
AcDbLine
 10
71.485963
 20
70.024726
 30
0.0
 11
71.482254
 21
70.024482
 31
0.0
  0
LINE
  5
2D2
330
279
100
AcDbEntity
  8
0
  6
CONTINUOUS
 62
     7
100
AcDbLine
 10
71.482254
 20
70.024482
 30
0.0
 11
71.47852
 21
70.024238
 31
0.0
  0
LINE
  5
2D3
330
279
100
AcDbEntity
  8
0
  6
CONTINUOUS
 62
     7
100
AcDbLine
 10
71.47852
 20
70.024238
 30
0.0
 11
71.474759
 21
70.023993
 31
0.0
  0
LINE
  5
2D4
330
279
100
AcDbEntity
  8
0
  6
CONTINUOUS
 62
     7
100
AcDbLine
 10
71.474759
 20
70.023993
 30
0.0
 11
71.470974
 21
70.023747
 31
0.0
  0
LINE
  5
2D5
330
279
100
AcDbEntity
  8
0
  6
CONTINUOUS
 62
     7
100
AcDbLine
 10
71.470974
 20
70.023747
 30
0.0
 11
71.467163
 21
70.023501
 31
0.0
  0
LINE
  5
2D6
330
279
100
AcDbEntity
  8
0
  6
CONTINUOUS
 62
     7
100
AcDbLine
 10
71.467163
 20
70.023501
 30
0.0
 11
71.463328
 21
70.023253
 31
0.0
  0
LINE
  5
2D7
330
279
100
AcDbEntity
  8
0
  6
CONTINUOUS
 62
     7
100
AcDbLine
 10
71.463328
 20
70.023253
 30
0.0
 11
71.459468
 21
70.023005
 31
0.0
  0
LINE
  5
2D8
330
279
100
AcDbEntity
  8
0
  6
CONTINUOUS
 62
     7
100
AcDbLine
 10
71.459468
 20
70.023005
 30
0.0
 11
71.455584
 21
70.022757
 31
0.0
  0
LINE
  5
2D9
330
279
100
AcDbEntity
  8
0
  6
CONTINUOUS
 62
     7
100
AcDbLine
 10
71.455584
 20
70.022757
 30
0.0
 11
71.451676
 21
70.022508
 31
0.0
  0
LINE
  5
2DA
330
279
100
AcDbEntity
  8
0
  6
CONTINUOUS
 62
     7
100
AcDbLine
 10
71.451676
 20
70.022508
 30
0.0
 11
71.447744
 21
70.022258
 31
0.0
  0
LINE
  5
2DB
330
279
100
AcDbEntity
  8
0
  6
CONTINUOUS
 62
     7
100
AcDbLine
 10
71.447744
 20
70.022258
 30
0.0
 11
71.443789
 21
70.022008
 31
0.0
  0
LINE
  5
2DC
330
279
100
AcDbEntity
  8
0
  6
CONTINUOUS
 62
     7
100
AcDbLine
 10
71.443789
 20
70.022008
 30
0.0
 11
71.439812
 21
70.021757
 31
0.0
  0
LINE
  5
2DD
330
279
100
AcDbEntity
  8
0
  6
CONTINUOUS
 62
     7
100
AcDbLine
 10
71.439812
 20
70.021757
 30
0.0
 11
71.435811
 21
70.021506
 31
0.0
  0
LINE
  5
2DE
330
279
100
AcDbEntity
  8
0
  6
CONTINUOUS
 62
     7
100
AcDbLine
 10
71.435811
 20
70.021506
 30
0.0
 11
71.431788
 21
70.021254
 31
0.0
  0
LINE
  5
2DF
330
279
100
AcDbEntity
  8
0
  6
CONTINUOUS
 62
     7
100
AcDbLine
 10
71.431788
 20
70.021254
 30
0.0
 11
71.427743
 21
70.021002
 31
0.0
  0
LINE
  5
2E0
330
279
100
AcDbEntity
  8
0
  6
CONTINUOUS
 62
     7
100
AcDbLine
 10
71.427743
 20
70.021002
 30
0.0
 11
71.423676
 21
70.020749
 31
0.0
  0
LINE
  5
2E1
330
279
100
AcDbEntity
  8
0
  6
CONTINUOUS
 62
     7
100
AcDbLine
 10
71.423676
 20
70.020749
 30
0.0
 11
71.419588
 21
70.020496
 31
0.0
  0
LINE
  5
2E2
330
279
100
AcDbEntity
  8
0
  6
CONTINUOUS
 62
     7
100
AcDbLine
 10
71.419588
 20
70.020496
 30
0.0
 11
71.415478
 21
70.020243
 31
0.0
  0
LINE
  5
2E3
330
279
100
AcDbEntity
  8
0
  6
CONTINUOUS
 62
     7
100
AcDbLine
 10
71.415478
 20
70.020243
 30
0.0
 11
71.411347
 21
70.01999
 31
0.0
  0
LINE
  5
2E4
330
279
100
AcDbEntity
  8
0
  6
CONTINUOUS
 62
     7
100
AcDbLine
 10
71.411347
 20
70.01999
 30
0.0
 11
71.407208
 21
70.019737
 31
0.0
  0
LINE
  5
2E5
330
279
100
AcDbEntity
  8
0
  6
CONTINUOUS
 62
     7
100
AcDbLine
 10
71.407208
 20
70.019737
 30
0.0
 11
71.403048
 21
70.019484
 31
0.0
  0
LINE
  5
2E6
330
279
100
AcDbEntity
  8
0
  6
CONTINUOUS
 62
     7
100
AcDbLine
 10
71.403048
 20
70.019484
 30
0.0
 11
71.398867
 21
70.01923
 31
0.0
  0
LINE
  5
2E7
330
279
100
AcDbEntity
  8
0
  6
CONTINUOUS
 62
     7
100
AcDbLine
 10
71.398867
 20
70.01923
 30
0.0
 11
71.394666
 21
70.018977
 31
0.0
  0
LINE
  5
2E8
330
279
100
AcDbEntity
  8
0
  6
CONTINUOUS
 62
     7
100
AcDbLine
 10
71.394666
 20
70.018977
 30
0.0
 11
71.390445
 21
70.018724
 31
0.0
  0
LINE
  5
2E9
330
279
100
AcDbEntity
  8
0
  6
CONTINUOUS
 62
     7
100
AcDbLine
 10
71.390445
 20
70.018724
 30
0.0
 11
71.386204
 21
70.01847
 31
0.0
  0
LINE
  5
2EA
330
279
100
AcDbEntity
  8
0
  6
CONTINUOUS
 62
     7
100
AcDbLine
 10
71.386204
 20
70.01847
 30
0.0
 11
71.381942
 21
70.018217
 31
0.0
  0
LINE
  5
2EB
330
279
100
AcDbEntity
  8
0
  6
CONTINUOUS
 62
     7
100
AcDbLine
 10
71.381942
 20
70.018217
 30
0.0
 11
71.377661
 21
70.017963
 31
0.0
  0
LINE
  5
2EC
330
279
100
AcDbEntity
  8
0
  6
CONTINUOUS
 62
     7
100
AcDbLine
 10
71.377661
 20
70.017963
 30
0.0
 11
71.373359
 21
70.01771
 31
0.0
  0
LINE
  5
2ED
330
279
100
AcDbEntity
  8
0
  6
CONTINUOUS
 62
     7
100
AcDbLine
 10
71.373359
 20
70.01771
 30
0.0
 11
71.369037
 21
70.017457
 31
0.0
  0
LINE
  5
2EE
330
279
100
AcDbEntity
  8
0
  6
CONTINUOUS
 62
     7
100
AcDbLine
 10
71.369037
 20
70.017457
 30
0.0
 11
71.364696
 21
70.017203
 31
0.0
  0
LINE
  5
2EF
330
279
100
AcDbEntity
  8
0
  6
CONTINUOUS
 62
     7
100
AcDbLine
 10
71.364696
 20
70.017203
 30
0.0
 11
71.360334
 21
70.016951
 31
0.0
  0
LINE
  5
2F0
330
279
100
AcDbEntity
  8
0
  6
CONTINUOUS
 62
     7
100
AcDbLine
 10
71.360334
 20
70.016951
 30
0.0
 11
71.355953
 21
70.016698
 31
0.0
  0
LINE
  5
2F1
330
279
100
AcDbEntity
  8
0
  6
CONTINUOUS
 62
     7
100
AcDbLine
 10
71.355953
 20
70.016698
 30
0.0
 11
71.351552
 21
70.016446
 31
0.0
  0
LINE
  5
2F2
330
279
100
AcDbEntity
  8
0
  6
CONTINUOUS
 62
     7
100
AcDbLine
 10
71.351552
 20
70.016446
 30
0.0
 11
71.347131
 21
70.016194
 31
0.0
  0
LINE
  5
2F3
330
279
100
AcDbEntity
  8
0
  6
CONTINUOUS
 62
     7
100
AcDbLine
 10
71.347131
 20
70.016194
 30
0.0
 11
71.34269
 21
70.015942
 31
0.0
  0
LINE
  5
2F4
330
279
100
AcDbEntity
  8
0
  6
CONTINUOUS
 62
     7
100
AcDbLine
 10
71.34269
 20
70.015942
 30
0.0
 11
71.33823
 21
70.015691
 31
0.0
  0
LINE
  5
2F5
330
279
100
AcDbEntity
  8
0
  6
CONTINUOUS
 62
     7
100
AcDbLine
 10
71.33823
 20
70.015691
 30
0.0
 11
71.333751
 21
70.01544
 31
0.0
  0
LINE
  5
2F6
330
279
100
AcDbEntity
  8
0
  6
CONTINUOUS
 62
     7
100
AcDbLine
 10
71.333751
 20
70.01544
 30
0.0
 11
71.331504
 21
70.015315
 31
0.0
  0
LINE
  5
2F7
330
279
100
AcDbEntity
  8
0
  6
CONTINUOUS
 62
     7
100
AcDbLine
 10
71.331504
 20
70.015315
 30
0.0
 11
71.329252
 21
70.015189
 31
0.0
  0
LINE
  5
2F8
330
279
100
AcDbEntity
  8
0
  6
CONTINUOUS
 62
     7
100
AcDbLine
 10
71.329252
 20
70.015189
 30
0.0
 11
71.326995
 21
70.015064
 31
0.0
  0
LINE
  5
2F9
330
279
100
AcDbEntity
  8
0
  6
CONTINUOUS
 62
     7
100
AcDbLine
 10
71.326995
 20
70.015064
 30
0.0
 11
71.324734
 21
70.01494
 31
0.0
  0
LINE
  5
2FA
330
279
100
AcDbEntity
  8
0
  6
CONTINUOUS
 62
     7
100
AcDbLine
 10
71.324734
 20
70.01494
 30
0.0
 11
71.322467
 21
70.014815
 31
0.0
  0
LINE
  5
2FB
330
279
100
AcDbEntity
  8
0
  6
CONTINUOUS
 62
     7
100
AcDbLine
 10
71.322467
 20
70.014815
 30
0.0
 11
71.320196
 21
70.01469
 31
0.0
  0
LINE
  5
2FC
330
279
100
AcDbEntity
  8
0
  6
CONTINUOUS
 62
     7
100
AcDbLine
 10
71.320196
 20
70.01469
 30
0.0
 11
71.31792
 21
70.014566
 31
0.0
  0
LINE
  5
2FD
330
279
100
AcDbEntity
  8
0
  6
CONTINUOUS
 62
     7
100
AcDbLine
 10
71.31792
 20
70.014566
 30
0.0
 11
71.315639
 21
70.014442
 31
0.0
  0
LINE
  5
2FE
330
279
100
AcDbEntity
  8
0
  6
CONTINUOUS
 62
     7
100
AcDbLine
 10
71.315639
 20
70.014442
 30
0.0
 11
71.313354
 21
70.014318
 31
0.0
  0
LINE
  5
2FF
330
279
100
AcDbEntity
  8
0
  6
CONTINUOUS
 62
     7
100
AcDbLine
 10
71.313354
 20
70.014318
 30
0.0
 11
71.311063
 21
70.014194
 31
0.0
  0
LINE
  5
300
330
279
100
AcDbEntity
  8
0
  6
CONTINUOUS
 62
     7
100
AcDbLine
 10
71.311063
 20
70.014194
 30
0.0
 11
71.308768
 21
70.01407
 31
0.0
  0
LINE
  5
301
330
279
100
AcDbEntity
  8
0
  6
CONTINUOUS
 62
     7
100
AcDbLine
 10
71.308768
 20
70.01407
 30
0.0
 11
71.306468
 21
70.013946
 31
0.0
  0
LINE
  5
302
330
279
100
AcDbEntity
  8
0
  6
CONTINUOUS
 62
     7
100
AcDbLine
 10
71.306468
 20
70.013946
 30
0.0
 11
71.304163
 21
70.013823
 31
0.0
  0
LINE
  5
303
330
279
100
AcDbEntity
  8
0
  6
CONTINUOUS
 62
     7
100
AcDbLine
 10
71.304163
 20
70.013823
 30
0.0
 11
71.301854
 21
70.0137
 31
0.0
  0
LINE
  5
304
330
279
100
AcDbEntity
  8
0
  6
CONTINUOUS
 62
     7
100
AcDbLine
 10
71.301854
 20
70.0137
 30
0.0
 11
71.299539
 21
70.013577
 31
0.0
  0
LINE
  5
305
330
279
100
AcDbEntity
  8
0
  6
CONTINUOUS
 62
     7
100
AcDbLine
 10
71.299539
 20
70.013577
 30
0.0
 11
71.29722
 21
70.013454
 31
0.0
  0
LINE
  5
306
330
279
100
AcDbEntity
  8
0
  6
CONTINUOUS
 62
     7
100
AcDbLine
 10
71.29722
 20
70.013454
 30
0.0
 11
71.294897
 21
70.013331
 31
0.0
  0
LINE
  5
307
330
279
100
AcDbEntity
  8
0
  6
CONTINUOUS
 62
     7
100
AcDbLine
 10
71.294897
 20
70.013331
 30
0.0
 11
71.292568
 21
70.013209
 31
0.0
  0
LINE
  5
308
330
279
100
AcDbEntity
  8
0
  6
CONTINUOUS
 62
     7
100
AcDbLine
 10
71.292568
 20
70.013209
 30
0.0
 11
71.290235
 21
70.013087
 31
0.0
  0
LINE
  5
309
330
279
100
AcDbEntity
  8
0
  6
CONTINUOUS
 62
     7
100
AcDbLine
 10
71.290235
 20
70.013087
 30
0.0
 11
71.287897
 21
70.012965
 31
0.0
  0
LINE
  5
30A
330
279
100
AcDbEntity
  8
0
  6
CONTINUOUS
 62
     7
100
AcDbLine
 10
71.287897
 20
70.012965
 30
0.0
 11
71.285554
 21
70.012843
 31
0.0
  0
LINE
  5
30B
330
279
100
AcDbEntity
  8
0
  6
CONTINUOUS
 62
     7
100
AcDbLine
 10
71.285554
 20
70.012843
 30
0.0
 11
71.283207
 21
70.012721
 31
0.0
  0
LINE
  5
30C
330
279
100
AcDbEntity
  8
0
  6
CONTINUOUS
 62
     7
100
AcDbLine
 10
71.283207
 20
70.012721
 30
0.0
 11
71.280855
 21
70.0126
 31
0.0
  0
LINE
  5
30D
330
279
100
AcDbEntity
  8
0
  6
CONTINUOUS
 62
     7
100
AcDbLine
 10
71.280855
 20
70.0126
 30
0.0
 11
71.278498
 21
70.012479
 31
0.0
  0
LINE
  5
30E
330
279
100
AcDbEntity
  8
0
  6
CONTINUOUS
 62
     7
100
AcDbLine
 10
71.278498
 20
70.012479
 30
0.0
 11
71.276137
 21
70.012358
 31
0.0
  0
LINE
  5
30F
330
279
100
AcDbEntity
  8
0
  6
CONTINUOUS
 62
     7
100
AcDbLine
 10
71.276137
 20
70.012358
 30
0.0
 11
71.273771
 21
70.012237
 31
0.0
  0
LINE
  5
310
330
279
100
AcDbEntity
  8
0
  6
CONTINUOUS
 62
     7
100
AcDbLine
 10
71.273771
 20
70.012237
 30
0.0
 11
71.2714
 21
70.012117
 31
0.0
  0
LINE
  5
311
330
279
100
AcDbEntity
  8
0
  6
CONTINUOUS
 62
     7
100
AcDbLine
 10
71.2714
 20
70.012117
 30
0.0
 11
71.269025
 21
70.011997
 31
0.0
  0
LINE
  5
312
330
279
100
AcDbEntity
  8
0
  6
CONTINUOUS
 62
     7
100
AcDbLine
 10
71.269025
 20
70.011997
 30
0.0
 11
71.266645
 21
70.011877
 31
0.0
  0
LINE
  5
313
330
279
100
AcDbEntity
  8
0
  6
CONTINUOUS
 62
     7
100
AcDbLine
 10
71.266645
 20
70.011877
 30
0.0
 11
71.26426
 21
70.011757
 31
0.0
  0
LINE
  5
314
330
279
100
AcDbEntity
  8
0
  6
CONTINUOUS
 62
     7
100
AcDbLine
 10
71.26426
 20
70.011757
 30
0.0
 11
71.261871
 21
70.011638
 31
0.0
  0
LINE
  5
315
330
279
100
AcDbEntity
  8
0
  6
CONTINUOUS
 62
     7
100
AcDbLine
 10
71.261871
 20
70.011638
 30
0.0
 11
71.259477
 21
70.011519
 31
0.0
  0
LINE
  5
316
330
279
100
AcDbEntity
  8
0
  6
CONTINUOUS
 62
     7
100
AcDbLine
 10
71.259477
 20
70.011519
 30
0.0
 11
71.257078
 21
70.0114
 31
0.0
  0
LINE
  5
317
330
279
100
AcDbEntity
  8
0
  6
CONTINUOUS
 62
     7
100
AcDbLine
 10
71.257078
 20
70.0114
 30
0.0
 11
71.254675
 21
70.011282
 31
0.0
  0
LINE
  5
318
330
279
100
AcDbEntity
  8
0
  6
CONTINUOUS
 62
     7
100
AcDbLine
 10
71.254675
 20
70.011282
 30
0.0
 11
71.252267
 21
70.011164
 31
0.0
  0
LINE
  5
319
330
279
100
AcDbEntity
  8
0
  6
CONTINUOUS
 62
     7
100
AcDbLine
 10
71.252267
 20
70.011164
 30
0.0
 11
71.249855
 21
70.011046
 31
0.0
  0
LINE
  5
31A
330
279
100
AcDbEntity
  8
0
  6
CONTINUOUS
 62
     7
100
AcDbLine
 10
71.249855
 20
70.011046
 30
0.0
 11
71.247438
 21
70.010928
 31
0.0
  0
LINE
  5
31B
330
279
100
AcDbEntity
  8
0
  6
CONTINUOUS
 62
     7
100
AcDbLine
 10
71.247438
 20
70.010928
 30
0.0
 11
71.245017
 21
70.010811
 31
0.0
  0
LINE
  5
31C
330
279
100
AcDbEntity
  8
0
  6
CONTINUOUS
 62
     7
100
AcDbLine
 10
71.245017
 20
70.010811
 30
0.0
 11
71.242591
 21
70.010694
 31
0.0
  0
LINE
  5
31D
330
279
100
AcDbEntity
  8
0
  6
CONTINUOUS
 62
     7
100
AcDbLine
 10
71.242591
 20
70.010694
 30
0.0
 11
71.24016
 21
70.010577
 31
0.0
  0
LINE
  5
31E
330
279
100
AcDbEntity
  8
0
  6
CONTINUOUS
 62
     7
100
AcDbLine
 10
71.24016
 20
70.010577
 30
0.0
 11
71.237725
 21
70.010461
 31
0.0
  0
LINE
  5
31F
330
279
100
AcDbEntity
  8
0
  6
CONTINUOUS
 62
     7
100
AcDbLine
 10
71.237725
 20
70.010461
 30
0.0
 11
71.235285
 21
70.010345
 31
0.0
  0
LINE
  5
320
330
279
100
AcDbEntity
  8
0
  6
CONTINUOUS
 62
     7
100
AcDbLine
 10
71.235285
 20
70.010345
 30
0.0
 11
71.232841
 21
70.010229
 31
0.0
  0
LINE
  5
321
330
279
100
AcDbEntity
  8
0
  6
CONTINUOUS
 62
     7
100
AcDbLine
 10
71.232841
 20
70.010229
 30
0.0
 11
71.230392
 21
70.010114
 31
0.0
  0
LINE
  5
322
330
279
100
AcDbEntity
  8
0
  6
CONTINUOUS
 62
     7
100
AcDbLine
 10
71.230392
 20
70.010114
 30
0.0
 11
71.227939
 21
70.009999
 31
0.0
  0
LINE
  5
323
330
279
100
AcDbEntity
  8
0
  6
CONTINUOUS
 62
     7
100
AcDbLine
 10
71.227939
 20
70.009999
 30
0.0
 11
71.225481
 21
70.009884
 31
0.0
  0
LINE
  5
324
330
279
100
AcDbEntity
  8
0
  6
CONTINUOUS
 62
     7
100
AcDbLine
 10
71.225481
 20
70.009884
 30
0.0
 11
71.223019
 21
70.00977
 31
0.0
  0
LINE
  5
325
330
279
100
AcDbEntity
  8
0
  6
CONTINUOUS
 62
     7
100
AcDbLine
 10
71.223019
 20
70.00977
 30
0.0
 11
71.220552
 21
70.009656
 31
0.0
  0
LINE
  5
326
330
279
100
AcDbEntity
  8
0
  6
CONTINUOUS
 62
     7
100
AcDbLine
 10
71.220552
 20
70.009656
 30
0.0
 11
71.218081
 21
70.009542
 31
0.0
  0
LINE
  5
327
330
279
100
AcDbEntity
  8
0
  6
CONTINUOUS
 62
     7
100
AcDbLine
 10
71.218081
 20
70.009542
 30
0.0
 11
71.215605
 21
70.009429
 31
0.0
  0
LINE
  5
328
330
279
100
AcDbEntity
  8
0
  6
CONTINUOUS
 62
     7
100
AcDbLine
 10
71.215605
 20
70.009429
 30
0.0
 11
71.213125
 21
70.009316
 31
0.0
  0
LINE
  5
329
330
279
100
AcDbEntity
  8
0
  6
CONTINUOUS
 62
     7
100
AcDbLine
 10
71.213125
 20
70.009316
 30
0.0
 11
71.21064
 21
70.009204
 31
0.0
  0
LINE
  5
32A
330
279
100
AcDbEntity
  8
0
  6
CONTINUOUS
 62
     7
100
AcDbLine
 10
71.21064
 20
70.009204
 30
0.0
 11
71.208151
 21
70.009091
 31
0.0
  0
LINE
  5
32B
330
279
100
AcDbEntity
  8
0
  6
CONTINUOUS
 62
     7
100
AcDbLine
 10
71.208151
 20
70.009091
 30
0.0
 11
71.205657
 21
70.00898
 31
0.0
  0
LINE
  5
32C
330
279
100
AcDbEntity
  8
0
  6
CONTINUOUS
 62
     7
100
AcDbLine
 10
71.205657
 20
70.00898
 30
0.0
 11
71.203159
 21
70.008868
 31
0.0
  0
LINE
  5
32D
330
279
100
AcDbEntity
  8
0
  6
CONTINUOUS
 62
     7
100
AcDbLine
 10
71.203159
 20
70.008868
 30
0.0
 11
71.200657
 21
70.008757
 31
0.0
  0
LINE
  5
32E
330
279
100
AcDbEntity
  8
0
  6
CONTINUOUS
 62
     7
100
AcDbLine
 10
71.200657
 20
70.008757
 30
0.0
 11
71.19815
 21
70.008647
 31
0.0
  0
LINE
  5
32F
330
279
100
AcDbEntity
  8
0
  6
CONTINUOUS
 62
     7
100
AcDbLine
 10
71.19815
 20
70.008647
 30
0.0
 11
71.195638
 21
70.008537
 31
0.0
  0
LINE
  5
330
330
279
100
AcDbEntity
  8
0
  6
CONTINUOUS
 62
     7
100
AcDbLine
 10
71.195638
 20
70.008537
 30
0.0
 11
71.193122
 21
70.008427
 31
0.0
  0
LINE
  5
331
330
279
100
AcDbEntity
  8
0
  6
CONTINUOUS
 62
     7
100
AcDbLine
 10
71.193122
 20
70.008427
 30
0.0
 11
71.190602
 21
70.008318
 31
0.0
  0
LINE
  5
332
330
279
100
AcDbEntity
  8
0
  6
CONTINUOUS
 62
     7
100
AcDbLine
 10
71.190602
 20
70.008318
 30
0.0
 11
71.188078
 21
70.008209
 31
0.0
  0
LINE
  5
333
330
279
100
AcDbEntity
  8
0
  6
CONTINUOUS
 62
     7
100
AcDbLine
 10
71.188078
 20
70.008209
 30
0.0
 11
71.185549
 21
70.0081
 31
0.0
  0
LINE
  5
334
330
279
100
AcDbEntity
  8
0
  6
CONTINUOUS
 62
     7
100
AcDbLine
 10
71.185549
 20
70.0081
 30
0.0
 11
71.183015
 21
70.007992
 31
0.0
  0
LINE
  5
335
330
279
100
AcDbEntity
  8
0
  6
CONTINUOUS
 62
     7
100
AcDbLine
 10
71.183015
 20
70.007992
 30
0.0
 11
71.180478
 21
70.007885
 31
0.0
  0
LINE
  5
336
330
279
100
AcDbEntity
  8
0
  6
CONTINUOUS
 62
     7
100
AcDbLine
 10
71.180478
 20
70.007885
 30
0.0
 11
71.177936
 21
70.007777
 31
0.0
  0
LINE
  5
337
330
279
100
AcDbEntity
  8
0
  6
CONTINUOUS
 62
     7
100
AcDbLine
 10
71.177936
 20
70.007777
 30
0.0
 11
71.175389
 21
70.007671
 31
0.0
  0
LINE
  5
338
330
279
100
AcDbEntity
  8
0
  6
CONTINUOUS
 62
     7
100
AcDbLine
 10
71.175389
 20
70.007671
 30
0.0
 11
71.172838
 21
70.007564
 31
0.0
  0
LINE
  5
339
330
279
100
AcDbEntity
  8
0
  6
CONTINUOUS
 62
     7
100
AcDbLine
 10
71.172838
 20
70.007564
 30
0.0
 11
71.170283
 21
70.007458
 31
0.0
  0
LINE
  5
33A
330
279
100
AcDbEntity
  8
0
  6
CONTINUOUS
 62
     7
100
AcDbLine
 10
71.170283
 20
70.007458
 30
0.0
 11
71.167724
 21
70.007353
 31
0.0
  0
LINE
  5
33B
330
279
100
AcDbEntity
  8
0
  6
CONTINUOUS
 62
     7
100
AcDbLine
 10
71.167724
 20
70.007353
 30
0.0
 11
71.16516
 21
70.007248
 31
0.0
  0
LINE
  5
33C
330
279
100
AcDbEntity
  8
0
  6
CONTINUOUS
 62
     7
100
AcDbLine
 10
71.16516
 20
70.007248
 30
0.0
 11
71.162592
 21
70.007144
 31
0.0
  0
LINE
  5
33D
330
279
100
AcDbEntity
  8
0
  6
CONTINUOUS
 62
     7
100
AcDbLine
 10
71.162592
 20
70.007144
 30
0.0
 11
71.160019
 21
70.00704
 31
0.0
  0
LINE
  5
33E
330
279
100
AcDbEntity
  8
0
  6
CONTINUOUS
 62
     7
100
AcDbLine
 10
71.160019
 20
70.00704
 30
0.0
 11
71.157442
 21
70.006936
 31
0.0
  0
LINE
  5
33F
330
279
100
AcDbEntity
  8
0
  6
CONTINUOUS
 62
     7
100
AcDbLine
 10
71.157442
 20
70.006936
 30
0.0
 11
71.154861
 21
70.006833
 31
0.0
  0
LINE
  5
340
330
279
100
AcDbEntity
  8
0
  6
CONTINUOUS
 62
     7
100
AcDbLine
 10
71.154861
 20
70.006833
 30
0.0
 11
71.152276
 21
70.006731
 31
0.0
  0
LINE
  5
341
330
279
100
AcDbEntity
  8
0
  6
CONTINUOUS
 62
     7
100
AcDbLine
 10
71.152276
 20
70.006731
 30
0.0
 11
71.149686
 21
70.006629
 31
0.0
  0
LINE
  5
342
330
279
100
AcDbEntity
  8
0
  6
CONTINUOUS
 62
     7
100
AcDbLine
 10
71.149686
 20
70.006629
 30
0.0
 11
71.147092
 21
70.006527
 31
0.0
  0
LINE
  5
343
330
279
100
AcDbEntity
  8
0
  6
CONTINUOUS
 62
     7
100
AcDbLine
 10
71.147092
 20
70.006527
 30
0.0
 11
71.144494
 21
70.006426
 31
0.0
  0
LINE
  5
344
330
279
100
AcDbEntity
  8
0
  6
CONTINUOUS
 62
     7
100
AcDbLine
 10
71.144494
 20
70.006426
 30
0.0
 11
71.141892
 21
70.006326
 31
0.0
  0
LINE
  5
345
330
279
100
AcDbEntity
  8
0
  6
CONTINUOUS
 62
     7
100
AcDbLine
 10
71.141892
 20
70.006326
 30
0.0
 11
71.139285
 21
70.006226
 31
0.0
  0
LINE
  5
346
330
279
100
AcDbEntity
  8
0
  6
CONTINUOUS
 62
     7
100
AcDbLine
 10
71.139285
 20
70.006226
 30
0.0
 11
71.136674
 21
70.006126
 31
0.0
  0
LINE
  5
347
330
279
100
AcDbEntity
  8
0
  6
CONTINUOUS
 62
     7
100
AcDbLine
 10
71.136674
 20
70.006126
 30
0.0
 11
71.134059
 21
70.006027
 31
0.0
  0
LINE
  5
348
330
279
100
AcDbEntity
  8
0
  6
CONTINUOUS
 62
     7
100
AcDbLine
 10
71.134059
 20
70.006027
 30
0.0
 11
71.131439
 21
70.005929
 31
0.0
  0
LINE
  5
349
330
279
100
AcDbEntity
  8
0
  6
CONTINUOUS
 62
     7
100
AcDbLine
 10
71.131439
 20
70.005929
 30
0.0
 11
71.128816
 21
70.005831
 31
0.0
  0
LINE
  5
34A
330
279
100
AcDbEntity
  8
0
  6
CONTINUOUS
 62
     7
100
AcDbLine
 10
71.128816
 20
70.005831
 30
0.0
 11
71.126188
 21
70.005733
 31
0.0
  0
LINE
  5
34B
330
279
100
AcDbEntity
  8
0
  6
CONTINUOUS
 62
     7
100
AcDbLine
 10
71.126188
 20
70.005733
 30
0.0
 11
71.123556
 21
70.005636
 31
0.0
  0
LINE
  5
34C
330
279
100
AcDbEntity
  8
0
  6
CONTINUOUS
 62
     7
100
AcDbLine
 10
71.123556
 20
70.005636
 30
0.0
 11
71.12092
 21
70.00554
 31
0.0
  0
LINE
  5
34D
330
279
100
AcDbEntity
  8
0
  6
CONTINUOUS
 62
     7
100
AcDbLine
 10
71.12092
 20
70.00554
 30
0.0
 11
71.118279
 21
70.005444
 31
0.0
  0
LINE
  5
34E
330
279
100
AcDbEntity
  8
0
  6
CONTINUOUS
 62
     7
100
AcDbLine
 10
71.118279
 20
70.005444
 30
0.0
 11
71.115635
 21
70.005349
 31
0.0
  0
LINE
  5
34F
330
279
100
AcDbEntity
  8
0
  6
CONTINUOUS
 62
     7
100
AcDbLine
 10
71.115635
 20
70.005349
 30
0.0
 11
71.112986
 21
70.005255
 31
0.0
  0
LINE
  5
350
330
279
100
AcDbEntity
  8
0
  6
CONTINUOUS
 62
     7
100
AcDbLine
 10
71.112986
 20
70.005255
 30
0.0
 11
71.110333
 21
70.005161
 31
0.0
  0
LINE
  5
351
330
279
100
AcDbEntity
  8
0
  6
CONTINUOUS
 62
     7
100
AcDbLine
 10
71.110333
 20
70.005161
 30
0.0
 11
71.107676
 21
70.005067
 31
0.0
  0
LINE
  5
352
330
279
100
AcDbEntity
  8
0
  6
CONTINUOUS
 62
     7
100
AcDbLine
 10
71.107676
 20
70.005067
 30
0.0
 11
71.105125
 21
70.004978
 31
0.0
  0
LINE
  5
353
330
279
100
AcDbEntity
  8
0
  6
CONTINUOUS
 62
     7
100
AcDbLine
 10
71.105125
 20
70.004978
 30
0.0
 11
71.10257
 21
70.00489
 31
0.0
  0
LINE
  5
354
330
279
100
AcDbEntity
  8
0
  6
CONTINUOUS
 62
     7
100
AcDbLine
 10
71.10257
 20
70.00489
 30
0.0
 11
71.100012
 21
70.004802
 31
0.0
  0
LINE
  5
355
330
279
100
AcDbEntity
  8
0
  6
CONTINUOUS
 62
     7
100
AcDbLine
 10
71.100012
 20
70.004802
 30
0.0
 11
71.09745
 21
70.004714
 31
0.0
  0
LINE
  5
356
330
279
100
AcDbEntity
  8
0
  6
CONTINUOUS
 62
     7
100
AcDbLine
 10
71.09745
 20
70.004714
 30
0.0
 11
71.094884
 21
70.004627
 31
0.0
  0
LINE
  5
357
330
279
100
AcDbEntity
  8
0
  6
CONTINUOUS
 62
     7
100
AcDbLine
 10
71.094884
 20
70.004627
 30
0.0
 11
71.092315
 21
70.004541
 31
0.0
  0
LINE
  5
358
330
279
100
AcDbEntity
  8
0
  6
CONTINUOUS
 62
     7
100
AcDbLine
 10
71.092315
 20
70.004541
 30
0.0
 11
71.089742
 21
70.004455
 31
0.0
  0
LINE
  5
359
330
279
100
AcDbEntity
  8
0
  6
CONTINUOUS
 62
     7
100
AcDbLine
 10
71.089742
 20
70.004455
 30
0.0
 11
71.087165
 21
70.00437
 31
0.0
  0
LINE
  5
35A
330
279
100
AcDbEntity
  8
0
  6
CONTINUOUS
 62
     7
100
AcDbLine
 10
71.087165
 20
70.00437
 30
0.0
 11
71.084585
 21
70.004286
 31
0.0
  0
LINE
  5
35B
330
279
100
AcDbEntity
  8
0
  6
CONTINUOUS
 62
     7
100
AcDbLine
 10
71.084585
 20
70.004286
 30
0.0
 11
71.082001
 21
70.004202
 31
0.0
  0
LINE
  5
35C
330
279
100
AcDbEntity
  8
0
  6
CONTINUOUS
 62
     7
100
AcDbLine
 10
71.082001
 20
70.004202
 30
0.0
 11
71.079414
 21
70.004118
 31
0.0
  0
LINE
  5
35D
330
279
100
AcDbEntity
  8
0
  6
CONTINUOUS
 62
     7
100
AcDbLine
 10
71.079414
 20
70.004118
 30
0.0
 11
71.076824
 21
70.004035
 31
0.0
  0
LINE
  5
35E
330
279
100
AcDbEntity
  8
0
  6
CONTINUOUS
 62
     7
100
AcDbLine
 10
71.076824
 20
70.004035
 30
0.0
 11
71.07423
 21
70.003953
 31
0.0
  0
LINE
  5
35F
330
279
100
AcDbEntity
  8
0
  6
CONTINUOUS
 62
     7
100
AcDbLine
 10
71.07423
 20
70.003953
 30
0.0
 11
71.071632
 21
70.003872
 31
0.0
  0
LINE
  5
360
330
279
100
AcDbEntity
  8
0
  6
CONTINUOUS
 62
     7
100
AcDbLine
 10
71.071632
 20
70.003872
 30
0.0
 11
71.069031
 21
70.003791
 31
0.0
  0
LINE
  5
361
330
279
100
AcDbEntity
  8
0
  6
CONTINUOUS
 62
     7
100
AcDbLine
 10
71.069031
 20
70.003791
 30
0.0
 11
71.066427
 21
70.00371
 31
0.0
  0
LINE
  5
362
330
279
100
AcDbEntity
  8
0
  6
CONTINUOUS
 62
     7
100
AcDbLine
 10
71.066427
 20
70.00371
 30
0.0
 11
71.06382
 21
70.00363
 31
0.0
  0
LINE
  5
363
330
279
100
AcDbEntity
  8
0
  6
CONTINUOUS
 62
     7
100
AcDbLine
 10
71.06382
 20
70.00363
 30
0.0
 11
71.06121
 21
70.003551
 31
0.0
  0
LINE
  5
364
330
279
100
AcDbEntity
  8
0
  6
CONTINUOUS
 62
     7
100
AcDbLine
 10
71.06121
 20
70.003551
 30
0.0
 11
71.058596
 21
70.003473
 31
0.0
  0
LINE
  5
365
330
279
100
AcDbEntity
  8
0
  6
CONTINUOUS
 62
     7
100
AcDbLine
 10
71.058596
 20
70.003473
 30
0.0
 11
71.055979
 21
70.003395
 31
0.0
  0
LINE
  5
366
330
279
100
AcDbEntity
  8
0
  6
CONTINUOUS
 62
     7
100
AcDbLine
 10
71.055979
 20
70.003395
 30
0.0
 11
71.053359
 21
70.003318
 31
0.0
  0
LINE
  5
367
330
279
100
AcDbEntity
  8
0
  6
CONTINUOUS
 62
     7
100
AcDbLine
 10
71.053359
 20
70.003318
 30
0.0
 11
71.050735
 21
70.003241
 31
0.0
  0
LINE
  5
368
330
279
100
AcDbEntity
  8
0
  6
CONTINUOUS
 62
     7
100
AcDbLine
 10
71.050735
 20
70.003241
 30
0.0
 11
71.048109
 21
70.003166
 31
0.0
  0
LINE
  5
369
330
279
100
AcDbEntity
  8
0
  6
CONTINUOUS
 62
     7
100
AcDbLine
 10
71.048109
 20
70.003166
 30
0.0
 11
71.04548
 21
70.00309
 31
0.0
  0
LINE
  5
36A
330
279
100
AcDbEntity
  8
0
  6
CONTINUOUS
 62
     7
100
AcDbLine
 10
71.04548
 20
70.00309
 30
0.0
 11
71.042847
 21
70.003016
 31
0.0
  0
LINE
  5
36B
330
279
100
AcDbEntity
  8
0
  6
CONTINUOUS
 62
     7
100
AcDbLine
 10
71.042847
 20
70.003016
 30
0.0
 11
71.040212
 21
70.002942
 31
0.0
  0
LINE
  5
36C
330
279
100
AcDbEntity
  8
0
  6
CONTINUOUS
 62
     7
100
AcDbLine
 10
71.040212
 20
70.002942
 30
0.0
 11
71.037574
 21
70.002869
 31
0.0
  0
LINE
  5
36D
330
279
100
AcDbEntity
  8
0
  6
CONTINUOUS
 62
     7
100
AcDbLine
 10
71.037574
 20
70.002869
 30
0.0
 11
71.034932
 21
70.002797
 31
0.0
  0
LINE
  5
36E
330
279
100
AcDbEntity
  8
0
  6
CONTINUOUS
 62
     7
100
AcDbLine
 10
71.034932
 20
70.002797
 30
0.0
 11
71.032288
 21
70.002725
 31
0.0
  0
LINE
  5
36F
330
279
100
AcDbEntity
  8
0
  6
CONTINUOUS
 62
     7
100
AcDbLine
 10
71.032288
 20
70.002725
 30
0.0
 11
71.029641
 21
70.002654
 31
0.0
  0
LINE
  5
370
330
279
100
AcDbEntity
  8
0
  6
CONTINUOUS
 62
     7
100
AcDbLine
 10
71.029641
 20
70.002654
 30
0.0
 11
71.026992
 21
70.002584
 31
0.0
  0
LINE
  5
371
330
279
100
AcDbEntity
  8
0
  6
CONTINUOUS
 62
     7
100
AcDbLine
 10
71.026992
 20
70.002584
 30
0.0
 11
71.024339
 21
70.002514
 31
0.0
  0
LINE
  5
372
330
279
100
AcDbEntity
  8
0
  6
CONTINUOUS
 62
     7
100
AcDbLine
 10
71.024339
 20
70.002514
 30
0.0
 11
71.021684
 21
70.002445
 31
0.0
  0
LINE
  5
373
330
279
100
AcDbEntity
  8
0
  6
CONTINUOUS
 62
     7
100
AcDbLine
 10
71.021684
 20
70.002445
 30
0.0
 11
71.019026
 21
70.002377
 31
0.0
  0
LINE
  5
374
330
279
100
AcDbEntity
  8
0
  6
CONTINUOUS
 62
     7
100
AcDbLine
 10
71.019026
 20
70.002377
 30
0.0
 11
71.016365
 21
70.00231
 31
0.0
  0
LINE
  5
375
330
279
100
AcDbEntity
  8
0
  6
CONTINUOUS
 62
     7
100
AcDbLine
 10
71.016365
 20
70.00231
 30
0.0
 11
71.013702
 21
70.002243
 31
0.0
  0
LINE
  5
376
330
279
100
AcDbEntity
  8
0
  6
CONTINUOUS
 62
     7
100
AcDbLine
 10
71.013702
 20
70.002243
 30
0.0
 11
71.011036
 21
70.002177
 31
0.0
  0
LINE
  5
377
330
279
100
AcDbEntity
  8
0
  6
CONTINUOUS
 62
     7
100
AcDbLine
 10
71.011036
 20
70.002177
 30
0.0
 11
71.008367
 21
70.002112
 31
0.0
  0
LINE
  5
378
330
279
100
AcDbEntity
  8
0
  6
CONTINUOUS
 62
     7
100
AcDbLine
 10
71.008367
 20
70.002112
 30
0.0
 11
71.005696
 21
70.002048
 31
0.0
  0
LINE
  5
379
330
279
100
AcDbEntity
  8
0
  6
CONTINUOUS
 62
     7
100
AcDbLine
 10
71.005696
 20
70.002048
 30
0.0
 11
71.003022
 21
70.001984
 31
0.0
  0
LINE
  5
37A
330
279
100
AcDbEntity
  8
0
  6
CONTINUOUS
 62
     7
100
AcDbLine
 10
71.003022
 20
70.001984
 30
0.0
 11
71.000346
 21
70.001921
 31
0.0
  0
LINE
  5
37B
330
279
100
AcDbEntity
  8
0
  6
CONTINUOUS
 62
     7
100
AcDbLine
 10
71.000346
 20
70.001921
 30
0.0
 11
70.997668
 21
70.001859
 31
0.0
  0
LINE
  5
37C
330
279
100
AcDbEntity
  8
0
  6
CONTINUOUS
 62
     7
100
AcDbLine
 10
70.997668
 20
70.001859
 30
0.0
 11
70.994987
 21
70.001798
 31
0.0
  0
LINE
  5
37D
330
279
100
AcDbEntity
  8
0
  6
CONTINUOUS
 62
     7
100
AcDbLine
 10
70.994987
 20
70.001798
 30
0.0
 11
70.992303
 21
70.001737
 31
0.0
  0
LINE
  5
37E
330
279
100
AcDbEntity
  8
0
  6
CONTINUOUS
 62
     7
100
AcDbLine
 10
70.992303
 20
70.001737
 30
0.0
 11
70.989618
 21
70.001678
 31
0.0
  0
LINE
  5
37F
330
279
100
AcDbEntity
  8
0
  6
CONTINUOUS
 62
     7
100
AcDbLine
 10
70.989618
 20
70.001678
 30
0.0
 11
70.98693
 21
70.001619
 31
0.0
  0
LINE
  5
380
330
279
100
AcDbEntity
  8
0
  6
CONTINUOUS
 62
     7
100
AcDbLine
 10
70.98693
 20
70.001619
 30
0.0
 11
70.98424
 21
70.001561
 31
0.0
  0
LINE
  5
381
330
279
100
AcDbEntity
  8
0
  6
CONTINUOUS
 62
     7
100
AcDbLine
 10
70.98424
 20
70.001561
 30
0.0
 11
70.981547
 21
70.001503
 31
0.0
  0
LINE
  5
382
330
279
100
AcDbEntity
  8
0
  6
CONTINUOUS
 62
     7
100
AcDbLine
 10
70.981547
 20
70.001503
 30
0.0
 11
70.978852
 21
70.001447
 31
0.0
  0
LINE
  5
383
330
279
100
AcDbEntity
  8
0
  6
CONTINUOUS
 62
     7
100
AcDbLine
 10
70.978852
 20
70.001447
 30
0.0
 11
70.976155
 21
70.001391
 31
0.0
  0
LINE
  5
384
330
279
100
AcDbEntity
  8
0
  6
CONTINUOUS
 62
     7
100
AcDbLine
 10
70.976155
 20
70.001391
 30
0.0
 11
70.973456
 21
70.001336
 31
0.0
  0
LINE
  5
385
330
279
100
AcDbEntity
  8
0
  6
CONTINUOUS
 62
     7
100
AcDbLine
 10
70.973456
 20
70.001336
 30
0.0
 11
70.970755
 21
70.001283
 31
0.0
  0
LINE
  5
386
330
279
100
AcDbEntity
  8
0
  6
CONTINUOUS
 62
     7
100
AcDbLine
 10
70.970755
 20
70.001283
 30
0.0
 11
70.968052
 21
70.001229
 31
0.0
  0
LINE
  5
387
330
279
100
AcDbEntity
  8
0
  6
CONTINUOUS
 62
     7
100
AcDbLine
 10
70.968052
 20
70.001229
 30
0.0
 11
70.965346
 21
70.001177
 31
0.0
  0
LINE
  5
388
330
279
100
AcDbEntity
  8
0
  6
CONTINUOUS
 62
     7
100
AcDbLine
 10
70.965346
 20
70.001177
 30
0.0
 11
70.962639
 21
70.001126
 31
0.0
  0
LINE
  5
389
330
279
100
AcDbEntity
  8
0
  6
CONTINUOUS
 62
     7
100
AcDbLine
 10
70.962639
 20
70.001126
 30
0.0
 11
70.95993
 21
70.001075
 31
0.0
  0
LINE
  5
38A
330
279
100
AcDbEntity
  8
0
  6
CONTINUOUS
 62
     7
100
AcDbLine
 10
70.95993
 20
70.001075
 30
0.0
 11
70.957219
 21
70.001026
 31
0.0
  0
LINE
  5
38B
330
279
100
AcDbEntity
  8
0
  6
CONTINUOUS
 62
     7
100
AcDbLine
 10
70.957219
 20
70.001026
 30
0.0
 11
70.954505
 21
70.000977
 31
0.0
  0
LINE
  5
38C
330
279
100
AcDbEntity
  8
0
  6
CONTINUOUS
 62
     7
100
AcDbLine
 10
70.954505
 20
70.000977
 30
0.0
 11
70.95179
 21
70.000929
 31
0.0
  0
LINE
  5
38D
330
279
100
AcDbEntity
  8
0
  6
CONTINUOUS
 62
     7
100
AcDbLine
 10
70.95179
 20
70.000929
 30
0.0
 11
70.949073
 21
70.000882
 31
0.0
  0
LINE
  5
38E
330
279
100
AcDbEntity
  8
0
  6
CONTINUOUS
 62
     7
100
AcDbLine
 10
70.949073
 20
70.000882
 30
0.0
 11
70.946355
 21
70.000836
 31
0.0
  0
LINE
  5
38F
330
279
100
AcDbEntity
  8
0
  6
CONTINUOUS
 62
     7
100
AcDbLine
 10
70.946355
 20
70.000836
 30
0.0
 11
70.943634
 21
70.000791
 31
0.0
  0
LINE
  5
390
330
279
100
AcDbEntity
  8
0
  6
CONTINUOUS
 62
     7
100
AcDbLine
 10
70.943634
 20
70.000791
 30
0.0
 11
70.940912
 21
70.000746
 31
0.0
  0
LINE
  5
391
330
279
100
AcDbEntity
  8
0
  6
CONTINUOUS
 62
     7
100
AcDbLine
 10
70.940912
 20
70.000746
 30
0.0
 11
70.938188
 21
70.000703
 31
0.0
  0
LINE
  5
392
330
279
100
AcDbEntity
  8
0
  6
CONTINUOUS
 62
     7
100
AcDbLine
 10
70.938188
 20
70.000703
 30
0.0
 11
70.935393
 21
70.000659
 31
0.0
  0
LINE
  5
393
330
279
100
AcDbEntity
  8
0
  6
CONTINUOUS
 62
     7
100
AcDbLine
 10
70.935393
 20
70.000659
 30
0.0
 11
70.932596
 21
70.000617
 31
0.0
  0
LINE
  5
394
330
279
100
AcDbEntity
  8
0
  6
CONTINUOUS
 62
     7
100
AcDbLine
 10
70.932596
 20
70.000617
 30
0.0
 11
70.929797
 21
70.000575
 31
0.0
  0
LINE
  5
395
330
279
100
AcDbEntity
  8
0
  6
CONTINUOUS
 62
     7
100
AcDbLine
 10
70.929797
 20
70.000575
 30
0.0
 11
70.926996
 21
70.000534
 31
0.0
  0
LINE
  5
396
330
279
100
AcDbEntity
  8
0
  6
CONTINUOUS
 62
     7
100
AcDbLine
 10
70.926996
 20
70.000534
 30
0.0
 11
70.924194
 21
70.000495
 31
0.0
  0
LINE
  5
397
330
279
100
AcDbEntity
  8
0
  6
CONTINUOUS
 62
     7
100
AcDbLine
 10
70.924194
 20
70.000495
 30
0.0
 11
70.921391
 21
70.000456
 31
0.0
  0
LINE
  5
398
330
279
100
AcDbEntity
  8
0
  6
CONTINUOUS
 62
     7
100
AcDbLine
 10
70.921391
 20
70.000456
 30
0.0
 11
70.918585
 21
70.000418
 31
0.0
  0
LINE
  5
399
330
279
100
AcDbEntity
  8
0
  6
CONTINUOUS
 62
     7
100
AcDbLine
 10
70.918585
 20
70.000418
 30
0.0
 11
70.915779
 21
70.00038
 31
0.0
  0
LINE
  5
39A
330
279
100
AcDbEntity
  8
0
  6
CONTINUOUS
 62
     7
100
AcDbLine
 10
70.915779
 20
70.00038
 30
0.0
 11
70.91297
 21
70.000344
 31
0.0
  0
LINE
  5
39B
330
279
100
AcDbEntity
  8
0
  6
CONTINUOUS
 62
     7
100
AcDbLine
 10
70.91297
 20
70.000344
 30
0.0
 11
70.91016
 21
70.000309
 31
0.0
  0
LINE
  5
39C
330
279
100
AcDbEntity
  8
0
  6
CONTINUOUS
 62
     7
100
AcDbLine
 10
70.91016
 20
70.000309
 30
0.0
 11
70.907349
 21
70.000274
 31
0.0
  0
LINE
  5
39D
330
279
100
AcDbEntity
  8
0
  6
CONTINUOUS
 62
     7
100
AcDbLine
 10
70.907349
 20
70.000274
 30
0.0
 11
70.904536
 21
70.00024
 31
0.0
  0
LINE
  5
39E
330
279
100
AcDbEntity
  8
0
  6
CONTINUOUS
 62
     7
100
AcDbLine
 10
70.904536
 20
70.00024
 30
0.0
 11
70.901721
 21
70.000207
 31
0.0
  0
LINE
  5
39F
330
279
100
AcDbEntity
  8
0
  6
CONTINUOUS
 62
     7
100
AcDbLine
 10
70.901721
 20
70.000207
 30
0.0
 11
70.898906
 21
70.000174
 31
0.0
  0
LINE
  5
3A0
330
279
100
AcDbEntity
  8
0
  6
CONTINUOUS
 62
     7
100
AcDbLine
 10
70.898906
 20
70.000174
 30
0.0
 11
70.896089
 21
70.000143
 31
0.0
  0
LINE
  5
3A1
330
279
100
AcDbEntity
  8
0
  6
CONTINUOUS
 62
     7
100
AcDbLine
 10
70.896089
 20
70.000143
 30
0.0
 11
70.89327
 21
70.000112
 31
0.0
  0
LINE
  5
3A2
330
279
100
AcDbEntity
  8
0
  6
CONTINUOUS
 62
     7
100
AcDbLine
 10
70.89327
 20
70.000112
 30
0.0
 11
70.89045
 21
70.000082
 31
0.0
  0
LINE
  5
3A3
330
279
100
AcDbEntity
  8
0
  6
CONTINUOUS
 62
     7
100
AcDbLine
 10
70.89045
 20
70.000082
 30
0.0
 11
70.887629
 21
70.000052
 31
0.0
  0
LINE
  5
3A4
330
279
100
AcDbEntity
  8
0
  6
CONTINUOUS
 62
     7
100
AcDbLine
 10
70.887629
 20
70.000052
 30
0.0
 11
70.884807
 21
70.000024
 31
0.0
  0
LINE
  5
3A5
330
279
100
AcDbEntity
  8
0
  6
CONTINUOUS
 62
     7
100
AcDbLine
 10
70.884807
 20
70.000024
 30
0.0
 11
70.881983
 21
69.999996
 31
0.0
  0
LINE
  5
3A6
330
279
100
AcDbEntity
  8
0
  6
CONTINUOUS
 62
     7
100
AcDbLine
 10
70.881983
 20
69.999996
 30
0.0
 11
70.879158
 21
69.999968
 31
0.0
  0
LINE
  5
3A7
330
279
100
AcDbEntity
  8
0
  6
CONTINUOUS
 62
     7
100
AcDbLine
 10
70.879158
 20
69.999968
 30
0.0
 11
70.876332
 21
69.999941
 31
0.0
  0
LINE
  5
3A8
330
279
100
AcDbEntity
  8
0
  6
CONTINUOUS
 62
     7
100
AcDbLine
 10
70.876332
 20
69.999941
 30
0.0
 11
70.873505
 21
69.999915
 31
0.0
  0
LINE
  5
3A9
330
279
100
AcDbEntity
  8
0
  6
CONTINUOUS
 62
     7
100
AcDbLine
 10
70.873505
 20
69.999915
 30
0.0
 11
70.870677
 21
69.99989
 31
0.0
  0
LINE
  5
3AA
330
279
100
AcDbEntity
  8
0
  6
CONTINUOUS
 62
     7
100
AcDbLine
 10
70.870677
 20
69.99989
 30
0.0
 11
70.867847
 21
69.999865
 31
0.0
  0
LINE
  5
3AB
330
279
100
AcDbEntity
  8
0
  6
CONTINUOUS
 62
     7
100
AcDbLine
 10
70.867847
 20
69.999865
 30
0.0
 11
70.865017
 21
69.999841
 31
0.0
  0
LINE
  5
3AC
330
279
100
AcDbEntity
  8
0
  6
CONTINUOUS
 62
     7
100
AcDbLine
 10
70.865017
 20
69.999841
 30
0.0
 11
70.862185
 21
69.999817
 31
0.0
  0
LINE
  5
3AD
330
279
100
AcDbEntity
  8
0
  6
CONTINUOUS
 62
     7
100
AcDbLine
 10
70.862185
 20
69.999817
 30
0.0
 11
70.859353
 21
69.999794
 31
0.0
  0
LINE
  5
3AE
330
279
100
AcDbEntity
  8
0
  6
CONTINUOUS
 62
     7
100
AcDbLine
 10
70.859353
 20
69.999794
 30
0.0
 11
70.856519
 21
69.999771
 31
0.0
  0
LINE
  5
3AF
330
279
100
AcDbEntity
  8
0
  6
CONTINUOUS
 62
     7
100
AcDbLine
 10
70.856519
 20
69.999771
 30
0.0
 11
70.853685
 21
69.999749
 31
0.0
  0
LINE
  5
3B0
330
279
100
AcDbEntity
  8
0
  6
CONTINUOUS
 62
     7
100
AcDbLine
 10
70.853685
 20
69.999749
 30
0.0
 11
70.850849
 21
69.999727
 31
0.0
  0
LINE
  5
3B1
330
279
100
AcDbEntity
  8
0
  6
CONTINUOUS
 62
     7
100
AcDbLine
 10
70.850849
 20
69.999727
 30
0.0
 11
70.848013
 21
69.999706
 31
0.0
  0
LINE
  5
3B2
330
279
100
AcDbEntity
  8
0
  6
CONTINUOUS
 62
     7
100
AcDbLine
 10
70.848013
 20
69.999706
 30
0.0
 11
70.845175
 21
69.999686
 31
0.0
  0
LINE
  5
3B3
330
279
100
AcDbEntity
  8
0
  6
CONTINUOUS
 62
     7
100
AcDbLine
 10
70.845175
 20
69.999686
 30
0.0
 11
70.842337
 21
69.999666
 31
0.0
  0
LINE
  5
3B4
330
279
100
AcDbEntity
  8
0
  6
CONTINUOUS
 62
     7
100
AcDbLine
 10
70.842337
 20
69.999666
 30
0.0
 11
70.839498
 21
69.999646
 31
0.0
  0
LINE
  5
3B5
330
279
100
AcDbEntity
  8
0
  6
CONTINUOUS
 62
     7
100
AcDbLine
 10
70.839498
 20
69.999646
 30
0.0
 11
70.836659
 21
69.999627
 31
0.0
  0
LINE
  5
3B6
330
279
100
AcDbEntity
  8
0
  6
CONTINUOUS
 62
     7
100
AcDbLine
 10
70.836659
 20
69.999627
 30
0.0
 11
70.833818
 21
69.999608
 31
0.0
  0
LINE
  5
3B7
330
279
100
AcDbEntity
  8
0
  6
CONTINUOUS
 62
     7
100
AcDbLine
 10
70.833818
 20
69.999608
 30
0.0
 11
70.830977
 21
69.99959
 31
0.0
  0
LINE
  5
3B8
330
279
100
AcDbEntity
  8
0
  6
CONTINUOUS
 62
     7
100
AcDbLine
 10
70.830977
 20
69.99959
 30
0.0
 11
70.828135
 21
69.999572
 31
0.0
  0
LINE
  5
3B9
330
279
100
AcDbEntity
  8
0
  6
CONTINUOUS
 62
     7
100
AcDbLine
 10
70.828135
 20
69.999572
 30
0.0
 11
70.825292
 21
69.999554
 31
0.0
  0
LINE
  5
3BA
330
279
100
AcDbEntity
  8
0
  6
CONTINUOUS
 62
     7
100
AcDbLine
 10
70.825292
 20
69.999554
 30
0.0
 11
70.822449
 21
69.999537
 31
0.0
  0
LINE
  5
3BB
330
279
100
AcDbEntity
  8
0
  6
CONTINUOUS
 62
     7
100
AcDbLine
 10
70.822449
 20
69.999537
 30
0.0
 11
70.819605
 21
69.99952
 31
0.0
  0
LINE
  5
3BC
330
279
100
AcDbEntity
  8
0
  6
CONTINUOUS
 62
     7
100
AcDbLine
 10
70.819605
 20
69.99952
 30
0.0
 11
70.81676
 21
69.999503
 31
0.0
  0
LINE
  5
3BD
330
279
100
AcDbEntity
  8
0
  6
CONTINUOUS
 62
     7
100
AcDbLine
 10
70.81676
 20
69.999503
 30
0.0
 11
70.813915
 21
69.999487
 31
0.0
  0
LINE
  5
3BE
330
279
100
AcDbEntity
  8
0
  6
CONTINUOUS
 62
     7
100
AcDbLine
 10
70.813915
 20
69.999487
 30
0.0
 11
70.808223
 21
69.999455
 31
0.0
  0
LINE
  5
3BF
330
279
100
AcDbEntity
  8
0
  6
CONTINUOUS
 62
     7
100
AcDbLine
 10
70.808223
 20
69.999455
 30
0.0
 11
70.802529
 21
69.999425
 31
0.0
  0
LINE
  5
3C0
330
279
100
AcDbEntity
  8
0
  6
CONTINUOUS
 62
     7
100
AcDbLine
 10
70.802529
 20
69.999425
 30
0.0
 11
70.796833
 21
69.999395
 31
0.0
  0
LINE
  5
3C1
330
279
100
AcDbEntity
  8
0
  6
CONTINUOUS
 62
     7
100
AcDbLine
 10
70.796833
 20
69.999395
 30
0.0
 11
70.791136
 21
69.999366
 31
0.0
  0
LINE
  5
3C2
330
279
100
AcDbEntity
  8
0
  6
CONTINUOUS
 62
     7
100
AcDbLine
 10
70.791136
 20
69.999366
 30
0.0
 11
70.785437
 21
69.999338
 31
0.0
  0
LINE
  5
3C3
330
279
100
AcDbEntity
  8
0
  6
CONTINUOUS
 62
     7
100
AcDbLine
 10
70.785437
 20
69.999338
 30
0.0
 11
70.779737
 21
69.999311
 31
0.0
  0
LINE
  5
3C4
330
279
100
AcDbEntity
  8
0
  6
CONTINUOUS
 62
     7
100
AcDbLine
 10
70.779737
 20
69.999311
 30
0.0
 11
70.774037
 21
69.999284
 31
0.0
  0
LINE
  5
3C5
330
279
100
AcDbEntity
  8
0
  6
CONTINUOUS
 62
     7
100
AcDbLine
 10
70.774037
 20
69.999284
 30
0.0
 11
70.768335
 21
69.999257
 31
0.0
  0
LINE
  5
3C6
330
279
100
AcDbEntity
  8
0
  6
CONTINUOUS
 62
     7
100
AcDbLine
 10
70.768335
 20
69.999257
 30
0.0
 11
70.756932
 21
69.999205
 31
0.0
  0
ENDBLK
  5
27B
330
279
100
AcDbEntity
  8
0
100
AcDbBlockEnd
  0
BLOCK
  5
3C9
330
3C8
100
AcDbEntity
  8
0
100
AcDbBlockBegin
  2
BLKF016
 70
     0
 71
     0
 10
0.0
 20
0.0
 30
0.0
  3
BLKF016
  1

  0
LINE
  5
3CC
330
3C8
100
AcDbEntity
  8
0
  6
CONTINUOUS
 62
     7
100
AcDbLine
 10
69.822586
 20
48.24002
 30
0.0
 11
69.82257
 21
48.240019
 31
0.0
  0
LINE
  5
3CD
330
3C8
100
AcDbEntity
  8
0
  6
CONTINUOUS
 62
     7
100
AcDbLine
 10
69.82257
 20
48.240019
 30
0.0
 11
69.822071
 21
48.239961
 31
0.0
  0
LINE
  5
3CE
330
3C8
100
AcDbEntity
  8
0
  6
CONTINUOUS
 62
     7
100
AcDbLine
 10
69.822071
 20
48.239961
 30
0.0
 11
69.821661
 21
48.239913
 31
0.0
  0
LINE
  5
3CF
330
3C8
100
AcDbEntity
  8
0
  6
CONTINUOUS
 62
     7
100
AcDbLine
 10
69.821661
 20
48.239913
 30
0.0
 11
69.821338
 21
48.239875
 31
0.0
  0
LINE
  5
3D0
330
3C8
100
AcDbEntity
  8
0
  6
CONTINUOUS
 62
     7
100
AcDbLine
 10
69.821338
 20
48.239875
 30
0.0
 11
69.821101
 21
48.239845
 31
0.0
  0
LINE
  5
3D1
330
3C8
100
AcDbEntity
  8
0
  6
CONTINUOUS
 62
     7
100
AcDbLine
 10
69.821101
 20
48.239845
 30
0.0
 11
69.820946
 21
48.239824
 31
0.0
  0
LINE
  5
3D2
330
3C8
100
AcDbEntity
  8
0
  6
CONTINUOUS
 62
     7
100
AcDbLine
 10
69.820946
 20
48.239824
 30
0.0
 11
69.820872
 21
48.239812
 31
0.0
  0
LINE
  5
3D3
330
3C8
100
AcDbEntity
  8
0
  6
CONTINUOUS
 62
     7
100
AcDbLine
 10
69.820872
 20
48.239812
 30
0.0
 11
69.820876
 21
48.239807
 31
0.0
  0
LINE
  5
3D4
330
3C8
100
AcDbEntity
  8
0
  6
CONTINUOUS
 62
     7
100
AcDbLine
 10
69.820876
 20
48.239807
 30
0.0
 11
69.820957
 21
48.239811
 31
0.0
  0
LINE
  5
3D5
330
3C8
100
AcDbEntity
  8
0
  6
CONTINUOUS
 62
     7
100
AcDbLine
 10
69.820957
 20
48.239811
 30
0.0
 11
69.821111
 21
48.239822
 31
0.0
  0
LINE
  5
3D6
330
3C8
100
AcDbEntity
  8
0
  6
CONTINUOUS
 62
     7
100
AcDbLine
 10
69.821111
 20
48.239822
 30
0.0
 11
69.821338
 21
48.239841
 31
0.0
  0
LINE
  5
3D7
330
3C8
100
AcDbEntity
  8
0
  6
CONTINUOUS
 62
     7
100
AcDbLine
 10
69.821338
 20
48.239841
 30
0.0
 11
69.821997
 21
48.239899
 31
0.0
  0
LINE
  5
3D8
330
3C8
100
AcDbEntity
  8
0
  6
CONTINUOUS
 62
     7
100
AcDbLine
 10
69.821997
 20
48.239899
 30
0.0
 11
69.822918
 21
48.239983
 31
0.0
  0
LINE
  5
3D9
330
3C8
100
AcDbEntity
  8
0
  6
CONTINUOUS
 62
     7
100
AcDbLine
 10
69.822918
 20
48.239983
 30
0.0
 11
69.824082
 21
48.240091
 31
0.0
  0
LINE
  5
3DA
330
3C8
100
AcDbEntity
  8
0
  6
CONTINUOUS
 62
     7
100
AcDbLine
 10
69.824082
 20
48.240091
 30
0.0
 11
69.82707
 21
48.240371
 31
0.0
  0
LINE
  5
3DB
330
3C8
100
AcDbEntity
  8
0
  6
CONTINUOUS
 62
     7
100
AcDbLine
 10
69.82707
 20
48.240371
 30
0.0
 11
69.828859
 21
48.240537
 31
0.0
  0
LINE
  5
3DC
330
3C8
100
AcDbEntity
  8
0
  6
CONTINUOUS
 62
     7
100
AcDbLine
 10
69.828859
 20
48.240537
 30
0.0
 11
69.830822
 21
48.240719
 31
0.0
  0
LINE
  5
3DD
330
3C8
100
AcDbEntity
  8
0
  6
CONTINUOUS
 62
     7
100
AcDbLine
 10
69.830822
 20
48.240719
 30
0.0
 11
69.831862
 21
48.240815
 31
0.0
  0
LINE
  5
3DE
330
3C8
100
AcDbEntity
  8
0
  6
CONTINUOUS
 62
     7
100
AcDbLine
 10
69.831862
 20
48.240815
 30
0.0
 11
69.83294
 21
48.240914
 31
0.0
  0
LINE
  5
3DF
330
3C8
100
AcDbEntity
  8
0
  6
CONTINUOUS
 62
     7
100
AcDbLine
 10
69.83294
 20
48.240914
 30
0.0
 11
69.834052
 21
48.241016
 31
0.0
  0
LINE
  5
3E0
330
3C8
100
AcDbEntity
  8
0
  6
CONTINUOUS
 62
     7
100
AcDbLine
 10
69.834052
 20
48.241016
 30
0.0
 11
69.835196
 21
48.24112
 31
0.0
  0
LINE
  5
3E1
330
3C8
100
AcDbEntity
  8
0
  6
CONTINUOUS
 62
     7
100
AcDbLine
 10
69.835196
 20
48.24112
 30
0.0
 11
69.83637
 21
48.241226
 31
0.0
  0
LINE
  5
3E2
330
3C8
100
AcDbEntity
  8
0
  6
CONTINUOUS
 62
     7
100
AcDbLine
 10
69.83637
 20
48.241226
 30
0.0
 11
69.837573
 21
48.241334
 31
0.0
  0
LINE
  5
3E3
330
3C8
100
AcDbEntity
  8
0
  6
CONTINUOUS
 62
     7
100
AcDbLine
 10
69.837573
 20
48.241334
 30
0.0
 11
69.838801
 21
48.241444
 31
0.0
  0
LINE
  5
3E4
330
3C8
100
AcDbEntity
  8
0
  6
CONTINUOUS
 62
     7
100
AcDbLine
 10
69.838801
 20
48.241444
 30
0.0
 11
69.840052
 21
48.241555
 31
0.0
  0
LINE
  5
3E5
330
3C8
100
AcDbEntity
  8
0
  6
CONTINUOUS
 62
     7
100
AcDbLine
 10
69.840052
 20
48.241555
 30
0.0
 11
69.841292
 21
48.241665
 31
0.0
  0
LINE
  5
3E6
330
3C8
100
AcDbEntity
  8
0
  6
CONTINUOUS
 62
     7
100
AcDbLine
 10
69.841292
 20
48.241665
 30
0.0
 11
69.842553
 21
48.241775
 31
0.0
  0
LINE
  5
3E7
330
3C8
100
AcDbEntity
  8
0
  6
CONTINUOUS
 62
     7
100
AcDbLine
 10
69.842553
 20
48.241775
 30
0.0
 11
69.843835
 21
48.241886
 31
0.0
  0
LINE
  5
3E8
330
3C8
100
AcDbEntity
  8
0
  6
CONTINUOUS
 62
     7
100
AcDbLine
 10
69.843835
 20
48.241886
 30
0.0
 11
69.845139
 21
48.241999
 31
0.0
  0
LINE
  5
3E9
330
3C8
100
AcDbEntity
  8
0
  6
CONTINUOUS
 62
     7
100
AcDbLine
 10
69.845139
 20
48.241999
 30
0.0
 11
69.846465
 21
48.242112
 31
0.0
  0
LINE
  5
3EA
330
3C8
100
AcDbEntity
  8
0
  6
CONTINUOUS
 62
     7
100
AcDbLine
 10
69.846465
 20
48.242112
 30
0.0
 11
69.847814
 21
48.242227
 31
0.0
  0
LINE
  5
3EB
330
3C8
100
AcDbEntity
  8
0
  6
CONTINUOUS
 62
     7
100
AcDbLine
 10
69.847814
 20
48.242227
 30
0.0
 11
69.849186
 21
48.242343
 31
0.0
  0
LINE
  5
3EC
330
3C8
100
AcDbEntity
  8
0
  6
CONTINUOUS
 62
     7
100
AcDbLine
 10
69.849186
 20
48.242343
 30
0.0
 11
69.850582
 21
48.242461
 31
0.0
  0
LINE
  5
3ED
330
3C8
100
AcDbEntity
  8
0
  6
CONTINUOUS
 62
     7
100
AcDbLine
 10
69.850582
 20
48.242461
 30
0.0
 11
69.852002
 21
48.24258
 31
0.0
  0
LINE
  5
3EE
330
3C8
100
AcDbEntity
  8
0
  6
CONTINUOUS
 62
     7
100
AcDbLine
 10
69.852002
 20
48.24258
 30
0.0
 11
69.853447
 21
48.2427
 31
0.0
  0
LINE
  5
3EF
330
3C8
100
AcDbEntity
  8
0
  6
CONTINUOUS
 62
     7
100
AcDbLine
 10
69.853447
 20
48.2427
 30
0.0
 11
69.854918
 21
48.242821
 31
0.0
  0
LINE
  5
3F0
330
3C8
100
AcDbEntity
  8
0
  6
CONTINUOUS
 62
     7
100
AcDbLine
 10
69.854918
 20
48.242821
 30
0.0
 11
69.856414
 21
48.242944
 31
0.0
  0
LINE
  5
3F1
330
3C8
100
AcDbEntity
  8
0
  6
CONTINUOUS
 62
     7
100
AcDbLine
 10
69.856414
 20
48.242944
 30
0.0
 11
69.857937
 21
48.243069
 31
0.0
  0
LINE
  5
3F2
330
3C8
100
AcDbEntity
  8
0
  6
CONTINUOUS
 62
     7
100
AcDbLine
 10
69.857937
 20
48.243069
 30
0.0
 11
69.859486
 21
48.243195
 31
0.0
  0
LINE
  5
3F3
330
3C8
100
AcDbEntity
  8
0
  6
CONTINUOUS
 62
     7
100
AcDbLine
 10
69.859486
 20
48.243195
 30
0.0
 11
69.861063
 21
48.243322
 31
0.0
  0
LINE
  5
3F4
330
3C8
100
AcDbEntity
  8
0
  6
CONTINUOUS
 62
     7
100
AcDbLine
 10
69.861063
 20
48.243322
 30
0.0
 11
69.862668
 21
48.243452
 31
0.0
  0
LINE
  5
3F5
330
3C8
100
AcDbEntity
  8
0
  6
CONTINUOUS
 62
     7
100
AcDbLine
 10
69.862668
 20
48.243452
 30
0.0
 11
69.864301
 21
48.243582
 31
0.0
  0
LINE
  5
3F6
330
3C8
100
AcDbEntity
  8
0
  6
CONTINUOUS
 62
     7
100
AcDbLine
 10
69.864301
 20
48.243582
 30
0.0
 11
69.865963
 21
48.243715
 31
0.0
  0
LINE
  5
3F7
330
3C8
100
AcDbEntity
  8
0
  6
CONTINUOUS
 62
     7
100
AcDbLine
 10
69.865963
 20
48.243715
 30
0.0
 11
69.867655
 21
48.243849
 31
0.0
  0
LINE
  5
3F8
330
3C8
100
AcDbEntity
  8
0
  6
CONTINUOUS
 62
     7
100
AcDbLine
 10
69.867655
 20
48.243849
 30
0.0
 11
69.869376
 21
48.243985
 31
0.0
  0
LINE
  5
3F9
330
3C8
100
AcDbEntity
  8
0
  6
CONTINUOUS
 62
     7
100
AcDbLine
 10
69.869376
 20
48.243985
 30
0.0
 11
69.871128
 21
48.244123
 31
0.0
  0
LINE
  5
3FA
330
3C8
100
AcDbEntity
  8
0
  6
CONTINUOUS
 62
     7
100
AcDbLine
 10
69.871128
 20
48.244123
 30
0.0
 11
69.87291
 21
48.244263
 31
0.0
  0
LINE
  5
3FB
330
3C8
100
AcDbEntity
  8
0
  6
CONTINUOUS
 62
     7
100
AcDbLine
 10
69.87291
 20
48.244263
 30
0.0
 11
69.874724
 21
48.244404
 31
0.0
  0
LINE
  5
3FC
330
3C8
100
AcDbEntity
  8
0
  6
CONTINUOUS
 62
     7
100
AcDbLine
 10
69.874724
 20
48.244404
 30
0.0
 11
69.87657
 21
48.244548
 31
0.0
  0
LINE
  5
3FD
330
3C8
100
AcDbEntity
  8
0
  6
CONTINUOUS
 62
     7
100
AcDbLine
 10
69.87657
 20
48.244548
 30
0.0
 11
69.878449
 21
48.244693
 31
0.0
  0
LINE
  5
3FE
330
3C8
100
AcDbEntity
  8
0
  6
CONTINUOUS
 62
     7
100
AcDbLine
 10
69.878449
 20
48.244693
 30
0.0
 11
69.88036
 21
48.24484
 31
0.0
  0
LINE
  5
3FF
330
3C8
100
AcDbEntity
  8
0
  6
CONTINUOUS
 62
     7
100
AcDbLine
 10
69.88036
 20
48.24484
 30
0.0
 11
69.882305
 21
48.24499
 31
0.0
  0
LINE
  5
400
330
3C8
100
AcDbEntity
  8
0
  6
CONTINUOUS
 62
     7
100
AcDbLine
 10
69.882305
 20
48.24499
 30
0.0
 11
69.884284
 21
48.245142
 31
0.0
  0
LINE
  5
401
330
3C8
100
AcDbEntity
  8
0
  6
CONTINUOUS
 62
     7
100
AcDbLine
 10
69.884284
 20
48.245142
 30
0.0
 11
69.886297
 21
48.245295
 31
0.0
  0
LINE
  5
402
330
3C8
100
AcDbEntity
  8
0
  6
CONTINUOUS
 62
     7
100
AcDbLine
 10
69.886297
 20
48.245295
 30
0.0
 11
69.888345
 21
48.245451
 31
0.0
  0
LINE
  5
403
330
3C8
100
AcDbEntity
  8
0
  6
CONTINUOUS
 62
     7
100
AcDbLine
 10
69.888345
 20
48.245451
 30
0.0
 11
69.890429
 21
48.245609
 31
0.0
  0
LINE
  5
404
330
3C8
100
AcDbEntity
  8
0
  6
CONTINUOUS
 62
     7
100
AcDbLine
 10
69.890429
 20
48.245609
 30
0.0
 11
69.892549
 21
48.245769
 31
0.0
  0
LINE
  5
405
330
3C8
100
AcDbEntity
  8
0
  6
CONTINUOUS
 62
     7
100
AcDbLine
 10
69.892549
 20
48.245769
 30
0.0
 11
69.894789
 21
48.245938
 31
0.0
  0
LINE
  5
406
330
3C8
100
AcDbEntity
  8
0
  6
CONTINUOUS
 62
     7
100
AcDbLine
 10
69.894789
 20
48.245938
 30
0.0
 11
69.897069
 21
48.24611
 31
0.0
  0
LINE
  5
407
330
3C8
100
AcDbEntity
  8
0
  6
CONTINUOUS
 62
     7
100
AcDbLine
 10
69.897069
 20
48.24611
 30
0.0
 11
69.899387
 21
48.246284
 31
0.0
  0
LINE
  5
408
330
3C8
100
AcDbEntity
  8
0
  6
CONTINUOUS
 62
     7
100
AcDbLine
 10
69.899387
 20
48.246284
 30
0.0
 11
69.901743
 21
48.24646
 31
0.0
  0
LINE
  5
409
330
3C8
100
AcDbEntity
  8
0
  6
CONTINUOUS
 62
     7
100
AcDbLine
 10
69.901743
 20
48.24646
 30
0.0
 11
69.904138
 21
48.246638
 31
0.0
  0
LINE
  5
40A
330
3C8
100
AcDbEntity
  8
0
  6
CONTINUOUS
 62
     7
100
AcDbLine
 10
69.904138
 20
48.246638
 30
0.0
 11
69.906571
 21
48.246819
 31
0.0
  0
LINE
  5
40B
330
3C8
100
AcDbEntity
  8
0
  6
CONTINUOUS
 62
     7
100
AcDbLine
 10
69.906571
 20
48.246819
 30
0.0
 11
69.909041
 21
48.247002
 31
0.0
  0
LINE
  5
40C
330
3C8
100
AcDbEntity
  8
0
  6
CONTINUOUS
 62
     7
100
AcDbLine
 10
69.909041
 20
48.247002
 30
0.0
 11
69.911549
 21
48.247187
 31
0.0
  0
LINE
  5
40D
330
3C8
100
AcDbEntity
  8
0
  6
CONTINUOUS
 62
     7
100
AcDbLine
 10
69.911549
 20
48.247187
 30
0.0
 11
69.914094
 21
48.247375
 31
0.0
  0
LINE
  5
40E
330
3C8
100
AcDbEntity
  8
0
  6
CONTINUOUS
 62
     7
100
AcDbLine
 10
69.914094
 20
48.247375
 30
0.0
 11
69.916675
 21
48.247564
 31
0.0
  0
LINE
  5
40F
330
3C8
100
AcDbEntity
  8
0
  6
CONTINUOUS
 62
     7
100
AcDbLine
 10
69.916675
 20
48.247564
 30
0.0
 11
69.919293
 21
48.247756
 31
0.0
  0
LINE
  5
410
330
3C8
100
AcDbEntity
  8
0
  6
CONTINUOUS
 62
     7
100
AcDbLine
 10
69.919293
 20
48.247756
 30
0.0
 11
69.921948
 21
48.24795
 31
0.0
  0
LINE
  5
411
330
3C8
100
AcDbEntity
  8
0
  6
CONTINUOUS
 62
     7
100
AcDbLine
 10
69.921948
 20
48.24795
 30
0.0
 11
69.924638
 21
48.248145
 31
0.0
  0
LINE
  5
412
330
3C8
100
AcDbEntity
  8
0
  6
CONTINUOUS
 62
     7
100
AcDbLine
 10
69.924638
 20
48.248145
 30
0.0
 11
69.927363
 21
48.248343
 31
0.0
  0
LINE
  5
413
330
3C8
100
AcDbEntity
  8
0
  6
CONTINUOUS
 62
     7
100
AcDbLine
 10
69.927363
 20
48.248343
 30
0.0
 11
69.930124
 21
48.248543
 31
0.0
  0
LINE
  5
414
330
3C8
100
AcDbEntity
  8
0
  6
CONTINUOUS
 62
     7
100
AcDbLine
 10
69.930124
 20
48.248543
 30
0.0
 11
69.93292
 21
48.248745
 31
0.0
  0
LINE
  5
415
330
3C8
100
AcDbEntity
  8
0
  6
CONTINUOUS
 62
     7
100
AcDbLine
 10
69.93292
 20
48.248745
 30
0.0
 11
69.935751
 21
48.248949
 31
0.0
  0
LINE
  5
416
330
3C8
100
AcDbEntity
  8
0
  6
CONTINUOUS
 62
     7
100
AcDbLine
 10
69.935751
 20
48.248949
 30
0.0
 11
69.938616
 21
48.249154
 31
0.0
  0
LINE
  5
417
330
3C8
100
AcDbEntity
  8
0
  6
CONTINUOUS
 62
     7
100
AcDbLine
 10
69.938616
 20
48.249154
 30
0.0
 11
69.941515
 21
48.249362
 31
0.0
  0
LINE
  5
418
330
3C8
100
AcDbEntity
  8
0
  6
CONTINUOUS
 62
     7
100
AcDbLine
 10
69.941515
 20
48.249362
 30
0.0
 11
69.944449
 21
48.249571
 31
0.0
  0
LINE
  5
419
330
3C8
100
AcDbEntity
  8
0
  6
CONTINUOUS
 62
     7
100
AcDbLine
 10
69.944449
 20
48.249571
 30
0.0
 11
69.947415
 21
48.249782
 31
0.0
  0
LINE
  5
41A
330
3C8
100
AcDbEntity
  8
0
  6
CONTINUOUS
 62
     7
100
AcDbLine
 10
69.947415
 20
48.249782
 30
0.0
 11
69.950415
 21
48.249994
 31
0.0
  0
LINE
  5
41B
330
3C8
100
AcDbEntity
  8
0
  6
CONTINUOUS
 62
     7
100
AcDbLine
 10
69.950415
 20
48.249994
 30
0.0
 11
69.953448
 21
48.250209
 31
0.0
  0
LINE
  5
41C
330
3C8
100
AcDbEntity
  8
0
  6
CONTINUOUS
 62
     7
100
AcDbLine
 10
69.953448
 20
48.250209
 30
0.0
 11
69.956514
 21
48.250425
 31
0.0
  0
LINE
  5
41D
330
3C8
100
AcDbEntity
  8
0
  6
CONTINUOUS
 62
     7
100
AcDbLine
 10
69.956514
 20
48.250425
 30
0.0
 11
69.959612
 21
48.250643
 31
0.0
  0
LINE
  5
41E
330
3C8
100
AcDbEntity
  8
0
  6
CONTINUOUS
 62
     7
100
AcDbLine
 10
69.959612
 20
48.250643
 30
0.0
 11
69.962742
 21
48.250862
 31
0.0
  0
LINE
  5
41F
330
3C8
100
AcDbEntity
  8
0
  6
CONTINUOUS
 62
     7
100
AcDbLine
 10
69.962742
 20
48.250862
 30
0.0
 11
69.965903
 21
48.251083
 31
0.0
  0
LINE
  5
420
330
3C8
100
AcDbEntity
  8
0
  6
CONTINUOUS
 62
     7
100
AcDbLine
 10
69.965903
 20
48.251083
 30
0.0
 11
69.969097
 21
48.251305
 31
0.0
  0
LINE
  5
421
330
3C8
100
AcDbEntity
  8
0
  6
CONTINUOUS
 62
     7
100
AcDbLine
 10
69.969097
 20
48.251305
 30
0.0
 11
69.972321
 21
48.251529
 31
0.0
  0
LINE
  5
422
330
3C8
100
AcDbEntity
  8
0
  6
CONTINUOUS
 62
     7
100
AcDbLine
 10
69.972321
 20
48.251529
 30
0.0
 11
69.975577
 21
48.251755
 31
0.0
  0
LINE
  5
423
330
3C8
100
AcDbEntity
  8
0
  6
CONTINUOUS
 62
     7
100
AcDbLine
 10
69.975577
 20
48.251755
 30
0.0
 11
69.978863
 21
48.251981
 31
0.0
  0
LINE
  5
424
330
3C8
100
AcDbEntity
  8
0
  6
CONTINUOUS
 62
     7
100
AcDbLine
 10
69.978863
 20
48.251981
 30
0.0
 11
69.98218
 21
48.25221
 31
0.0
  0
LINE
  5
425
330
3C8
100
AcDbEntity
  8
0
  6
CONTINUOUS
 62
     7
100
AcDbLine
 10
69.98218
 20
48.25221
 30
0.0
 11
69.985526
 21
48.252439
 31
0.0
  0
LINE
  5
426
330
3C8
100
AcDbEntity
  8
0
  6
CONTINUOUS
 62
     7
100
AcDbLine
 10
69.985526
 20
48.252439
 30
0.0
 11
69.988903
 21
48.25267
 31
0.0
  0
LINE
  5
427
330
3C8
100
AcDbEntity
  8
0
  6
CONTINUOUS
 62
     7
100
AcDbLine
 10
69.988903
 20
48.25267
 30
0.0
 11
69.992308
 21
48.252902
 31
0.0
  0
LINE
  5
428
330
3C8
100
AcDbEntity
  8
0
  6
CONTINUOUS
 62
     7
100
AcDbLine
 10
69.992308
 20
48.252902
 30
0.0
 11
69.995743
 21
48.253136
 31
0.0
  0
LINE
  5
429
330
3C8
100
AcDbEntity
  8
0
  6
CONTINUOUS
 62
     7
100
AcDbLine
 10
69.995743
 20
48.253136
 30
0.0
 11
69.999207
 21
48.25337
 31
0.0
  0
LINE
  5
42A
330
3C8
100
AcDbEntity
  8
0
  6
CONTINUOUS
 62
     7
100
AcDbLine
 10
69.999207
 20
48.25337
 30
0.0
 11
70.00095
 21
48.253488
 31
0.0
  0
LINE
  5
42B
330
3C8
100
AcDbEntity
  8
0
  6
CONTINUOUS
 62
     7
100
AcDbLine
 10
70.00095
 20
48.253488
 30
0.0
 11
70.0027
 21
48.253606
 31
0.0
  0
LINE
  5
42C
330
3C8
100
AcDbEntity
  8
0
  6
CONTINUOUS
 62
     7
100
AcDbLine
 10
70.0027
 20
48.253606
 30
0.0
 11
70.004456
 21
48.253725
 31
0.0
  0
LINE
  5
42D
330
3C8
100
AcDbEntity
  8
0
  6
CONTINUOUS
 62
     7
100
AcDbLine
 10
70.004456
 20
48.253725
 30
0.0
 11
70.00622
 21
48.253843
 31
0.0
  0
LINE
  5
42E
330
3C8
100
AcDbEntity
  8
0
  6
CONTINUOUS
 62
     7
100
AcDbLine
 10
70.00622
 20
48.253843
 30
0.0
 11
70.007991
 21
48.253962
 31
0.0
  0
LINE
  5
42F
330
3C8
100
AcDbEntity
  8
0
  6
CONTINUOUS
 62
     7
100
AcDbLine
 10
70.007991
 20
48.253962
 30
0.0
 11
70.009769
 21
48.254081
 31
0.0
  0
LINE
  5
430
330
3C8
100
AcDbEntity
  8
0
  6
CONTINUOUS
 62
     7
100
AcDbLine
 10
70.009769
 20
48.254081
 30
0.0
 11
70.011554
 21
48.254201
 31
0.0
  0
LINE
  5
431
330
3C8
100
AcDbEntity
  8
0
  6
CONTINUOUS
 62
     7
100
AcDbLine
 10
70.011554
 20
48.254201
 30
0.0
 11
70.013346
 21
48.25432
 31
0.0
  0
LINE
  5
432
330
3C8
100
AcDbEntity
  8
0
  6
CONTINUOUS
 62
     7
100
AcDbLine
 10
70.013346
 20
48.25432
 30
0.0
 11
70.015144
 21
48.25444
 31
0.0
  0
LINE
  5
433
330
3C8
100
AcDbEntity
  8
0
  6
CONTINUOUS
 62
     7
100
AcDbLine
 10
70.015144
 20
48.25444
 30
0.0
 11
70.01695
 21
48.254561
 31
0.0
  0
LINE
  5
434
330
3C8
100
AcDbEntity
  8
0
  6
CONTINUOUS
 62
     7
100
AcDbLine
 10
70.01695
 20
48.254561
 30
0.0
 11
70.018762
 21
48.254681
 31
0.0
  0
LINE
  5
435
330
3C8
100
AcDbEntity
  8
0
  6
CONTINUOUS
 62
     7
100
AcDbLine
 10
70.018762
 20
48.254681
 30
0.0
 11
70.020581
 21
48.254802
 31
0.0
  0
LINE
  5
436
330
3C8
100
AcDbEntity
  8
0
  6
CONTINUOUS
 62
     7
100
AcDbLine
 10
70.020581
 20
48.254802
 30
0.0
 11
70.022406
 21
48.254923
 31
0.0
  0
LINE
  5
437
330
3C8
100
AcDbEntity
  8
0
  6
CONTINUOUS
 62
     7
100
AcDbLine
 10
70.022406
 20
48.254923
 30
0.0
 11
70.024239
 21
48.255044
 31
0.0
  0
LINE
  5
438
330
3C8
100
AcDbEntity
  8
0
  6
CONTINUOUS
 62
     7
100
AcDbLine
 10
70.024239
 20
48.255044
 30
0.0
 11
70.026078
 21
48.255165
 31
0.0
  0
LINE
  5
439
330
3C8
100
AcDbEntity
  8
0
  6
CONTINUOUS
 62
     7
100
AcDbLine
 10
70.026078
 20
48.255165
 30
0.0
 11
70.027923
 21
48.255287
 31
0.0
  0
LINE
  5
43A
330
3C8
100
AcDbEntity
  8
0
  6
CONTINUOUS
 62
     7
100
AcDbLine
 10
70.027923
 20
48.255287
 30
0.0
 11
70.029775
 21
48.255409
 31
0.0
  0
LINE
  5
43B
330
3C8
100
AcDbEntity
  8
0
  6
CONTINUOUS
 62
     7
100
AcDbLine
 10
70.029775
 20
48.255409
 30
0.0
 11
70.031634
 21
48.255531
 31
0.0
  0
LINE
  5
43C
330
3C8
100
AcDbEntity
  8
0
  6
CONTINUOUS
 62
     7
100
AcDbLine
 10
70.031634
 20
48.255531
 30
0.0
 11
70.033499
 21
48.255654
 31
0.0
  0
LINE
  5
43D
330
3C8
100
AcDbEntity
  8
0
  6
CONTINUOUS
 62
     7
100
AcDbLine
 10
70.033499
 20
48.255654
 30
0.0
 11
70.035371
 21
48.255776
 31
0.0
  0
LINE
  5
43E
330
3C8
100
AcDbEntity
  8
0
  6
CONTINUOUS
 62
     7
100
AcDbLine
 10
70.035371
 20
48.255776
 30
0.0
 11
70.037249
 21
48.255899
 31
0.0
  0
LINE
  5
43F
330
3C8
100
AcDbEntity
  8
0
  6
CONTINUOUS
 62
     7
100
AcDbLine
 10
70.037249
 20
48.255899
 30
0.0
 11
70.039133
 21
48.256022
 31
0.0
  0
LINE
  5
440
330
3C8
100
AcDbEntity
  8
0
  6
CONTINUOUS
 62
     7
100
AcDbLine
 10
70.039133
 20
48.256022
 30
0.0
 11
70.041024
 21
48.256145
 31
0.0
  0
LINE
  5
441
330
3C8
100
AcDbEntity
  8
0
  6
CONTINUOUS
 62
     7
100
AcDbLine
 10
70.041024
 20
48.256145
 30
0.0
 11
70.042921
 21
48.256268
 31
0.0
  0
LINE
  5
442
330
3C8
100
AcDbEntity
  8
0
  6
CONTINUOUS
 62
     7
100
AcDbLine
 10
70.042921
 20
48.256268
 30
0.0
 11
70.044824
 21
48.256392
 31
0.0
  0
LINE
  5
443
330
3C8
100
AcDbEntity
  8
0
  6
CONTINUOUS
 62
     7
100
AcDbLine
 10
70.044824
 20
48.256392
 30
0.0
 11
70.046734
 21
48.256516
 31
0.0
  0
LINE
  5
444
330
3C8
100
AcDbEntity
  8
0
  6
CONTINUOUS
 62
     7
100
AcDbLine
 10
70.046734
 20
48.256516
 30
0.0
 11
70.048649
 21
48.25664
 31
0.0
  0
LINE
  5
445
330
3C8
100
AcDbEntity
  8
0
  6
CONTINUOUS
 62
     7
100
AcDbLine
 10
70.048649
 20
48.25664
 30
0.0
 11
70.050571
 21
48.256764
 31
0.0
  0
LINE
  5
446
330
3C8
100
AcDbEntity
  8
0
  6
CONTINUOUS
 62
     7
100
AcDbLine
 10
70.050571
 20
48.256764
 30
0.0
 11
70.052499
 21
48.256888
 31
0.0
  0
LINE
  5
447
330
3C8
100
AcDbEntity
  8
0
  6
CONTINUOUS
 62
     7
100
AcDbLine
 10
70.052499
 20
48.256888
 30
0.0
 11
70.054434
 21
48.257013
 31
0.0
  0
LINE
  5
448
330
3C8
100
AcDbEntity
  8
0
  6
CONTINUOUS
 62
     7
100
AcDbLine
 10
70.054434
 20
48.257013
 30
0.0
 11
70.056374
 21
48.257137
 31
0.0
  0
LINE
  5
449
330
3C8
100
AcDbEntity
  8
0
  6
CONTINUOUS
 62
     7
100
AcDbLine
 10
70.056374
 20
48.257137
 30
0.0
 11
70.05832
 21
48.257262
 31
0.0
  0
LINE
  5
44A
330
3C8
100
AcDbEntity
  8
0
  6
CONTINUOUS
 62
     7
100
AcDbLine
 10
70.05832
 20
48.257262
 30
0.0
 11
70.060272
 21
48.257387
 31
0.0
  0
LINE
  5
44B
330
3C8
100
AcDbEntity
  8
0
  6
CONTINUOUS
 62
     7
100
AcDbLine
 10
70.060272
 20
48.257387
 30
0.0
 11
70.06223
 21
48.257512
 31
0.0
  0
LINE
  5
44C
330
3C8
100
AcDbEntity
  8
0
  6
CONTINUOUS
 62
     7
100
AcDbLine
 10
70.06223
 20
48.257512
 30
0.0
 11
70.064195
 21
48.257637
 31
0.0
  0
LINE
  5
44D
330
3C8
100
AcDbEntity
  8
0
  6
CONTINUOUS
 62
     7
100
AcDbLine
 10
70.064195
 20
48.257637
 30
0.0
 11
70.066165
 21
48.257763
 31
0.0
  0
LINE
  5
44E
330
3C8
100
AcDbEntity
  8
0
  6
CONTINUOUS
 62
     7
100
AcDbLine
 10
70.066165
 20
48.257763
 30
0.0
 11
70.06814
 21
48.257888
 31
0.0
  0
LINE
  5
44F
330
3C8
100
AcDbEntity
  8
0
  6
CONTINUOUS
 62
     7
100
AcDbLine
 10
70.06814
 20
48.257888
 30
0.0
 11
70.070122
 21
48.258014
 31
0.0
  0
LINE
  5
450
330
3C8
100
AcDbEntity
  8
0
  6
CONTINUOUS
 62
     7
100
AcDbLine
 10
70.070122
 20
48.258014
 30
0.0
 11
70.072109
 21
48.25814
 31
0.0
  0
LINE
  5
451
330
3C8
100
AcDbEntity
  8
0
  6
CONTINUOUS
 62
     7
100
AcDbLine
 10
70.072109
 20
48.25814
 30
0.0
 11
70.074102
 21
48.258265
 31
0.0
  0
LINE
  5
452
330
3C8
100
AcDbEntity
  8
0
  6
CONTINUOUS
 62
     7
100
AcDbLine
 10
70.074102
 20
48.258265
 30
0.0
 11
70.076101
 21
48.258392
 31
0.0
  0
LINE
  5
453
330
3C8
100
AcDbEntity
  8
0
  6
CONTINUOUS
 62
     7
100
AcDbLine
 10
70.076101
 20
48.258392
 30
0.0
 11
70.078106
 21
48.258518
 31
0.0
  0
LINE
  5
454
330
3C8
100
AcDbEntity
  8
0
  6
CONTINUOUS
 62
     7
100
AcDbLine
 10
70.078106
 20
48.258518
 30
0.0
 11
70.080116
 21
48.258644
 31
0.0
  0
LINE
  5
455
330
3C8
100
AcDbEntity
  8
0
  6
CONTINUOUS
 62
     7
100
AcDbLine
 10
70.080116
 20
48.258644
 30
0.0
 11
70.082131
 21
48.25877
 31
0.0
  0
LINE
  5
456
330
3C8
100
AcDbEntity
  8
0
  6
CONTINUOUS
 62
     7
100
AcDbLine
 10
70.082131
 20
48.25877
 30
0.0
 11
70.084152
 21
48.258897
 31
0.0
  0
LINE
  5
457
330
3C8
100
AcDbEntity
  8
0
  6
CONTINUOUS
 62
     7
100
AcDbLine
 10
70.084152
 20
48.258897
 30
0.0
 11
70.086179
 21
48.259023
 31
0.0
  0
LINE
  5
458
330
3C8
100
AcDbEntity
  8
0
  6
CONTINUOUS
 62
     7
100
AcDbLine
 10
70.086179
 20
48.259023
 30
0.0
 11
70.088211
 21
48.25915
 31
0.0
  0
LINE
  5
459
330
3C8
100
AcDbEntity
  8
0
  6
CONTINUOUS
 62
     7
100
AcDbLine
 10
70.088211
 20
48.25915
 30
0.0
 11
70.090249
 21
48.259277
 31
0.0
  0
LINE
  5
45A
330
3C8
100
AcDbEntity
  8
0
  6
CONTINUOUS
 62
     7
100
AcDbLine
 10
70.090249
 20
48.259277
 30
0.0
 11
70.092292
 21
48.259404
 31
0.0
  0
LINE
  5
45B
330
3C8
100
AcDbEntity
  8
0
  6
CONTINUOUS
 62
     7
100
AcDbLine
 10
70.092292
 20
48.259404
 30
0.0
 11
70.09434
 21
48.259531
 31
0.0
  0
LINE
  5
45C
330
3C8
100
AcDbEntity
  8
0
  6
CONTINUOUS
 62
     7
100
AcDbLine
 10
70.09434
 20
48.259531
 30
0.0
 11
70.096394
 21
48.259658
 31
0.0
  0
LINE
  5
45D
330
3C8
100
AcDbEntity
  8
0
  6
CONTINUOUS
 62
     7
100
AcDbLine
 10
70.096394
 20
48.259658
 30
0.0
 11
70.098453
 21
48.259785
 31
0.0
  0
LINE
  5
45E
330
3C8
100
AcDbEntity
  8
0
  6
CONTINUOUS
 62
     7
100
AcDbLine
 10
70.098453
 20
48.259785
 30
0.0
 11
70.100517
 21
48.259912
 31
0.0
  0
LINE
  5
45F
330
3C8
100
AcDbEntity
  8
0
  6
CONTINUOUS
 62
     7
100
AcDbLine
 10
70.100517
 20
48.259912
 30
0.0
 11
70.102587
 21
48.260039
 31
0.0
  0
LINE
  5
460
330
3C8
100
AcDbEntity
  8
0
  6
CONTINUOUS
 62
     7
100
AcDbLine
 10
70.102587
 20
48.260039
 30
0.0
 11
70.104654
 21
48.260166
 31
0.0
  0
LINE
  5
461
330
3C8
100
AcDbEntity
  8
0
  6
CONTINUOUS
 62
     7
100
AcDbLine
 10
70.104654
 20
48.260166
 30
0.0
 11
70.106727
 21
48.260293
 31
0.0
  0
LINE
  5
462
330
3C8
100
AcDbEntity
  8
0
  6
CONTINUOUS
 62
     7
100
AcDbLine
 10
70.106727
 20
48.260293
 30
0.0
 11
70.108804
 21
48.26042
 31
0.0
  0
LINE
  5
463
330
3C8
100
AcDbEntity
  8
0
  6
CONTINUOUS
 62
     7
100
AcDbLine
 10
70.108804
 20
48.26042
 30
0.0
 11
70.110887
 21
48.260547
 31
0.0
  0
LINE
  5
464
330
3C8
100
AcDbEntity
  8
0
  6
CONTINUOUS
 62
     7
100
AcDbLine
 10
70.110887
 20
48.260547
 30
0.0
 11
70.112975
 21
48.260674
 31
0.0
  0
LINE
  5
465
330
3C8
100
AcDbEntity
  8
0
  6
CONTINUOUS
 62
     7
100
AcDbLine
 10
70.112975
 20
48.260674
 30
0.0
 11
70.115068
 21
48.260801
 31
0.0
  0
LINE
  5
466
330
3C8
100
AcDbEntity
  8
0
  6
CONTINUOUS
 62
     7
100
AcDbLine
 10
70.115068
 20
48.260801
 30
0.0
 11
70.117167
 21
48.260928
 31
0.0
  0
LINE
  5
467
330
3C8
100
AcDbEntity
  8
0
  6
CONTINUOUS
 62
     7
100
AcDbLine
 10
70.117167
 20
48.260928
 30
0.0
 11
70.11927
 21
48.261055
 31
0.0
  0
LINE
  5
468
330
3C8
100
AcDbEntity
  8
0
  6
CONTINUOUS
 62
     7
100
AcDbLine
 10
70.11927
 20
48.261055
 30
0.0
 11
70.121378
 21
48.261182
 31
0.0
  0
LINE
  5
469
330
3C8
100
AcDbEntity
  8
0
  6
CONTINUOUS
 62
     7
100
AcDbLine
 10
70.121378
 20
48.261182
 30
0.0
 11
70.123492
 21
48.26131
 31
0.0
  0
LINE
  5
46A
330
3C8
100
AcDbEntity
  8
0
  6
CONTINUOUS
 62
     7
100
AcDbLine
 10
70.123492
 20
48.26131
 30
0.0
 11
70.12561
 21
48.261437
 31
0.0
  0
LINE
  5
46B
330
3C8
100
AcDbEntity
  8
0
  6
CONTINUOUS
 62
     7
100
AcDbLine
 10
70.12561
 20
48.261437
 30
0.0
 11
70.127734
 21
48.261564
 31
0.0
  0
LINE
  5
46C
330
3C8
100
AcDbEntity
  8
0
  6
CONTINUOUS
 62
     7
100
AcDbLine
 10
70.127734
 20
48.261564
 30
0.0
 11
70.129862
 21
48.261691
 31
0.0
  0
LINE
  5
46D
330
3C8
100
AcDbEntity
  8
0
  6
CONTINUOUS
 62
     7
100
AcDbLine
 10
70.129862
 20
48.261691
 30
0.0
 11
70.131996
 21
48.261818
 31
0.0
  0
LINE
  5
46E
330
3C8
100
AcDbEntity
  8
0
  6
CONTINUOUS
 62
     7
100
AcDbLine
 10
70.131996
 20
48.261818
 30
0.0
 11
70.134135
 21
48.261946
 31
0.0
  0
LINE
  5
46F
330
3C8
100
AcDbEntity
  8
0
  6
CONTINUOUS
 62
     7
100
AcDbLine
 10
70.134135
 20
48.261946
 30
0.0
 11
70.136278
 21
48.262073
 31
0.0
  0
LINE
  5
470
330
3C8
100
AcDbEntity
  8
0
  6
CONTINUOUS
 62
     7
100
AcDbLine
 10
70.136278
 20
48.262073
 30
0.0
 11
70.138427
 21
48.2622
 31
0.0
  0
LINE
  5
471
330
3C8
100
AcDbEntity
  8
0
  6
CONTINUOUS
 62
     7
100
AcDbLine
 10
70.138427
 20
48.2622
 30
0.0
 11
70.140581
 21
48.262327
 31
0.0
  0
LINE
  5
472
330
3C8
100
AcDbEntity
  8
0
  6
CONTINUOUS
 62
     7
100
AcDbLine
 10
70.140581
 20
48.262327
 30
0.0
 11
70.14274
 21
48.262454
 31
0.0
  0
LINE
  5
473
330
3C8
100
AcDbEntity
  8
0
  6
CONTINUOUS
 62
     7
100
AcDbLine
 10
70.14274
 20
48.262454
 30
0.0
 11
70.144903
 21
48.262581
 31
0.0
  0
LINE
  5
474
330
3C8
100
AcDbEntity
  8
0
  6
CONTINUOUS
 62
     7
100
AcDbLine
 10
70.144903
 20
48.262581
 30
0.0
 11
70.147072
 21
48.262708
 31
0.0
  0
LINE
  5
475
330
3C8
100
AcDbEntity
  8
0
  6
CONTINUOUS
 62
     7
100
AcDbLine
 10
70.147072
 20
48.262708
 30
0.0
 11
70.149246
 21
48.262835
 31
0.0
  0
LINE
  5
476
330
3C8
100
AcDbEntity
  8
0
  6
CONTINUOUS
 62
     7
100
AcDbLine
 10
70.149246
 20
48.262835
 30
0.0
 11
70.151425
 21
48.262962
 31
0.0
  0
LINE
  5
477
330
3C8
100
AcDbEntity
  8
0
  6
CONTINUOUS
 62
     7
100
AcDbLine
 10
70.151425
 20
48.262962
 30
0.0
 11
70.153608
 21
48.263089
 31
0.0
  0
LINE
  5
478
330
3C8
100
AcDbEntity
  8
0
  6
CONTINUOUS
 62
     7
100
AcDbLine
 10
70.153608
 20
48.263089
 30
0.0
 11
70.155797
 21
48.263215
 31
0.0
  0
LINE
  5
479
330
3C8
100
AcDbEntity
  8
0
  6
CONTINUOUS
 62
     7
100
AcDbLine
 10
70.155797
 20
48.263215
 30
0.0
 11
70.15799
 21
48.263342
 31
0.0
  0
LINE
  5
47A
330
3C8
100
AcDbEntity
  8
0
  6
CONTINUOUS
 62
     7
100
AcDbLine
 10
70.15799
 20
48.263342
 30
0.0
 11
70.160189
 21
48.263469
 31
0.0
  0
LINE
  5
47B
330
3C8
100
AcDbEntity
  8
0
  6
CONTINUOUS
 62
     7
100
AcDbLine
 10
70.160189
 20
48.263469
 30
0.0
 11
70.162392
 21
48.263595
 31
0.0
  0
LINE
  5
47C
330
3C8
100
AcDbEntity
  8
0
  6
CONTINUOUS
 62
     7
100
AcDbLine
 10
70.162392
 20
48.263595
 30
0.0
 11
70.164601
 21
48.263722
 31
0.0
  0
LINE
  5
47D
330
3C8
100
AcDbEntity
  8
0
  6
CONTINUOUS
 62
     7
100
AcDbLine
 10
70.164601
 20
48.263722
 30
0.0
 11
70.166814
 21
48.263848
 31
0.0
  0
LINE
  5
47E
330
3C8
100
AcDbEntity
  8
0
  6
CONTINUOUS
 62
     7
100
AcDbLine
 10
70.166814
 20
48.263848
 30
0.0
 11
70.169032
 21
48.263974
 31
0.0
  0
LINE
  5
47F
330
3C8
100
AcDbEntity
  8
0
  6
CONTINUOUS
 62
     7
100
AcDbLine
 10
70.169032
 20
48.263974
 30
0.0
 11
70.171255
 21
48.2641
 31
0.0
  0
LINE
  5
480
330
3C8
100
AcDbEntity
  8
0
  6
CONTINUOUS
 62
     7
100
AcDbLine
 10
70.171255
 20
48.2641
 30
0.0
 11
70.173483
 21
48.264226
 31
0.0
  0
LINE
  5
481
330
3C8
100
AcDbEntity
  8
0
  6
CONTINUOUS
 62
     7
100
AcDbLine
 10
70.173483
 20
48.264226
 30
0.0
 11
70.175716
 21
48.264352
 31
0.0
  0
LINE
  5
482
330
3C8
100
AcDbEntity
  8
0
  6
CONTINUOUS
 62
     7
100
AcDbLine
 10
70.175716
 20
48.264352
 30
0.0
 11
70.177954
 21
48.264478
 31
0.0
  0
LINE
  5
483
330
3C8
100
AcDbEntity
  8
0
  6
CONTINUOUS
 62
     7
100
AcDbLine
 10
70.177954
 20
48.264478
 30
0.0
 11
70.180196
 21
48.264604
 31
0.0
  0
LINE
  5
484
330
3C8
100
AcDbEntity
  8
0
  6
CONTINUOUS
 62
     7
100
AcDbLine
 10
70.180196
 20
48.264604
 30
0.0
 11
70.182444
 21
48.264729
 31
0.0
  0
LINE
  5
485
330
3C8
100
AcDbEntity
  8
0
  6
CONTINUOUS
 62
     7
100
AcDbLine
 10
70.182444
 20
48.264729
 30
0.0
 11
70.184696
 21
48.264855
 31
0.0
  0
LINE
  5
486
330
3C8
100
AcDbEntity
  8
0
  6
CONTINUOUS
 62
     7
100
AcDbLine
 10
70.184696
 20
48.264855
 30
0.0
 11
70.186953
 21
48.26498
 31
0.0
  0
LINE
  5
487
330
3C8
100
AcDbEntity
  8
0
  6
CONTINUOUS
 62
     7
100
AcDbLine
 10
70.186953
 20
48.26498
 30
0.0
 11
70.189215
 21
48.265105
 31
0.0
  0
LINE
  5
488
330
3C8
100
AcDbEntity
  8
0
  6
CONTINUOUS
 62
     7
100
AcDbLine
 10
70.189215
 20
48.265105
 30
0.0
 11
70.191482
 21
48.26523
 31
0.0
  0
LINE
  5
489
330
3C8
100
AcDbEntity
  8
0
  6
CONTINUOUS
 62
     7
100
AcDbLine
 10
70.191482
 20
48.26523
 30
0.0
 11
70.193754
 21
48.265355
 31
0.0
  0
LINE
  5
48A
330
3C8
100
AcDbEntity
  8
0
  6
CONTINUOUS
 62
     7
100
AcDbLine
 10
70.193754
 20
48.265355
 30
0.0
 11
70.19603
 21
48.26548
 31
0.0
  0
LINE
  5
48B
330
3C8
100
AcDbEntity
  8
0
  6
CONTINUOUS
 62
     7
100
AcDbLine
 10
70.19603
 20
48.26548
 30
0.0
 11
70.198312
 21
48.265604
 31
0.0
  0
LINE
  5
48C
330
3C8
100
AcDbEntity
  8
0
  6
CONTINUOUS
 62
     7
100
AcDbLine
 10
70.198312
 20
48.265604
 30
0.0
 11
70.200598
 21
48.265729
 31
0.0
  0
LINE
  5
48D
330
3C8
100
AcDbEntity
  8
0
  6
CONTINUOUS
 62
     7
100
AcDbLine
 10
70.200598
 20
48.265729
 30
0.0
 11
70.202889
 21
48.265853
 31
0.0
  0
LINE
  5
48E
330
3C8
100
AcDbEntity
  8
0
  6
CONTINUOUS
 62
     7
100
AcDbLine
 10
70.202889
 20
48.265853
 30
0.0
 11
70.205184
 21
48.265977
 31
0.0
  0
LINE
  5
48F
330
3C8
100
AcDbEntity
  8
0
  6
CONTINUOUS
 62
     7
100
AcDbLine
 10
70.205184
 20
48.265977
 30
0.0
 11
70.207485
 21
48.266101
 31
0.0
  0
LINE
  5
490
330
3C8
100
AcDbEntity
  8
0
  6
CONTINUOUS
 62
     7
100
AcDbLine
 10
70.207485
 20
48.266101
 30
0.0
 11
70.20979
 21
48.266224
 31
0.0
  0
LINE
  5
491
330
3C8
100
AcDbEntity
  8
0
  6
CONTINUOUS
 62
     7
100
AcDbLine
 10
70.20979
 20
48.266224
 30
0.0
 11
70.2121
 21
48.266348
 31
0.0
  0
LINE
  5
492
330
3C8
100
AcDbEntity
  8
0
  6
CONTINUOUS
 62
     7
100
AcDbLine
 10
70.2121
 20
48.266348
 30
0.0
 11
70.214414
 21
48.266471
 31
0.0
  0
LINE
  5
493
330
3C8
100
AcDbEntity
  8
0
  6
CONTINUOUS
 62
     7
100
AcDbLine
 10
70.214414
 20
48.266471
 30
0.0
 11
70.216734
 21
48.266594
 31
0.0
  0
LINE
  5
494
330
3C8
100
AcDbEntity
  8
0
  6
CONTINUOUS
 62
     7
100
AcDbLine
 10
70.216734
 20
48.266594
 30
0.0
 11
70.219058
 21
48.266717
 31
0.0
  0
LINE
  5
495
330
3C8
100
AcDbEntity
  8
0
  6
CONTINUOUS
 62
     7
100
AcDbLine
 10
70.219058
 20
48.266717
 30
0.0
 11
70.221387
 21
48.26684
 31
0.0
  0
LINE
  5
496
330
3C8
100
AcDbEntity
  8
0
  6
CONTINUOUS
 62
     7
100
AcDbLine
 10
70.221387
 20
48.26684
 30
0.0
 11
70.223721
 21
48.266962
 31
0.0
  0
LINE
  5
497
330
3C8
100
AcDbEntity
  8
0
  6
CONTINUOUS
 62
     7
100
AcDbLine
 10
70.223721
 20
48.266962
 30
0.0
 11
70.226059
 21
48.267084
 31
0.0
  0
LINE
  5
498
330
3C8
100
AcDbEntity
  8
0
  6
CONTINUOUS
 62
     7
100
AcDbLine
 10
70.226059
 20
48.267084
 30
0.0
 11
70.228402
 21
48.267206
 31
0.0
  0
LINE
  5
499
330
3C8
100
AcDbEntity
  8
0
  6
CONTINUOUS
 62
     7
100
AcDbLine
 10
70.228402
 20
48.267206
 30
0.0
 11
70.23075
 21
48.267328
 31
0.0
  0
LINE
  5
49A
330
3C8
100
AcDbEntity
  8
0
  6
CONTINUOUS
 62
     7
100
AcDbLine
 10
70.23075
 20
48.267328
 30
0.0
 11
70.233102
 21
48.267449
 31
0.0
  0
LINE
  5
49B
330
3C8
100
AcDbEntity
  8
0
  6
CONTINUOUS
 62
     7
100
AcDbLine
 10
70.233102
 20
48.267449
 30
0.0
 11
70.235459
 21
48.26757
 31
0.0
  0
LINE
  5
49C
330
3C8
100
AcDbEntity
  8
0
  6
CONTINUOUS
 62
     7
100
AcDbLine
 10
70.235459
 20
48.26757
 30
0.0
 11
70.237821
 21
48.267691
 31
0.0
  0
LINE
  5
49D
330
3C8
100
AcDbEntity
  8
0
  6
CONTINUOUS
 62
     7
100
AcDbLine
 10
70.237821
 20
48.267691
 30
0.0
 11
70.240187
 21
48.267812
 31
0.0
  0
LINE
  5
49E
330
3C8
100
AcDbEntity
  8
0
  6
CONTINUOUS
 62
     7
100
AcDbLine
 10
70.240187
 20
48.267812
 30
0.0
 11
70.242559
 21
48.267932
 31
0.0
  0
LINE
  5
49F
330
3C8
100
AcDbEntity
  8
0
  6
CONTINUOUS
 62
     7
100
AcDbLine
 10
70.242559
 20
48.267932
 30
0.0
 11
70.244934
 21
48.268052
 31
0.0
  0
LINE
  5
4A0
330
3C8
100
AcDbEntity
  8
0
  6
CONTINUOUS
 62
     7
100
AcDbLine
 10
70.244934
 20
48.268052
 30
0.0
 11
70.247315
 21
48.268172
 31
0.0
  0
LINE
  5
4A1
330
3C8
100
AcDbEntity
  8
0
  6
CONTINUOUS
 62
     7
100
AcDbLine
 10
70.247315
 20
48.268172
 30
0.0
 11
70.2497
 21
48.268292
 31
0.0
  0
LINE
  5
4A2
330
3C8
100
AcDbEntity
  8
0
  6
CONTINUOUS
 62
     7
100
AcDbLine
 10
70.2497
 20
48.268292
 30
0.0
 11
70.252089
 21
48.268411
 31
0.0
  0
LINE
  5
4A3
330
3C8
100
AcDbEntity
  8
0
  6
CONTINUOUS
 62
     7
100
AcDbLine
 10
70.252089
 20
48.268411
 30
0.0
 11
70.254484
 21
48.26853
 31
0.0
  0
LINE
  5
4A4
330
3C8
100
AcDbEntity
  8
0
  6
CONTINUOUS
 62
     7
100
AcDbLine
 10
70.254484
 20
48.26853
 30
0.0
 11
70.256882
 21
48.268649
 31
0.0
  0
LINE
  5
4A5
330
3C8
100
AcDbEntity
  8
0
  6
CONTINUOUS
 62
     7
100
AcDbLine
 10
70.256882
 20
48.268649
 30
0.0
 11
70.259286
 21
48.268767
 31
0.0
  0
LINE
  5
4A6
330
3C8
100
AcDbEntity
  8
0
  6
CONTINUOUS
 62
     7
100
AcDbLine
 10
70.259286
 20
48.268767
 30
0.0
 11
70.261694
 21
48.268885
 31
0.0
  0
LINE
  5
4A7
330
3C8
100
AcDbEntity
  8
0
  6
CONTINUOUS
 62
     7
100
AcDbLine
 10
70.261694
 20
48.268885
 30
0.0
 11
70.264107
 21
48.269003
 31
0.0
  0
LINE
  5
4A8
330
3C8
100
AcDbEntity
  8
0
  6
CONTINUOUS
 62
     7
100
AcDbLine
 10
70.264107
 20
48.269003
 30
0.0
 11
70.266524
 21
48.269121
 31
0.0
  0
LINE
  5
4A9
330
3C8
100
AcDbEntity
  8
0
  6
CONTINUOUS
 62
     7
100
AcDbLine
 10
70.266524
 20
48.269121
 30
0.0
 11
70.268946
 21
48.269238
 31
0.0
  0
LINE
  5
4AA
330
3C8
100
AcDbEntity
  8
0
  6
CONTINUOUS
 62
     7
100
AcDbLine
 10
70.268946
 20
48.269238
 30
0.0
 11
70.271372
 21
48.269355
 31
0.0
  0
LINE
  5
4AB
330
3C8
100
AcDbEntity
  8
0
  6
CONTINUOUS
 62
     7
100
AcDbLine
 10
70.271372
 20
48.269355
 30
0.0
 11
70.273803
 21
48.269471
 31
0.0
  0
LINE
  5
4AC
330
3C8
100
AcDbEntity
  8
0
  6
CONTINUOUS
 62
     7
100
AcDbLine
 10
70.273803
 20
48.269471
 30
0.0
 11
70.276238
 21
48.269587
 31
0.0
  0
LINE
  5
4AD
330
3C8
100
AcDbEntity
  8
0
  6
CONTINUOUS
 62
     7
100
AcDbLine
 10
70.276238
 20
48.269587
 30
0.0
 11
70.278678
 21
48.269703
 31
0.0
  0
LINE
  5
4AE
330
3C8
100
AcDbEntity
  8
0
  6
CONTINUOUS
 62
     7
100
AcDbLine
 10
70.278678
 20
48.269703
 30
0.0
 11
70.281123
 21
48.269819
 31
0.0
  0
LINE
  5
4AF
330
3C8
100
AcDbEntity
  8
0
  6
CONTINUOUS
 62
     7
100
AcDbLine
 10
70.281123
 20
48.269819
 30
0.0
 11
70.283572
 21
48.269934
 31
0.0
  0
LINE
  5
4B0
330
3C8
100
AcDbEntity
  8
0
  6
CONTINUOUS
 62
     7
100
AcDbLine
 10
70.283572
 20
48.269934
 30
0.0
 11
70.286025
 21
48.270049
 31
0.0
  0
LINE
  5
4B1
330
3C8
100
AcDbEntity
  8
0
  6
CONTINUOUS
 62
     7
100
AcDbLine
 10
70.286025
 20
48.270049
 30
0.0
 11
70.288483
 21
48.270163
 31
0.0
  0
LINE
  5
4B2
330
3C8
100
AcDbEntity
  8
0
  6
CONTINUOUS
 62
     7
100
AcDbLine
 10
70.288483
 20
48.270163
 30
0.0
 11
70.290946
 21
48.270277
 31
0.0
  0
LINE
  5
4B3
330
3C8
100
AcDbEntity
  8
0
  6
CONTINUOUS
 62
     7
100
AcDbLine
 10
70.290946
 20
48.270277
 30
0.0
 11
70.293413
 21
48.270391
 31
0.0
  0
LINE
  5
4B4
330
3C8
100
AcDbEntity
  8
0
  6
CONTINUOUS
 62
     7
100
AcDbLine
 10
70.293413
 20
48.270391
 30
0.0
 11
70.295884
 21
48.270504
 31
0.0
  0
LINE
  5
4B5
330
3C8
100
AcDbEntity
  8
0
  6
CONTINUOUS
 62
     7
100
AcDbLine
 10
70.295884
 20
48.270504
 30
0.0
 11
70.29836
 21
48.270617
 31
0.0
  0
LINE
  5
4B6
330
3C8
100
AcDbEntity
  8
0
  6
CONTINUOUS
 62
     7
100
AcDbLine
 10
70.29836
 20
48.270617
 30
0.0
 11
70.300841
 21
48.270729
 31
0.0
  0
LINE
  5
4B7
330
3C8
100
AcDbEntity
  8
0
  6
CONTINUOUS
 62
     7
100
AcDbLine
 10
70.300841
 20
48.270729
 30
0.0
 11
70.303326
 21
48.270842
 31
0.0
  0
LINE
  5
4B8
330
3C8
100
AcDbEntity
  8
0
  6
CONTINUOUS
 62
     7
100
AcDbLine
 10
70.303326
 20
48.270842
 30
0.0
 11
70.305815
 21
48.270953
 31
0.0
  0
LINE
  5
4B9
330
3C8
100
AcDbEntity
  8
0
  6
CONTINUOUS
 62
     7
100
AcDbLine
 10
70.305815
 20
48.270953
 30
0.0
 11
70.308309
 21
48.271065
 31
0.0
  0
LINE
  5
4BA
330
3C8
100
AcDbEntity
  8
0
  6
CONTINUOUS
 62
     7
100
AcDbLine
 10
70.308309
 20
48.271065
 30
0.0
 11
70.310807
 21
48.271175
 31
0.0
  0
LINE
  5
4BB
330
3C8
100
AcDbEntity
  8
0
  6
CONTINUOUS
 62
     7
100
AcDbLine
 10
70.310807
 20
48.271175
 30
0.0
 11
70.31331
 21
48.271286
 31
0.0
  0
LINE
  5
4BC
330
3C8
100
AcDbEntity
  8
0
  6
CONTINUOUS
 62
     7
100
AcDbLine
 10
70.31331
 20
48.271286
 30
0.0
 11
70.315817
 21
48.271396
 31
0.0
  0
LINE
  5
4BD
330
3C8
100
AcDbEntity
  8
0
  6
CONTINUOUS
 62
     7
100
AcDbLine
 10
70.315817
 20
48.271396
 30
0.0
 11
70.318328
 21
48.271506
 31
0.0
  0
LINE
  5
4BE
330
3C8
100
AcDbEntity
  8
0
  6
CONTINUOUS
 62
     7
100
AcDbLine
 10
70.318328
 20
48.271506
 30
0.0
 11
70.320844
 21
48.271615
 31
0.0
  0
LINE
  5
4BF
330
3C8
100
AcDbEntity
  8
0
  6
CONTINUOUS
 62
     7
100
AcDbLine
 10
70.320844
 20
48.271615
 30
0.0
 11
70.323365
 21
48.271724
 31
0.0
  0
LINE
  5
4C0
330
3C8
100
AcDbEntity
  8
0
  6
CONTINUOUS
 62
     7
100
AcDbLine
 10
70.323365
 20
48.271724
 30
0.0
 11
70.325889
 21
48.271832
 31
0.0
  0
LINE
  5
4C1
330
3C8
100
AcDbEntity
  8
0
  6
CONTINUOUS
 62
     7
100
AcDbLine
 10
70.325889
 20
48.271832
 30
0.0
 11
70.328418
 21
48.27194
 31
0.0
  0
LINE
  5
4C2
330
3C8
100
AcDbEntity
  8
0
  6
CONTINUOUS
 62
     7
100
AcDbLine
 10
70.328418
 20
48.27194
 30
0.0
 11
70.330952
 21
48.272047
 31
0.0
  0
LINE
  5
4C3
330
3C8
100
AcDbEntity
  8
0
  6
CONTINUOUS
 62
     7
100
AcDbLine
 10
70.330952
 20
48.272047
 30
0.0
 11
70.333489
 21
48.272154
 31
0.0
  0
LINE
  5
4C4
330
3C8
100
AcDbEntity
  8
0
  6
CONTINUOUS
 62
     7
100
AcDbLine
 10
70.333489
 20
48.272154
 30
0.0
 11
70.336032
 21
48.272261
 31
0.0
  0
LINE
  5
4C5
330
3C8
100
AcDbEntity
  8
0
  6
CONTINUOUS
 62
     7
100
AcDbLine
 10
70.336032
 20
48.272261
 30
0.0
 11
70.338578
 21
48.272367
 31
0.0
  0
LINE
  5
4C6
330
3C8
100
AcDbEntity
  8
0
  6
CONTINUOUS
 62
     7
100
AcDbLine
 10
70.338578
 20
48.272367
 30
0.0
 11
70.341129
 21
48.272472
 31
0.0
  0
LINE
  5
4C7
330
3C8
100
AcDbEntity
  8
0
  6
CONTINUOUS
 62
     7
100
AcDbLine
 10
70.341129
 20
48.272472
 30
0.0
 11
70.343684
 21
48.272577
 31
0.0
  0
LINE
  5
4C8
330
3C8
100
AcDbEntity
  8
0
  6
CONTINUOUS
 62
     7
100
AcDbLine
 10
70.343684
 20
48.272577
 30
0.0
 11
70.346244
 21
48.272682
 31
0.0
  0
LINE
  5
4C9
330
3C8
100
AcDbEntity
  8
0
  6
CONTINUOUS
 62
     7
100
AcDbLine
 10
70.346244
 20
48.272682
 30
0.0
 11
70.348807
 21
48.272786
 31
0.0
  0
LINE
  5
4CA
330
3C8
100
AcDbEntity
  8
0
  6
CONTINUOUS
 62
     7
100
AcDbLine
 10
70.348807
 20
48.272786
 30
0.0
 11
70.351375
 21
48.27289
 31
0.0
  0
LINE
  5
4CB
330
3C8
100
AcDbEntity
  8
0
  6
CONTINUOUS
 62
     7
100
AcDbLine
 10
70.351375
 20
48.27289
 30
0.0
 11
70.353948
 21
48.272993
 31
0.0
  0
LINE
  5
4CC
330
3C8
100
AcDbEntity
  8
0
  6
CONTINUOUS
 62
     7
100
AcDbLine
 10
70.353948
 20
48.272993
 30
0.0
 11
70.356525
 21
48.273095
 31
0.0
  0
LINE
  5
4CD
330
3C8
100
AcDbEntity
  8
0
  6
CONTINUOUS
 62
     7
100
AcDbLine
 10
70.356525
 20
48.273095
 30
0.0
 11
70.359106
 21
48.273198
 31
0.0
  0
LINE
  5
4CE
330
3C8
100
AcDbEntity
  8
0
  6
CONTINUOUS
 62
     7
100
AcDbLine
 10
70.359106
 20
48.273198
 30
0.0
 11
70.361691
 21
48.273299
 31
0.0
  0
LINE
  5
4CF
330
3C8
100
AcDbEntity
  8
0
  6
CONTINUOUS
 62
     7
100
AcDbLine
 10
70.361691
 20
48.273299
 30
0.0
 11
70.36428
 21
48.2734
 31
0.0
  0
LINE
  5
4D0
330
3C8
100
AcDbEntity
  8
0
  6
CONTINUOUS
 62
     7
100
AcDbLine
 10
70.36428
 20
48.2734
 30
0.0
 11
70.366874
 21
48.273501
 31
0.0
  0
LINE
  5
4D1
330
3C8
100
AcDbEntity
  8
0
  6
CONTINUOUS
 62
     7
100
AcDbLine
 10
70.366874
 20
48.273501
 30
0.0
 11
70.369472
 21
48.273601
 31
0.0
  0
LINE
  5
4D2
330
3C8
100
AcDbEntity
  8
0
  6
CONTINUOUS
 62
     7
100
AcDbLine
 10
70.369472
 20
48.273601
 30
0.0
 11
70.372074
 21
48.2737
 31
0.0
  0
LINE
  5
4D3
330
3C8
100
AcDbEntity
  8
0
  6
CONTINUOUS
 62
     7
100
AcDbLine
 10
70.372074
 20
48.2737
 30
0.0
 11
70.374681
 21
48.273799
 31
0.0
  0
LINE
  5
4D4
330
3C8
100
AcDbEntity
  8
0
  6
CONTINUOUS
 62
     7
100
AcDbLine
 10
70.374681
 20
48.273799
 30
0.0
 11
70.377292
 21
48.273898
 31
0.0
  0
LINE
  5
4D5
330
3C8
100
AcDbEntity
  8
0
  6
CONTINUOUS
 62
     7
100
AcDbLine
 10
70.377292
 20
48.273898
 30
0.0
 11
70.379907
 21
48.273995
 31
0.0
  0
LINE
  5
4D6
330
3C8
100
AcDbEntity
  8
0
  6
CONTINUOUS
 62
     7
100
AcDbLine
 10
70.379907
 20
48.273995
 30
0.0
 11
70.382526
 21
48.274093
 31
0.0
  0
LINE
  5
4D7
330
3C8
100
AcDbEntity
  8
0
  6
CONTINUOUS
 62
     7
100
AcDbLine
 10
70.382526
 20
48.274093
 30
0.0
 11
70.385149
 21
48.274189
 31
0.0
  0
LINE
  5
4D8
330
3C8
100
AcDbEntity
  8
0
  6
CONTINUOUS
 62
     7
100
AcDbLine
 10
70.385149
 20
48.274189
 30
0.0
 11
70.387777
 21
48.274286
 31
0.0
  0
LINE
  5
4D9
330
3C8
100
AcDbEntity
  8
0
  6
CONTINUOUS
 62
     7
100
AcDbLine
 10
70.387777
 20
48.274286
 30
0.0
 11
70.390409
 21
48.274381
 31
0.0
  0
LINE
  5
4DA
330
3C8
100
AcDbEntity
  8
0
  6
CONTINUOUS
 62
     7
100
AcDbLine
 10
70.390409
 20
48.274381
 30
0.0
 11
70.393045
 21
48.274476
 31
0.0
  0
LINE
  5
4DB
330
3C8
100
AcDbEntity
  8
0
  6
CONTINUOUS
 62
     7
100
AcDbLine
 10
70.393045
 20
48.274476
 30
0.0
 11
70.395685
 21
48.274571
 31
0.0
  0
LINE
  5
4DC
330
3C8
100
AcDbEntity
  8
0
  6
CONTINUOUS
 62
     7
100
AcDbLine
 10
70.395685
 20
48.274571
 30
0.0
 11
70.398329
 21
48.274664
 31
0.0
  0
LINE
  5
4DD
330
3C8
100
AcDbEntity
  8
0
  6
CONTINUOUS
 62
     7
100
AcDbLine
 10
70.398329
 20
48.274664
 30
0.0
 11
70.400977
 21
48.274758
 31
0.0
  0
LINE
  5
4DE
330
3C8
100
AcDbEntity
  8
0
  6
CONTINUOUS
 62
     7
100
AcDbLine
 10
70.400977
 20
48.274758
 30
0.0
 11
70.40363
 21
48.27485
 31
0.0
  0
LINE
  5
4DF
330
3C8
100
AcDbEntity
  8
0
  6
CONTINUOUS
 62
     7
100
AcDbLine
 10
70.40363
 20
48.27485
 30
0.0
 11
70.406287
 21
48.274942
 31
0.0
  0
LINE
  5
4E0
330
3C8
100
AcDbEntity
  8
0
  6
CONTINUOUS
 62
     7
100
AcDbLine
 10
70.406287
 20
48.274942
 30
0.0
 11
70.408843
 21
48.27503
 31
0.0
  0
LINE
  5
4E1
330
3C8
100
AcDbEntity
  8
0
  6
CONTINUOUS
 62
     7
100
AcDbLine
 10
70.408843
 20
48.27503
 30
0.0
 11
70.411403
 21
48.275117
 31
0.0
  0
LINE
  5
4E2
330
3C8
100
AcDbEntity
  8
0
  6
CONTINUOUS
 62
     7
100
AcDbLine
 10
70.411403
 20
48.275117
 30
0.0
 11
70.413967
 21
48.275204
 31
0.0
  0
LINE
  5
4E3
330
3C8
100
AcDbEntity
  8
0
  6
CONTINUOUS
 62
     7
100
AcDbLine
 10
70.413967
 20
48.275204
 30
0.0
 11
70.416535
 21
48.27529
 31
0.0
  0
LINE
  5
4E4
330
3C8
100
AcDbEntity
  8
0
  6
CONTINUOUS
 62
     7
100
AcDbLine
 10
70.416535
 20
48.27529
 30
0.0
 11
70.419106
 21
48.275376
 31
0.0
  0
LINE
  5
4E5
330
3C8
100
AcDbEntity
  8
0
  6
CONTINUOUS
 62
     7
100
AcDbLine
 10
70.419106
 20
48.275376
 30
0.0
 11
70.421681
 21
48.275461
 31
0.0
  0
LINE
  5
4E6
330
3C8
100
AcDbEntity
  8
0
  6
CONTINUOUS
 62
     7
100
AcDbLine
 10
70.421681
 20
48.275461
 30
0.0
 11
70.424259
 21
48.275545
 31
0.0
  0
LINE
  5
4E7
330
3C8
100
AcDbEntity
  8
0
  6
CONTINUOUS
 62
     7
100
AcDbLine
 10
70.424259
 20
48.275545
 30
0.0
 11
70.426841
 21
48.275629
 31
0.0
  0
LINE
  5
4E8
330
3C8
100
AcDbEntity
  8
0
  6
CONTINUOUS
 62
     7
100
AcDbLine
 10
70.426841
 20
48.275629
 30
0.0
 11
70.429427
 21
48.275712
 31
0.0
  0
LINE
  5
4E9
330
3C8
100
AcDbEntity
  8
0
  6
CONTINUOUS
 62
     7
100
AcDbLine
 10
70.429427
 20
48.275712
 30
0.0
 11
70.432016
 21
48.275795
 31
0.0
  0
LINE
  5
4EA
330
3C8
100
AcDbEntity
  8
0
  6
CONTINUOUS
 62
     7
100
AcDbLine
 10
70.432016
 20
48.275795
 30
0.0
 11
70.434609
 21
48.275877
 31
0.0
  0
LINE
  5
4EB
330
3C8
100
AcDbEntity
  8
0
  6
CONTINUOUS
 62
     7
100
AcDbLine
 10
70.434609
 20
48.275877
 30
0.0
 11
70.437205
 21
48.275958
 31
0.0
  0
LINE
  5
4EC
330
3C8
100
AcDbEntity
  8
0
  6
CONTINUOUS
 62
     7
100
AcDbLine
 10
70.437205
 20
48.275958
 30
0.0
 11
70.439804
 21
48.276039
 31
0.0
  0
LINE
  5
4ED
330
3C8
100
AcDbEntity
  8
0
  6
CONTINUOUS
 62
     7
100
AcDbLine
 10
70.439804
 20
48.276039
 30
0.0
 11
70.442407
 21
48.27612
 31
0.0
  0
LINE
  5
4EE
330
3C8
100
AcDbEntity
  8
0
  6
CONTINUOUS
 62
     7
100
AcDbLine
 10
70.442407
 20
48.27612
 30
0.0
 11
70.445013
 21
48.276199
 31
0.0
  0
LINE
  5
4EF
330
3C8
100
AcDbEntity
  8
0
  6
CONTINUOUS
 62
     7
100
AcDbLine
 10
70.445013
 20
48.276199
 30
0.0
 11
70.447623
 21
48.276278
 31
0.0
  0
LINE
  5
4F0
330
3C8
100
AcDbEntity
  8
0
  6
CONTINUOUS
 62
     7
100
AcDbLine
 10
70.447623
 20
48.276278
 30
0.0
 11
70.450236
 21
48.276357
 31
0.0
  0
LINE
  5
4F1
330
3C8
100
AcDbEntity
  8
0
  6
CONTINUOUS
 62
     7
100
AcDbLine
 10
70.450236
 20
48.276357
 30
0.0
 11
70.452852
 21
48.276435
 31
0.0
  0
LINE
  5
4F2
330
3C8
100
AcDbEntity
  8
0
  6
CONTINUOUS
 62
     7
100
AcDbLine
 10
70.452852
 20
48.276435
 30
0.0
 11
70.455471
 21
48.276512
 31
0.0
  0
LINE
  5
4F3
330
3C8
100
AcDbEntity
  8
0
  6
CONTINUOUS
 62
     7
100
AcDbLine
 10
70.455471
 20
48.276512
 30
0.0
 11
70.458093
 21
48.276589
 31
0.0
  0
LINE
  5
4F4
330
3C8
100
AcDbEntity
  8
0
  6
CONTINUOUS
 62
     7
100
AcDbLine
 10
70.458093
 20
48.276589
 30
0.0
 11
70.460719
 21
48.276665
 31
0.0
  0
LINE
  5
4F5
330
3C8
100
AcDbEntity
  8
0
  6
CONTINUOUS
 62
     7
100
AcDbLine
 10
70.460719
 20
48.276665
 30
0.0
 11
70.463348
 21
48.27674
 31
0.0
  0
LINE
  5
4F6
330
3C8
100
AcDbEntity
  8
0
  6
CONTINUOUS
 62
     7
100
AcDbLine
 10
70.463348
 20
48.27674
 30
0.0
 11
70.465979
 21
48.276815
 31
0.0
  0
LINE
  5
4F7
330
3C8
100
AcDbEntity
  8
0
  6
CONTINUOUS
 62
     7
100
AcDbLine
 10
70.465979
 20
48.276815
 30
0.0
 11
70.468614
 21
48.276889
 31
0.0
  0
LINE
  5
4F8
330
3C8
100
AcDbEntity
  8
0
  6
CONTINUOUS
 62
     7
100
AcDbLine
 10
70.468614
 20
48.276889
 30
0.0
 11
70.471252
 21
48.276962
 31
0.0
  0
LINE
  5
4F9
330
3C8
100
AcDbEntity
  8
0
  6
CONTINUOUS
 62
     7
100
AcDbLine
 10
70.471252
 20
48.276962
 30
0.0
 11
70.473893
 21
48.277035
 31
0.0
  0
LINE
  5
4FA
330
3C8
100
AcDbEntity
  8
0
  6
CONTINUOUS
 62
     7
100
AcDbLine
 10
70.473893
 20
48.277035
 30
0.0
 11
70.476537
 21
48.277108
 31
0.0
  0
LINE
  5
4FB
330
3C8
100
AcDbEntity
  8
0
  6
CONTINUOUS
 62
     7
100
AcDbLine
 10
70.476537
 20
48.277108
 30
0.0
 11
70.479183
 21
48.277179
 31
0.0
  0
LINE
  5
4FC
330
3C8
100
AcDbEntity
  8
0
  6
CONTINUOUS
 62
     7
100
AcDbLine
 10
70.479183
 20
48.277179
 30
0.0
 11
70.481833
 21
48.27725
 31
0.0
  0
LINE
  5
4FD
330
3C8
100
AcDbEntity
  8
0
  6
CONTINUOUS
 62
     7
100
AcDbLine
 10
70.481833
 20
48.27725
 30
0.0
 11
70.484485
 21
48.277321
 31
0.0
  0
LINE
  5
4FE
330
3C8
100
AcDbEntity
  8
0
  6
CONTINUOUS
 62
     7
100
AcDbLine
 10
70.484485
 20
48.277321
 30
0.0
 11
70.487141
 21
48.27739
 31
0.0
  0
LINE
  5
4FF
330
3C8
100
AcDbEntity
  8
0
  6
CONTINUOUS
 62
     7
100
AcDbLine
 10
70.487141
 20
48.27739
 30
0.0
 11
70.489799
 21
48.277459
 31
0.0
  0
LINE
  5
500
330
3C8
100
AcDbEntity
  8
0
  6
CONTINUOUS
 62
     7
100
AcDbLine
 10
70.489799
 20
48.277459
 30
0.0
 11
70.492459
 21
48.277528
 31
0.0
  0
LINE
  5
501
330
3C8
100
AcDbEntity
  8
0
  6
CONTINUOUS
 62
     7
100
AcDbLine
 10
70.492459
 20
48.277528
 30
0.0
 11
70.495123
 21
48.277596
 31
0.0
  0
LINE
  5
502
330
3C8
100
AcDbEntity
  8
0
  6
CONTINUOUS
 62
     7
100
AcDbLine
 10
70.495123
 20
48.277596
 30
0.0
 11
70.497789
 21
48.277663
 31
0.0
  0
LINE
  5
503
330
3C8
100
AcDbEntity
  8
0
  6
CONTINUOUS
 62
     7
100
AcDbLine
 10
70.497789
 20
48.277663
 30
0.0
 11
70.500458
 21
48.277729
 31
0.0
  0
LINE
  5
504
330
3C8
100
AcDbEntity
  8
0
  6
CONTINUOUS
 62
     7
100
AcDbLine
 10
70.500458
 20
48.277729
 30
0.0
 11
70.503129
 21
48.277795
 31
0.0
  0
LINE
  5
505
330
3C8
100
AcDbEntity
  8
0
  6
CONTINUOUS
 62
     7
100
AcDbLine
 10
70.503129
 20
48.277795
 30
0.0
 11
70.505803
 21
48.27786
 31
0.0
  0
LINE
  5
506
330
3C8
100
AcDbEntity
  8
0
  6
CONTINUOUS
 62
     7
100
AcDbLine
 10
70.505803
 20
48.27786
 30
0.0
 11
70.50848
 21
48.277925
 31
0.0
  0
LINE
  5
507
330
3C8
100
AcDbEntity
  8
0
  6
CONTINUOUS
 62
     7
100
AcDbLine
 10
70.50848
 20
48.277925
 30
0.0
 11
70.511159
 21
48.277989
 31
0.0
  0
LINE
  5
508
330
3C8
100
AcDbEntity
  8
0
  6
CONTINUOUS
 62
     7
100
AcDbLine
 10
70.511159
 20
48.277989
 30
0.0
 11
70.51384
 21
48.278052
 31
0.0
  0
LINE
  5
509
330
3C8
100
AcDbEntity
  8
0
  6
CONTINUOUS
 62
     7
100
AcDbLine
 10
70.51384
 20
48.278052
 30
0.0
 11
70.516524
 21
48.278114
 31
0.0
  0
LINE
  5
50A
330
3C8
100
AcDbEntity
  8
0
  6
CONTINUOUS
 62
     7
100
AcDbLine
 10
70.516524
 20
48.278114
 30
0.0
 11
70.519211
 21
48.278176
 31
0.0
  0
LINE
  5
50B
330
3C8
100
AcDbEntity
  8
0
  6
CONTINUOUS
 62
     7
100
AcDbLine
 10
70.519211
 20
48.278176
 30
0.0
 11
70.521899
 21
48.278237
 31
0.0
  0
LINE
  5
50C
330
3C8
100
AcDbEntity
  8
0
  6
CONTINUOUS
 62
     7
100
AcDbLine
 10
70.521899
 20
48.278237
 30
0.0
 11
70.52459
 21
48.278298
 31
0.0
  0
LINE
  5
50D
330
3C8
100
AcDbEntity
  8
0
  6
CONTINUOUS
 62
     7
100
AcDbLine
 10
70.52459
 20
48.278298
 30
0.0
 11
70.527284
 21
48.278357
 31
0.0
  0
LINE
  5
50E
330
3C8
100
AcDbEntity
  8
0
  6
CONTINUOUS
 62
     7
100
AcDbLine
 10
70.527284
 20
48.278357
 30
0.0
 11
70.529979
 21
48.278417
 31
0.0
  0
LINE
  5
50F
330
3C8
100
AcDbEntity
  8
0
  6
CONTINUOUS
 62
     7
100
AcDbLine
 10
70.529979
 20
48.278417
 30
0.0
 11
70.532677
 21
48.278475
 31
0.0
  0
LINE
  5
510
330
3C8
100
AcDbEntity
  8
0
  6
CONTINUOUS
 62
     7
100
AcDbLine
 10
70.532677
 20
48.278475
 30
0.0
 11
70.535378
 21
48.278533
 31
0.0
  0
LINE
  5
511
330
3C8
100
AcDbEntity
  8
0
  6
CONTINUOUS
 62
     7
100
AcDbLine
 10
70.535378
 20
48.278533
 30
0.0
 11
70.53808
 21
48.27859
 31
0.0
  0
LINE
  5
512
330
3C8
100
AcDbEntity
  8
0
  6
CONTINUOUS
 62
     7
100
AcDbLine
 10
70.53808
 20
48.27859
 30
0.0
 11
70.540784
 21
48.278646
 31
0.0
  0
LINE
  5
513
330
3C8
100
AcDbEntity
  8
0
  6
CONTINUOUS
 62
     7
100
AcDbLine
 10
70.540784
 20
48.278646
 30
0.0
 11
70.543491
 21
48.278702
 31
0.0
  0
LINE
  5
514
330
3C8
100
AcDbEntity
  8
0
  6
CONTINUOUS
 62
     7
100
AcDbLine
 10
70.543491
 20
48.278702
 30
0.0
 11
70.5462
 21
48.278757
 31
0.0
  0
LINE
  5
515
330
3C8
100
AcDbEntity
  8
0
  6
CONTINUOUS
 62
     7
100
AcDbLine
 10
70.5462
 20
48.278757
 30
0.0
 11
70.54891
 21
48.278811
 31
0.0
  0
LINE
  5
516
330
3C8
100
AcDbEntity
  8
0
  6
CONTINUOUS
 62
     7
100
AcDbLine
 10
70.54891
 20
48.278811
 30
0.0
 11
70.551623
 21
48.278864
 31
0.0
  0
LINE
  5
517
330
3C8
100
AcDbEntity
  8
0
  6
CONTINUOUS
 62
     7
100
AcDbLine
 10
70.551623
 20
48.278864
 30
0.0
 11
70.554338
 21
48.278917
 31
0.0
  0
LINE
  5
518
330
3C8
100
AcDbEntity
  8
0
  6
CONTINUOUS
 62
     7
100
AcDbLine
 10
70.554338
 20
48.278917
 30
0.0
 11
70.557054
 21
48.278969
 31
0.0
  0
LINE
  5
519
330
3C8
100
AcDbEntity
  8
0
  6
CONTINUOUS
 62
     7
100
AcDbLine
 10
70.557054
 20
48.278969
 30
0.0
 11
70.559773
 21
48.279021
 31
0.0
  0
LINE
  5
51A
330
3C8
100
AcDbEntity
  8
0
  6
CONTINUOUS
 62
     7
100
AcDbLine
 10
70.559773
 20
48.279021
 30
0.0
 11
70.562493
 21
48.279071
 31
0.0
  0
LINE
  5
51B
330
3C8
100
AcDbEntity
  8
0
  6
CONTINUOUS
 62
     7
100
AcDbLine
 10
70.562493
 20
48.279071
 30
0.0
 11
70.565215
 21
48.279121
 31
0.0
  0
LINE
  5
51C
330
3C8
100
AcDbEntity
  8
0
  6
CONTINUOUS
 62
     7
100
AcDbLine
 10
70.565215
 20
48.279121
 30
0.0
 11
70.567939
 21
48.279171
 31
0.0
  0
LINE
  5
51D
330
3C8
100
AcDbEntity
  8
0
  6
CONTINUOUS
 62
     7
100
AcDbLine
 10
70.567939
 20
48.279171
 30
0.0
 11
70.570665
 21
48.279219
 31
0.0
  0
LINE
  5
51E
330
3C8
100
AcDbEntity
  8
0
  6
CONTINUOUS
 62
     7
100
AcDbLine
 10
70.570665
 20
48.279219
 30
0.0
 11
70.573393
 21
48.279267
 31
0.0
  0
LINE
  5
51F
330
3C8
100
AcDbEntity
  8
0
  6
CONTINUOUS
 62
     7
100
AcDbLine
 10
70.573393
 20
48.279267
 30
0.0
 11
70.576122
 21
48.279314
 31
0.0
  0
LINE
  5
520
330
3C8
100
AcDbEntity
  8
0
  6
CONTINUOUS
 62
     7
100
AcDbLine
 10
70.576122
 20
48.279314
 30
0.0
 11
70.578926
 21
48.279361
 31
0.0
  0
LINE
  5
521
330
3C8
100
AcDbEntity
  8
0
  6
CONTINUOUS
 62
     7
100
AcDbLine
 10
70.578926
 20
48.279361
 30
0.0
 11
70.581732
 21
48.279408
 31
0.0
  0
LINE
  5
522
330
3C8
100
AcDbEntity
  8
0
  6
CONTINUOUS
 62
     7
100
AcDbLine
 10
70.581732
 20
48.279408
 30
0.0
 11
70.58454
 21
48.279454
 31
0.0
  0
LINE
  5
523
330
3C8
100
AcDbEntity
  8
0
  6
CONTINUOUS
 62
     7
100
AcDbLine
 10
70.58454
 20
48.279454
 30
0.0
 11
70.587349
 21
48.279499
 31
0.0
  0
LINE
  5
524
330
3C8
100
AcDbEntity
  8
0
  6
CONTINUOUS
 62
     7
100
AcDbLine
 10
70.587349
 20
48.279499
 30
0.0
 11
70.59016
 21
48.279544
 31
0.0
  0
LINE
  5
525
330
3C8
100
AcDbEntity
  8
0
  6
CONTINUOUS
 62
     7
100
AcDbLine
 10
70.59016
 20
48.279544
 30
0.0
 11
70.592972
 21
48.279588
 31
0.0
  0
LINE
  5
526
330
3C8
100
AcDbEntity
  8
0
  6
CONTINUOUS
 62
     7
100
AcDbLine
 10
70.592972
 20
48.279588
 30
0.0
 11
70.595786
 21
48.279631
 31
0.0
  0
LINE
  5
527
330
3C8
100
AcDbEntity
  8
0
  6
CONTINUOUS
 62
     7
100
AcDbLine
 10
70.595786
 20
48.279631
 30
0.0
 11
70.598602
 21
48.279673
 31
0.0
  0
LINE
  5
528
330
3C8
100
AcDbEntity
  8
0
  6
CONTINUOUS
 62
     7
100
AcDbLine
 10
70.598602
 20
48.279673
 30
0.0
 11
70.601419
 21
48.279714
 31
0.0
  0
LINE
  5
529
330
3C8
100
AcDbEntity
  8
0
  6
CONTINUOUS
 62
     7
100
AcDbLine
 10
70.601419
 20
48.279714
 30
0.0
 11
70.604238
 21
48.279755
 31
0.0
  0
LINE
  5
52A
330
3C8
100
AcDbEntity
  8
0
  6
CONTINUOUS
 62
     7
100
AcDbLine
 10
70.604238
 20
48.279755
 30
0.0
 11
70.607058
 21
48.279795
 31
0.0
  0
LINE
  5
52B
330
3C8
100
AcDbEntity
  8
0
  6
CONTINUOUS
 62
     7
100
AcDbLine
 10
70.607058
 20
48.279795
 30
0.0
 11
70.60988
 21
48.279834
 31
0.0
  0
LINE
  5
52C
330
3C8
100
AcDbEntity
  8
0
  6
CONTINUOUS
 62
     7
100
AcDbLine
 10
70.60988
 20
48.279834
 30
0.0
 11
70.612703
 21
48.279872
 31
0.0
  0
LINE
  5
52D
330
3C8
100
AcDbEntity
  8
0
  6
CONTINUOUS
 62
     7
100
AcDbLine
 10
70.612703
 20
48.279872
 30
0.0
 11
70.615527
 21
48.27991
 31
0.0
  0
LINE
  5
52E
330
3C8
100
AcDbEntity
  8
0
  6
CONTINUOUS
 62
     7
100
AcDbLine
 10
70.615527
 20
48.27991
 30
0.0
 11
70.618353
 21
48.279947
 31
0.0
  0
LINE
  5
52F
330
3C8
100
AcDbEntity
  8
0
  6
CONTINUOUS
 62
     7
100
AcDbLine
 10
70.618353
 20
48.279947
 30
0.0
 11
70.621181
 21
48.279983
 31
0.0
  0
LINE
  5
530
330
3C8
100
AcDbEntity
  8
0
  6
CONTINUOUS
 62
     7
100
AcDbLine
 10
70.621181
 20
48.279983
 30
0.0
 11
70.624009
 21
48.280018
 31
0.0
  0
LINE
  5
531
330
3C8
100
AcDbEntity
  8
0
  6
CONTINUOUS
 62
     7
100
AcDbLine
 10
70.624009
 20
48.280018
 30
0.0
 11
70.626839
 21
48.280052
 31
0.0
  0
LINE
  5
532
330
3C8
100
AcDbEntity
  8
0
  6
CONTINUOUS
 62
     7
100
AcDbLine
 10
70.626839
 20
48.280052
 30
0.0
 11
70.62967
 21
48.280086
 31
0.0
  0
LINE
  5
533
330
3C8
100
AcDbEntity
  8
0
  6
CONTINUOUS
 62
     7
100
AcDbLine
 10
70.62967
 20
48.280086
 30
0.0
 11
70.632503
 21
48.280119
 31
0.0
  0
LINE
  5
534
330
3C8
100
AcDbEntity
  8
0
  6
CONTINUOUS
 62
     7
100
AcDbLine
 10
70.632503
 20
48.280119
 30
0.0
 11
70.635336
 21
48.280152
 31
0.0
  0
LINE
  5
535
330
3C8
100
AcDbEntity
  8
0
  6
CONTINUOUS
 62
     7
100
AcDbLine
 10
70.635336
 20
48.280152
 30
0.0
 11
70.638171
 21
48.280183
 31
0.0
  0
LINE
  5
536
330
3C8
100
AcDbEntity
  8
0
  6
CONTINUOUS
 62
     7
100
AcDbLine
 10
70.638171
 20
48.280183
 30
0.0
 11
70.641007
 21
48.280214
 31
0.0
  0
LINE
  5
537
330
3C8
100
AcDbEntity
  8
0
  6
CONTINUOUS
 62
     7
100
AcDbLine
 10
70.641007
 20
48.280214
 30
0.0
 11
70.643844
 21
48.280244
 31
0.0
  0
LINE
  5
538
330
3C8
100
AcDbEntity
  8
0
  6
CONTINUOUS
 62
     7
100
AcDbLine
 10
70.643844
 20
48.280244
 30
0.0
 11
70.646683
 21
48.280273
 31
0.0
  0
LINE
  5
539
330
3C8
100
AcDbEntity
  8
0
  6
CONTINUOUS
 62
     7
100
AcDbLine
 10
70.646683
 20
48.280273
 30
0.0
 11
70.649522
 21
48.280302
 31
0.0
  0
LINE
  5
53A
330
3C8
100
AcDbEntity
  8
0
  6
CONTINUOUS
 62
     7
100
AcDbLine
 10
70.649522
 20
48.280302
 30
0.0
 11
70.652362
 21
48.280329
 31
0.0
  0
LINE
  5
53B
330
3C8
100
AcDbEntity
  8
0
  6
CONTINUOUS
 62
     7
100
AcDbLine
 10
70.652362
 20
48.280329
 30
0.0
 11
70.655204
 21
48.280356
 31
0.0
  0
LINE
  5
53C
330
3C8
100
AcDbEntity
  8
0
  6
CONTINUOUS
 62
     7
100
AcDbLine
 10
70.655204
 20
48.280356
 30
0.0
 11
70.658046
 21
48.280383
 31
0.0
  0
LINE
  5
53D
330
3C8
100
AcDbEntity
  8
0
  6
CONTINUOUS
 62
     7
100
AcDbLine
 10
70.658046
 20
48.280383
 30
0.0
 11
70.66089
 21
48.280408
 31
0.0
  0
LINE
  5
53E
330
3C8
100
AcDbEntity
  8
0
  6
CONTINUOUS
 62
     7
100
AcDbLine
 10
70.66089
 20
48.280408
 30
0.0
 11
70.663734
 21
48.280433
 31
0.0
  0
LINE
  5
53F
330
3C8
100
AcDbEntity
  8
0
  6
CONTINUOUS
 62
     7
100
AcDbLine
 10
70.663734
 20
48.280433
 30
0.0
 11
70.666579
 21
48.280457
 31
0.0
  0
LINE
  5
540
330
3C8
100
AcDbEntity
  8
0
  6
CONTINUOUS
 62
     7
100
AcDbLine
 10
70.666579
 20
48.280457
 30
0.0
 11
70.669425
 21
48.28048
 31
0.0
  0
LINE
  5
541
330
3C8
100
AcDbEntity
  8
0
  6
CONTINUOUS
 62
     7
100
AcDbLine
 10
70.669425
 20
48.28048
 30
0.0
 11
70.672272
 21
48.280503
 31
0.0
  0
LINE
  5
542
330
3C8
100
AcDbEntity
  8
0
  6
CONTINUOUS
 62
     7
100
AcDbLine
 10
70.672272
 20
48.280503
 30
0.0
 11
70.67512
 21
48.280524
 31
0.0
  0
LINE
  5
543
330
3C8
100
AcDbEntity
  8
0
  6
CONTINUOUS
 62
     7
100
AcDbLine
 10
70.67512
 20
48.280524
 30
0.0
 11
70.677969
 21
48.280545
 31
0.0
  0
LINE
  5
544
330
3C8
100
AcDbEntity
  8
0
  6
CONTINUOUS
 62
     7
100
AcDbLine
 10
70.677969
 20
48.280545
 30
0.0
 11
70.680818
 21
48.280565
 31
0.0
  0
LINE
  5
545
330
3C8
100
AcDbEntity
  8
0
  6
CONTINUOUS
 62
     7
100
AcDbLine
 10
70.680818
 20
48.280565
 30
0.0
 11
70.683668
 21
48.280585
 31
0.0
  0
LINE
  5
546
330
3C8
100
AcDbEntity
  8
0
  6
CONTINUOUS
 62
     7
100
AcDbLine
 10
70.683668
 20
48.280585
 30
0.0
 11
70.686519
 21
48.280604
 31
0.0
  0
LINE
  5
547
330
3C8
100
AcDbEntity
  8
0
  6
CONTINUOUS
 62
     7
100
AcDbLine
 10
70.686519
 20
48.280604
 30
0.0
 11
70.689371
 21
48.280622
 31
0.0
  0
LINE
  5
548
330
3C8
100
AcDbEntity
  8
0
  6
CONTINUOUS
 62
     7
100
AcDbLine
 10
70.689371
 20
48.280622
 30
0.0
 11
70.692223
 21
48.280639
 31
0.0
  0
LINE
  5
549
330
3C8
100
AcDbEntity
  8
0
  6
CONTINUOUS
 62
     7
100
AcDbLine
 10
70.692223
 20
48.280639
 30
0.0
 11
70.695076
 21
48.280656
 31
0.0
  0
LINE
  5
54A
330
3C8
100
AcDbEntity
  8
0
  6
CONTINUOUS
 62
     7
100
AcDbLine
 10
70.695076
 20
48.280656
 30
0.0
 11
70.69793
 21
48.280671
 31
0.0
  0
LINE
  5
54B
330
3C8
100
AcDbEntity
  8
0
  6
CONTINUOUS
 62
     7
100
AcDbLine
 10
70.69793
 20
48.280671
 30
0.0
 11
70.700784
 21
48.280686
 31
0.0
  0
LINE
  5
54C
330
3C8
100
AcDbEntity
  8
0
  6
CONTINUOUS
 62
     7
100
AcDbLine
 10
70.700784
 20
48.280686
 30
0.0
 11
70.703639
 21
48.280701
 31
0.0
  0
LINE
  5
54D
330
3C8
100
AcDbEntity
  8
0
  6
CONTINUOUS
 62
     7
100
AcDbLine
 10
70.703639
 20
48.280701
 30
0.0
 11
70.706494
 21
48.280714
 31
0.0
  0
LINE
  5
54E
330
3C8
100
AcDbEntity
  8
0
  6
CONTINUOUS
 62
     7
100
AcDbLine
 10
70.706494
 20
48.280714
 30
0.0
 11
70.709349
 21
48.280727
 31
0.0
  0
LINE
  5
54F
330
3C8
100
AcDbEntity
  8
0
  6
CONTINUOUS
 62
     7
100
AcDbLine
 10
70.709349
 20
48.280727
 30
0.0
 11
70.712206
 21
48.280739
 31
0.0
  0
LINE
  5
550
330
3C8
100
AcDbEntity
  8
0
  6
CONTINUOUS
 62
     7
100
AcDbLine
 10
70.712206
 20
48.280739
 30
0.0
 11
70.715062
 21
48.280751
 31
0.0
  0
LINE
  5
551
330
3C8
100
AcDbEntity
  8
0
  6
CONTINUOUS
 62
     7
100
AcDbLine
 10
70.715062
 20
48.280751
 30
0.0
 11
70.717919
 21
48.280761
 31
0.0
  0
LINE
  5
552
330
3C8
100
AcDbEntity
  8
0
  6
CONTINUOUS
 62
     7
100
AcDbLine
 10
70.717919
 20
48.280761
 30
0.0
 11
70.720777
 21
48.280771
 31
0.0
  0
LINE
  5
553
330
3C8
100
AcDbEntity
  8
0
  6
CONTINUOUS
 62
     7
100
AcDbLine
 10
70.720777
 20
48.280771
 30
0.0
 11
70.723635
 21
48.28078
 31
0.0
  0
LINE
  5
554
330
3C8
100
AcDbEntity
  8
0
  6
CONTINUOUS
 62
     7
100
AcDbLine
 10
70.723635
 20
48.28078
 30
0.0
 11
70.726493
 21
48.280789
 31
0.0
  0
LINE
  5
555
330
3C8
100
AcDbEntity
  8
0
  6
CONTINUOUS
 62
     7
100
AcDbLine
 10
70.726493
 20
48.280789
 30
0.0
 11
70.729351
 21
48.280796
 31
0.0
  0
LINE
  5
556
330
3C8
100
AcDbEntity
  8
0
  6
CONTINUOUS
 62
     7
100
AcDbLine
 10
70.729351
 20
48.280796
 30
0.0
 11
70.73221
 21
48.280803
 31
0.0
  0
LINE
  5
557
330
3C8
100
AcDbEntity
  8
0
  6
CONTINUOUS
 62
     7
100
AcDbLine
 10
70.73221
 20
48.280803
 30
0.0
 11
70.735069
 21
48.280809
 31
0.0
  0
LINE
  5
558
330
3C8
100
AcDbEntity
  8
0
  6
CONTINUOUS
 62
     7
100
AcDbLine
 10
70.735069
 20
48.280809
 30
0.0
 11
70.737929
 21
48.280815
 31
0.0
  0
LINE
  5
559
330
3C8
100
AcDbEntity
  8
0
  6
CONTINUOUS
 62
     7
100
AcDbLine
 10
70.737929
 20
48.280815
 30
0.0
 11
70.740788
 21
48.28082
 31
0.0
  0
LINE
  5
55A
330
3C8
100
AcDbEntity
  8
0
  6
CONTINUOUS
 62
     7
100
AcDbLine
 10
70.740788
 20
48.28082
 30
0.0
 11
70.743648
 21
48.280824
 31
0.0
  0
LINE
  5
55B
330
3C8
100
AcDbEntity
  8
0
  6
CONTINUOUS
 62
     7
100
AcDbLine
 10
70.743648
 20
48.280824
 30
0.0
 11
70.746508
 21
48.280827
 31
0.0
  0
LINE
  5
55C
330
3C8
100
AcDbEntity
  8
0
  6
CONTINUOUS
 62
     7
100
AcDbLine
 10
70.746508
 20
48.280827
 30
0.0
 11
70.749367
 21
48.28083
 31
0.0
  0
LINE
  5
55D
330
3C8
100
AcDbEntity
  8
0
  6
CONTINUOUS
 62
     7
100
AcDbLine
 10
70.749367
 20
48.28083
 30
0.0
 11
70.752228
 21
48.280831
 31
0.0
  0
LINE
  5
55E
330
3C8
100
AcDbEntity
  8
0
  6
CONTINUOUS
 62
     7
100
AcDbLine
 10
70.752228
 20
48.280831
 30
0.0
 11
70.755088
 21
48.280832
 31
0.0
  0
LINE
  5
55F
330
3C8
100
AcDbEntity
  8
0
  6
CONTINUOUS
 62
     7
100
AcDbLine
 10
70.755088
 20
48.280832
 30
0.0
 11
70.757948
 21
48.280833
 31
0.0
  0
LINE
  5
560
330
3C8
100
AcDbEntity
  8
0
  6
CONTINUOUS
 62
     7
100
AcDbLine
 10
70.757948
 20
48.280833
 30
0.0
 11
70.7608
 21
48.280832
 31
0.0
  0
LINE
  5
561
330
3C8
100
AcDbEntity
  8
0
  6
CONTINUOUS
 62
     7
100
AcDbLine
 10
70.7608
 20
48.280832
 30
0.0
 11
70.763652
 21
48.280831
 31
0.0
  0
LINE
  5
562
330
3C8
100
AcDbEntity
  8
0
  6
CONTINUOUS
 62
     7
100
AcDbLine
 10
70.763652
 20
48.280831
 30
0.0
 11
70.766504
 21
48.28083
 31
0.0
  0
LINE
  5
563
330
3C8
100
AcDbEntity
  8
0
  6
CONTINUOUS
 62
     7
100
AcDbLine
 10
70.766504
 20
48.28083
 30
0.0
 11
70.769356
 21
48.280827
 31
0.0
  0
LINE
  5
564
330
3C8
100
AcDbEntity
  8
0
  6
CONTINUOUS
 62
     7
100
AcDbLine
 10
70.769356
 20
48.280827
 30
0.0
 11
70.772208
 21
48.280824
 31
0.0
  0
LINE
  5
565
330
3C8
100
AcDbEntity
  8
0
  6
CONTINUOUS
 62
     7
100
AcDbLine
 10
70.772208
 20
48.280824
 30
0.0
 11
70.77506
 21
48.28082
 31
0.0
  0
LINE
  5
566
330
3C8
100
AcDbEntity
  8
0
  6
CONTINUOUS
 62
     7
100
AcDbLine
 10
70.77506
 20
48.28082
 30
0.0
 11
70.777912
 21
48.280815
 31
0.0
  0
LINE
  5
567
330
3C8
100
AcDbEntity
  8
0
  6
CONTINUOUS
 62
     7
100
AcDbLine
 10
70.777912
 20
48.280815
 30
0.0
 11
70.780764
 21
48.28081
 31
0.0
  0
LINE
  5
568
330
3C8
100
AcDbEntity
  8
0
  6
CONTINUOUS
 62
     7
100
AcDbLine
 10
70.780764
 20
48.28081
 30
0.0
 11
70.783615
 21
48.280804
 31
0.0
  0
LINE
  5
569
330
3C8
100
AcDbEntity
  8
0
  6
CONTINUOUS
 62
     7
100
AcDbLine
 10
70.783615
 20
48.280804
 30
0.0
 11
70.786466
 21
48.280797
 31
0.0
  0
LINE
  5
56A
330
3C8
100
AcDbEntity
  8
0
  6
CONTINUOUS
 62
     7
100
AcDbLine
 10
70.786466
 20
48.280797
 30
0.0
 11
70.789317
 21
48.280789
 31
0.0
  0
LINE
  5
56B
330
3C8
100
AcDbEntity
  8
0
  6
CONTINUOUS
 62
     7
100
AcDbLine
 10
70.789317
 20
48.280789
 30
0.0
 11
70.792167
 21
48.280781
 31
0.0
  0
LINE
  5
56C
330
3C8
100
AcDbEntity
  8
0
  6
CONTINUOUS
 62
     7
100
AcDbLine
 10
70.792167
 20
48.280781
 30
0.0
 11
70.795017
 21
48.280772
 31
0.0
  0
LINE
  5
56D
330
3C8
100
AcDbEntity
  8
0
  6
CONTINUOUS
 62
     7
100
AcDbLine
 10
70.795017
 20
48.280772
 30
0.0
 11
70.797867
 21
48.280762
 31
0.0
  0
LINE
  5
56E
330
3C8
100
AcDbEntity
  8
0
  6
CONTINUOUS
 62
     7
100
AcDbLine
 10
70.797867
 20
48.280762
 30
0.0
 11
70.800717
 21
48.280751
 31
0.0
  0
LINE
  5
56F
330
3C8
100
AcDbEntity
  8
0
  6
CONTINUOUS
 62
     7
100
AcDbLine
 10
70.800717
 20
48.280751
 30
0.0
 11
70.803566
 21
48.28074
 31
0.0
  0
LINE
  5
570
330
3C8
100
AcDbEntity
  8
0
  6
CONTINUOUS
 62
     7
100
AcDbLine
 10
70.803566
 20
48.28074
 30
0.0
 11
70.806414
 21
48.280728
 31
0.0
  0
LINE
  5
571
330
3C8
100
AcDbEntity
  8
0
  6
CONTINUOUS
 62
     7
100
AcDbLine
 10
70.806414
 20
48.280728
 30
0.0
 11
70.809262
 21
48.280715
 31
0.0
  0
LINE
  5
572
330
3C8
100
AcDbEntity
  8
0
  6
CONTINUOUS
 62
     7
100
AcDbLine
 10
70.809262
 20
48.280715
 30
0.0
 11
70.81211
 21
48.280702
 31
0.0
  0
LINE
  5
573
330
3C8
100
AcDbEntity
  8
0
  6
CONTINUOUS
 62
     7
100
AcDbLine
 10
70.81211
 20
48.280702
 30
0.0
 11
70.814957
 21
48.280688
 31
0.0
  0
LINE
  5
574
330
3C8
100
AcDbEntity
  8
0
  6
CONTINUOUS
 62
     7
100
AcDbLine
 10
70.814957
 20
48.280688
 30
0.0
 11
70.817803
 21
48.280673
 31
0.0
  0
LINE
  5
575
330
3C8
100
AcDbEntity
  8
0
  6
CONTINUOUS
 62
     7
100
AcDbLine
 10
70.817803
 20
48.280673
 30
0.0
 11
70.820649
 21
48.280657
 31
0.0
  0
LINE
  5
576
330
3C8
100
AcDbEntity
  8
0
  6
CONTINUOUS
 62
     7
100
AcDbLine
 10
70.820649
 20
48.280657
 30
0.0
 11
70.823495
 21
48.280641
 31
0.0
  0
LINE
  5
577
330
3C8
100
AcDbEntity
  8
0
  6
CONTINUOUS
 62
     7
100
AcDbLine
 10
70.823495
 20
48.280641
 30
0.0
 11
70.826339
 21
48.280623
 31
0.0
  0
LINE
  5
578
330
3C8
100
AcDbEntity
  8
0
  6
CONTINUOUS
 62
     7
100
AcDbLine
 10
70.826339
 20
48.280623
 30
0.0
 11
70.829183
 21
48.280605
 31
0.0
  0
LINE
  5
579
330
3C8
100
AcDbEntity
  8
0
  6
CONTINUOUS
 62
     7
100
AcDbLine
 10
70.829183
 20
48.280605
 30
0.0
 11
70.832026
 21
48.280587
 31
0.0
  0
LINE
  5
57A
330
3C8
100
AcDbEntity
  8
0
  6
CONTINUOUS
 62
     7
100
AcDbLine
 10
70.832026
 20
48.280587
 30
0.0
 11
70.834869
 21
48.280567
 31
0.0
  0
LINE
  5
57B
330
3C8
100
AcDbEntity
  8
0
  6
CONTINUOUS
 62
     7
100
AcDbLine
 10
70.834869
 20
48.280567
 30
0.0
 11
70.837711
 21
48.280547
 31
0.0
  0
LINE
  5
57C
330
3C8
100
AcDbEntity
  8
0
  6
CONTINUOUS
 62
     7
100
AcDbLine
 10
70.837711
 20
48.280547
 30
0.0
 11
70.840552
 21
48.280526
 31
0.0
  0
LINE
  5
57D
330
3C8
100
AcDbEntity
  8
0
  6
CONTINUOUS
 62
     7
100
AcDbLine
 10
70.840552
 20
48.280526
 30
0.0
 11
70.843392
 21
48.280505
 31
0.0
  0
LINE
  5
57E
330
3C8
100
AcDbEntity
  8
0
  6
CONTINUOUS
 62
     7
100
AcDbLine
 10
70.843392
 20
48.280505
 30
0.0
 11
70.846231
 21
48.280482
 31
0.0
  0
LINE
  5
57F
330
3C8
100
AcDbEntity
  8
0
  6
CONTINUOUS
 62
     7
100
AcDbLine
 10
70.846231
 20
48.280482
 30
0.0
 11
70.84907
 21
48.280459
 31
0.0
  0
LINE
  5
580
330
3C8
100
AcDbEntity
  8
0
  6
CONTINUOUS
 62
     7
100
AcDbLine
 10
70.84907
 20
48.280459
 30
0.0
 11
70.851908
 21
48.280435
 31
0.0
  0
LINE
  5
581
330
3C8
100
AcDbEntity
  8
0
  6
CONTINUOUS
 62
     7
100
AcDbLine
 10
70.851908
 20
48.280435
 30
0.0
 11
70.854744
 21
48.280411
 31
0.0
  0
LINE
  5
582
330
3C8
100
AcDbEntity
  8
0
  6
CONTINUOUS
 62
     7
100
AcDbLine
 10
70.854744
 20
48.280411
 30
0.0
 11
70.85758
 21
48.280385
 31
0.0
  0
LINE
  5
583
330
3C8
100
AcDbEntity
  8
0
  6
CONTINUOUS
 62
     7
100
AcDbLine
 10
70.85758
 20
48.280385
 30
0.0
 11
70.860415
 21
48.280359
 31
0.0
  0
LINE
  5
584
330
3C8
100
AcDbEntity
  8
0
  6
CONTINUOUS
 62
     7
100
AcDbLine
 10
70.860415
 20
48.280359
 30
0.0
 11
70.863248
 21
48.280332
 31
0.0
  0
LINE
  5
585
330
3C8
100
AcDbEntity
  8
0
  6
CONTINUOUS
 62
     7
100
AcDbLine
 10
70.863248
 20
48.280332
 30
0.0
 11
70.866081
 21
48.280305
 31
0.0
  0
LINE
  5
586
330
3C8
100
AcDbEntity
  8
0
  6
CONTINUOUS
 62
     7
100
AcDbLine
 10
70.866081
 20
48.280305
 30
0.0
 11
70.868913
 21
48.280276
 31
0.0
  0
LINE
  5
587
330
3C8
100
AcDbEntity
  8
0
  6
CONTINUOUS
 62
     7
100
AcDbLine
 10
70.868913
 20
48.280276
 30
0.0
 11
70.871743
 21
48.280247
 31
0.0
  0
LINE
  5
588
330
3C8
100
AcDbEntity
  8
0
  6
CONTINUOUS
 62
     7
100
AcDbLine
 10
70.871743
 20
48.280247
 30
0.0
 11
70.874573
 21
48.280217
 31
0.0
  0
LINE
  5
589
330
3C8
100
AcDbEntity
  8
0
  6
CONTINUOUS
 62
     7
100
AcDbLine
 10
70.874573
 20
48.280217
 30
0.0
 11
70.877401
 21
48.280187
 31
0.0
  0
LINE
  5
58A
330
3C8
100
AcDbEntity
  8
0
  6
CONTINUOUS
 62
     7
100
AcDbLine
 10
70.877401
 20
48.280187
 30
0.0
 11
70.880228
 21
48.280155
 31
0.0
  0
LINE
  5
58B
330
3C8
100
AcDbEntity
  8
0
  6
CONTINUOUS
 62
     7
100
AcDbLine
 10
70.880228
 20
48.280155
 30
0.0
 11
70.883054
 21
48.280123
 31
0.0
  0
LINE
  5
58C
330
3C8
100
AcDbEntity
  8
0
  6
CONTINUOUS
 62
     7
100
AcDbLine
 10
70.883054
 20
48.280123
 30
0.0
 11
70.885878
 21
48.28009
 31
0.0
  0
LINE
  5
58D
330
3C8
100
AcDbEntity
  8
0
  6
CONTINUOUS
 62
     7
100
AcDbLine
 10
70.885878
 20
48.28009
 30
0.0
 11
70.888702
 21
48.280057
 31
0.0
  0
LINE
  5
58E
330
3C8
100
AcDbEntity
  8
0
  6
CONTINUOUS
 62
     7
100
AcDbLine
 10
70.888702
 20
48.280057
 30
0.0
 11
70.891524
 21
48.280022
 31
0.0
  0
LINE
  5
58F
330
3C8
100
AcDbEntity
  8
0
  6
CONTINUOUS
 62
     7
100
AcDbLine
 10
70.891524
 20
48.280022
 30
0.0
 11
70.894344
 21
48.279987
 31
0.0
  0
LINE
  5
590
330
3C8
100
AcDbEntity
  8
0
  6
CONTINUOUS
 62
     7
100
AcDbLine
 10
70.894344
 20
48.279987
 30
0.0
 11
70.897164
 21
48.279951
 31
0.0
  0
LINE
  5
591
330
3C8
100
AcDbEntity
  8
0
  6
CONTINUOUS
 62
     7
100
AcDbLine
 10
70.897164
 20
48.279951
 30
0.0
 11
70.899982
 21
48.279914
 31
0.0
  0
LINE
  5
592
330
3C8
100
AcDbEntity
  8
0
  6
CONTINUOUS
 62
     7
100
AcDbLine
 10
70.899982
 20
48.279914
 30
0.0
 11
70.902798
 21
48.279877
 31
0.0
  0
LINE
  5
593
330
3C8
100
AcDbEntity
  8
0
  6
CONTINUOUS
 62
     7
100
AcDbLine
 10
70.902798
 20
48.279877
 30
0.0
 11
70.905613
 21
48.279839
 31
0.0
  0
LINE
  5
594
330
3C8
100
AcDbEntity
  8
0
  6
CONTINUOUS
 62
     7
100
AcDbLine
 10
70.905613
 20
48.279839
 30
0.0
 11
70.908427
 21
48.2798
 31
0.0
  0
LINE
  5
595
330
3C8
100
AcDbEntity
  8
0
  6
CONTINUOUS
 62
     7
100
AcDbLine
 10
70.908427
 20
48.2798
 30
0.0
 11
70.911239
 21
48.27976
 31
0.0
  0
LINE
  5
596
330
3C8
100
AcDbEntity
  8
0
  6
CONTINUOUS
 62
     7
100
AcDbLine
 10
70.911239
 20
48.27976
 30
0.0
 11
70.91405
 21
48.27972
 31
0.0
  0
LINE
  5
597
330
3C8
100
AcDbEntity
  8
0
  6
CONTINUOUS
 62
     7
100
AcDbLine
 10
70.91405
 20
48.27972
 30
0.0
 11
70.916859
 21
48.279678
 31
0.0
  0
LINE
  5
598
330
3C8
100
AcDbEntity
  8
0
  6
CONTINUOUS
 62
     7
100
AcDbLine
 10
70.916859
 20
48.279678
 30
0.0
 11
70.919666
 21
48.279636
 31
0.0
  0
LINE
  5
599
330
3C8
100
AcDbEntity
  8
0
  6
CONTINUOUS
 62
     7
100
AcDbLine
 10
70.919666
 20
48.279636
 30
0.0
 11
70.922472
 21
48.279593
 31
0.0
  0
LINE
  5
59A
330
3C8
100
AcDbEntity
  8
0
  6
CONTINUOUS
 62
     7
100
AcDbLine
 10
70.922472
 20
48.279593
 30
0.0
 11
70.925276
 21
48.27955
 31
0.0
  0
LINE
  5
59B
330
3C8
100
AcDbEntity
  8
0
  6
CONTINUOUS
 62
     7
100
AcDbLine
 10
70.925276
 20
48.27955
 30
0.0
 11
70.928079
 21
48.279505
 31
0.0
  0
LINE
  5
59C
330
3C8
100
AcDbEntity
  8
0
  6
CONTINUOUS
 62
     7
100
AcDbLine
 10
70.928079
 20
48.279505
 30
0.0
 11
70.93088
 21
48.27946
 31
0.0
  0
LINE
  5
59D
330
3C8
100
AcDbEntity
  8
0
  6
CONTINUOUS
 62
     7
100
AcDbLine
 10
70.93088
 20
48.27946
 30
0.0
 11
70.933679
 21
48.279414
 31
0.0
  0
LINE
  5
59E
330
3C8
100
AcDbEntity
  8
0
  6
CONTINUOUS
 62
     7
100
AcDbLine
 10
70.933679
 20
48.279414
 30
0.0
 11
70.936476
 21
48.279368
 31
0.0
  0
LINE
  5
59F
330
3C8
100
AcDbEntity
  8
0
  6
CONTINUOUS
 62
     7
100
AcDbLine
 10
70.936476
 20
48.279368
 30
0.0
 11
70.939272
 21
48.27932
 31
0.0
  0
LINE
  5
5A0
330
3C8
100
AcDbEntity
  8
0
  6
CONTINUOUS
 62
     7
100
AcDbLine
 10
70.939272
 20
48.27932
 30
0.0
 11
70.941996
 21
48.279273
 31
0.0
  0
LINE
  5
5A1
330
3C8
100
AcDbEntity
  8
0
  6
CONTINUOUS
 62
     7
100
AcDbLine
 10
70.941996
 20
48.279273
 30
0.0
 11
70.944719
 21
48.279226
 31
0.0
  0
LINE
  5
5A2
330
3C8
100
AcDbEntity
  8
0
  6
CONTINUOUS
 62
     7
100
AcDbLine
 10
70.944719
 20
48.279226
 30
0.0
 11
70.94744
 21
48.279177
 31
0.0
  0
LINE
  5
5A3
330
3C8
100
AcDbEntity
  8
0
  6
CONTINUOUS
 62
     7
100
AcDbLine
 10
70.94744
 20
48.279177
 30
0.0
 11
70.950159
 21
48.279128
 31
0.0
  0
LINE
  5
5A4
330
3C8
100
AcDbEntity
  8
0
  6
CONTINUOUS
 62
     7
100
AcDbLine
 10
70.950159
 20
48.279128
 30
0.0
 11
70.952876
 21
48.279078
 31
0.0
  0
LINE
  5
5A5
330
3C8
100
AcDbEntity
  8
0
  6
CONTINUOUS
 62
     7
100
AcDbLine
 10
70.952876
 20
48.279078
 30
0.0
 11
70.955591
 21
48.279028
 31
0.0
  0
LINE
  5
5A6
330
3C8
100
AcDbEntity
  8
0
  6
CONTINUOUS
 62
     7
100
AcDbLine
 10
70.955591
 20
48.279028
 30
0.0
 11
70.958304
 21
48.278976
 31
0.0
  0
LINE
  5
5A7
330
3C8
100
AcDbEntity
  8
0
  6
CONTINUOUS
 62
     7
100
AcDbLine
 10
70.958304
 20
48.278976
 30
0.0
 11
70.961016
 21
48.278924
 31
0.0
  0
LINE
  5
5A8
330
3C8
100
AcDbEntity
  8
0
  6
CONTINUOUS
 62
     7
100
AcDbLine
 10
70.961016
 20
48.278924
 30
0.0
 11
70.963725
 21
48.278871
 31
0.0
  0
LINE
  5
5A9
330
3C8
100
AcDbEntity
  8
0
  6
CONTINUOUS
 62
     7
100
AcDbLine
 10
70.963725
 20
48.278871
 30
0.0
 11
70.966433
 21
48.278818
 31
0.0
  0
LINE
  5
5AA
330
3C8
100
AcDbEntity
  8
0
  6
CONTINUOUS
 62
     7
100
AcDbLine
 10
70.966433
 20
48.278818
 30
0.0
 11
70.969138
 21
48.278764
 31
0.0
  0
LINE
  5
5AB
330
3C8
100
AcDbEntity
  8
0
  6
CONTINUOUS
 62
     7
100
AcDbLine
 10
70.969138
 20
48.278764
 30
0.0
 11
70.971842
 21
48.278709
 31
0.0
  0
LINE
  5
5AC
330
3C8
100
AcDbEntity
  8
0
  6
CONTINUOUS
 62
     7
100
AcDbLine
 10
70.971842
 20
48.278709
 30
0.0
 11
70.974543
 21
48.278653
 31
0.0
  0
LINE
  5
5AD
330
3C8
100
AcDbEntity
  8
0
  6
CONTINUOUS
 62
     7
100
AcDbLine
 10
70.974543
 20
48.278653
 30
0.0
 11
70.977242
 21
48.278597
 31
0.0
  0
LINE
  5
5AE
330
3C8
100
AcDbEntity
  8
0
  6
CONTINUOUS
 62
     7
100
AcDbLine
 10
70.977242
 20
48.278597
 30
0.0
 11
70.979939
 21
48.27854
 31
0.0
  0
LINE
  5
5AF
330
3C8
100
AcDbEntity
  8
0
  6
CONTINUOUS
 62
     7
100
AcDbLine
 10
70.979939
 20
48.27854
 30
0.0
 11
70.982634
 21
48.278482
 31
0.0
  0
LINE
  5
5B0
330
3C8
100
AcDbEntity
  8
0
  6
CONTINUOUS
 62
     7
100
AcDbLine
 10
70.982634
 20
48.278482
 30
0.0
 11
70.985326
 21
48.278424
 31
0.0
  0
LINE
  5
5B1
330
3C8
100
AcDbEntity
  8
0
  6
CONTINUOUS
 62
     7
100
AcDbLine
 10
70.985326
 20
48.278424
 30
0.0
 11
70.988017
 21
48.278365
 31
0.0
  0
LINE
  5
5B2
330
3C8
100
AcDbEntity
  8
0
  6
CONTINUOUS
 62
     7
100
AcDbLine
 10
70.988017
 20
48.278365
 30
0.0
 11
70.990705
 21
48.278305
 31
0.0
  0
LINE
  5
5B3
330
3C8
100
AcDbEntity
  8
0
  6
CONTINUOUS
 62
     7
100
AcDbLine
 10
70.990705
 20
48.278305
 30
0.0
 11
70.99339
 21
48.278244
 31
0.0
  0
LINE
  5
5B4
330
3C8
100
AcDbEntity
  8
0
  6
CONTINUOUS
 62
     7
100
AcDbLine
 10
70.99339
 20
48.278244
 30
0.0
 11
70.996074
 21
48.278183
 31
0.0
  0
LINE
  5
5B5
330
3C8
100
AcDbEntity
  8
0
  6
CONTINUOUS
 62
     7
100
AcDbLine
 10
70.996074
 20
48.278183
 30
0.0
 11
70.998755
 21
48.278121
 31
0.0
  0
LINE
  5
5B6
330
3C8
100
AcDbEntity
  8
0
  6
CONTINUOUS
 62
     7
100
AcDbLine
 10
70.998755
 20
48.278121
 30
0.0
 11
71.001433
 21
48.278059
 31
0.0
  0
LINE
  5
5B7
330
3C8
100
AcDbEntity
  8
0
  6
CONTINUOUS
 62
     7
100
AcDbLine
 10
71.001433
 20
48.278059
 30
0.0
 11
71.004109
 21
48.277996
 31
0.0
  0
LINE
  5
5B8
330
3C8
100
AcDbEntity
  8
0
  6
CONTINUOUS
 62
     7
100
AcDbLine
 10
71.004109
 20
48.277996
 30
0.0
 11
71.006783
 21
48.277932
 31
0.0
  0
LINE
  5
5B9
330
3C8
100
AcDbEntity
  8
0
  6
CONTINUOUS
 62
     7
100
AcDbLine
 10
71.006783
 20
48.277932
 30
0.0
 11
71.009454
 21
48.277867
 31
0.0
  0
LINE
  5
5BA
330
3C8
100
AcDbEntity
  8
0
  6
CONTINUOUS
 62
     7
100
AcDbLine
 10
71.009454
 20
48.277867
 30
0.0
 11
71.012123
 21
48.277802
 31
0.0
  0
LINE
  5
5BB
330
3C8
100
AcDbEntity
  8
0
  6
CONTINUOUS
 62
     7
100
AcDbLine
 10
71.012123
 20
48.277802
 30
0.0
 11
71.014789
 21
48.277736
 31
0.0
  0
LINE
  5
5BC
330
3C8
100
AcDbEntity
  8
0
  6
CONTINUOUS
 62
     7
100
AcDbLine
 10
71.014789
 20
48.277736
 30
0.0
 11
71.017452
 21
48.27767
 31
0.0
  0
LINE
  5
5BD
330
3C8
100
AcDbEntity
  8
0
  6
CONTINUOUS
 62
     7
100
AcDbLine
 10
71.017452
 20
48.27767
 30
0.0
 11
71.020113
 21
48.277603
 31
0.0
  0
LINE
  5
5BE
330
3C8
100
AcDbEntity
  8
0
  6
CONTINUOUS
 62
     7
100
AcDbLine
 10
71.020113
 20
48.277603
 30
0.0
 11
71.022772
 21
48.277535
 31
0.0
  0
LINE
  5
5BF
330
3C8
100
AcDbEntity
  8
0
  6
CONTINUOUS
 62
     7
100
AcDbLine
 10
71.022772
 20
48.277535
 30
0.0
 11
71.025427
 21
48.277466
 31
0.0
  0
LINE
  5
5C0
330
3C8
100
AcDbEntity
  8
0
  6
CONTINUOUS
 62
     7
100
AcDbLine
 10
71.025427
 20
48.277466
 30
0.0
 11
71.02808
 21
48.277397
 31
0.0
  0
LINE
  5
5C1
330
3C8
100
AcDbEntity
  8
0
  6
CONTINUOUS
 62
     7
100
AcDbLine
 10
71.02808
 20
48.277397
 30
0.0
 11
71.03073
 21
48.277327
 31
0.0
  0
LINE
  5
5C2
330
3C8
100
AcDbEntity
  8
0
  6
CONTINUOUS
 62
     7
100
AcDbLine
 10
71.03073
 20
48.277327
 30
0.0
 11
71.033377
 21
48.277257
 31
0.0
  0
LINE
  5
5C3
330
3C8
100
AcDbEntity
  8
0
  6
CONTINUOUS
 62
     7
100
AcDbLine
 10
71.033377
 20
48.277257
 30
0.0
 11
71.036022
 21
48.277186
 31
0.0
  0
LINE
  5
5C4
330
3C8
100
AcDbEntity
  8
0
  6
CONTINUOUS
 62
     7
100
AcDbLine
 10
71.036022
 20
48.277186
 30
0.0
 11
71.038663
 21
48.277114
 31
0.0
  0
LINE
  5
5C5
330
3C8
100
AcDbEntity
  8
0
  6
CONTINUOUS
 62
     7
100
AcDbLine
 10
71.038663
 20
48.277114
 30
0.0
 11
71.041302
 21
48.277042
 31
0.0
  0
LINE
  5
5C6
330
3C8
100
AcDbEntity
  8
0
  6
CONTINUOUS
 62
     7
100
AcDbLine
 10
71.041302
 20
48.277042
 30
0.0
 11
71.043938
 21
48.276969
 31
0.0
  0
LINE
  5
5C7
330
3C8
100
AcDbEntity
  8
0
  6
CONTINUOUS
 62
     7
100
AcDbLine
 10
71.043938
 20
48.276969
 30
0.0
 11
71.046571
 21
48.276895
 31
0.0
  0
LINE
  5
5C8
330
3C8
100
AcDbEntity
  8
0
  6
CONTINUOUS
 62
     7
100
AcDbLine
 10
71.046571
 20
48.276895
 30
0.0
 11
71.049201
 21
48.276821
 31
0.0
  0
LINE
  5
5C9
330
3C8
100
AcDbEntity
  8
0
  6
CONTINUOUS
 62
     7
100
AcDbLine
 10
71.049201
 20
48.276821
 30
0.0
 11
71.051828
 21
48.276746
 31
0.0
  0
LINE
  5
5CA
330
3C8
100
AcDbEntity
  8
0
  6
CONTINUOUS
 62
     7
100
AcDbLine
 10
71.051828
 20
48.276746
 30
0.0
 11
71.054452
 21
48.27667
 31
0.0
  0
LINE
  5
5CB
330
3C8
100
AcDbEntity
  8
0
  6
CONTINUOUS
 62
     7
100
AcDbLine
 10
71.054452
 20
48.27667
 30
0.0
 11
71.057073
 21
48.276594
 31
0.0
  0
LINE
  5
5CC
330
3C8
100
AcDbEntity
  8
0
  6
CONTINUOUS
 62
     7
100
AcDbLine
 10
71.057073
 20
48.276594
 30
0.0
 11
71.05969
 21
48.276518
 31
0.0
  0
LINE
  5
5CD
330
3C8
100
AcDbEntity
  8
0
  6
CONTINUOUS
 62
     7
100
AcDbLine
 10
71.05969
 20
48.276518
 30
0.0
 11
71.062305
 21
48.27644
 31
0.0
  0
LINE
  5
5CE
330
3C8
100
AcDbEntity
  8
0
  6
CONTINUOUS
 62
     7
100
AcDbLine
 10
71.062305
 20
48.27644
 30
0.0
 11
71.064917
 21
48.276362
 31
0.0
  0
LINE
  5
5CF
330
3C8
100
AcDbEntity
  8
0
  6
CONTINUOUS
 62
     7
100
AcDbLine
 10
71.064917
 20
48.276362
 30
0.0
 11
71.067525
 21
48.276284
 31
0.0
  0
LINE
  5
5D0
330
3C8
100
AcDbEntity
  8
0
  6
CONTINUOUS
 62
     7
100
AcDbLine
 10
71.067525
 20
48.276284
 30
0.0
 11
71.07013
 21
48.276204
 31
0.0
  0
LINE
  5
5D1
330
3C8
100
AcDbEntity
  8
0
  6
CONTINUOUS
 62
     7
100
AcDbLine
 10
71.07013
 20
48.276204
 30
0.0
 11
71.072732
 21
48.276124
 31
0.0
  0
LINE
  5
5D2
330
3C8
100
AcDbEntity
  8
0
  6
CONTINUOUS
 62
     7
100
AcDbLine
 10
71.072732
 20
48.276124
 30
0.0
 11
71.07533
 21
48.276044
 31
0.0
  0
LINE
  5
5D3
330
3C8
100
AcDbEntity
  8
0
  6
CONTINUOUS
 62
     7
100
AcDbLine
 10
71.07533
 20
48.276044
 30
0.0
 11
71.077926
 21
48.275963
 31
0.0
  0
LINE
  5
5D4
330
3C8
100
AcDbEntity
  8
0
  6
CONTINUOUS
 62
     7
100
AcDbLine
 10
71.077926
 20
48.275963
 30
0.0
 11
71.080518
 21
48.275881
 31
0.0
  0
LINE
  5
5D5
330
3C8
100
AcDbEntity
  8
0
  6
CONTINUOUS
 62
     7
100
AcDbLine
 10
71.080518
 20
48.275881
 30
0.0
 11
71.083106
 21
48.275799
 31
0.0
  0
LINE
  5
5D6
330
3C8
100
AcDbEntity
  8
0
  6
CONTINUOUS
 62
     7
100
AcDbLine
 10
71.083106
 20
48.275799
 30
0.0
 11
71.085691
 21
48.275716
 31
0.0
  0
LINE
  5
5D7
330
3C8
100
AcDbEntity
  8
0
  6
CONTINUOUS
 62
     7
100
AcDbLine
 10
71.085691
 20
48.275716
 30
0.0
 11
71.088273
 21
48.275633
 31
0.0
  0
LINE
  5
5D8
330
3C8
100
AcDbEntity
  8
0
  6
CONTINUOUS
 62
     7
100
AcDbLine
 10
71.088273
 20
48.275633
 30
0.0
 11
71.090851
 21
48.275549
 31
0.0
  0
LINE
  5
5D9
330
3C8
100
AcDbEntity
  8
0
  6
CONTINUOUS
 62
     7
100
AcDbLine
 10
71.090851
 20
48.275549
 30
0.0
 11
71.093426
 21
48.275464
 31
0.0
  0
LINE
  5
5DA
330
3C8
100
AcDbEntity
  8
0
  6
CONTINUOUS
 62
     7
100
AcDbLine
 10
71.093426
 20
48.275464
 30
0.0
 11
71.095997
 21
48.275379
 31
0.0
  0
LINE
  5
5DB
330
3C8
100
AcDbEntity
  8
0
  6
CONTINUOUS
 62
     7
100
AcDbLine
 10
71.095997
 20
48.275379
 30
0.0
 11
71.098565
 21
48.275293
 31
0.0
  0
LINE
  5
5DC
330
3C8
100
AcDbEntity
  8
0
  6
CONTINUOUS
 62
     7
100
AcDbLine
 10
71.098565
 20
48.275293
 30
0.0
 11
71.101129
 21
48.275207
 31
0.0
  0
LINE
  5
5DD
330
3C8
100
AcDbEntity
  8
0
  6
CONTINUOUS
 62
     7
100
AcDbLine
 10
71.101129
 20
48.275207
 30
0.0
 11
71.10369
 21
48.27512
 31
0.0
  0
LINE
  5
5DE
330
3C8
100
AcDbEntity
  8
0
  6
CONTINUOUS
 62
     7
100
AcDbLine
 10
71.10369
 20
48.27512
 30
0.0
 11
71.106246
 21
48.275032
 31
0.0
  0
LINE
  5
5DF
330
3C8
100
AcDbEntity
  8
0
  6
CONTINUOUS
 62
     7
100
AcDbLine
 10
71.106246
 20
48.275032
 30
0.0
 11
71.1088
 21
48.274944
 31
0.0
  0
LINE
  5
5E0
330
3C8
100
AcDbEntity
  8
0
  6
CONTINUOUS
 62
     7
100
AcDbLine
 10
71.1088
 20
48.274944
 30
0.0
 11
71.111459
 21
48.274852
 31
0.0
  0
LINE
  5
5E1
330
3C8
100
AcDbEntity
  8
0
  6
CONTINUOUS
 62
     7
100
AcDbLine
 10
71.111459
 20
48.274852
 30
0.0
 11
71.114115
 21
48.274758
 31
0.0
  0
LINE
  5
5E2
330
3C8
100
AcDbEntity
  8
0
  6
CONTINUOUS
 62
     7
100
AcDbLine
 10
71.114115
 20
48.274758
 30
0.0
 11
71.116766
 21
48.274665
 31
0.0
  0
LINE
  5
5E3
330
3C8
100
AcDbEntity
  8
0
  6
CONTINUOUS
 62
     7
100
AcDbLine
 10
71.116766
 20
48.274665
 30
0.0
 11
71.119413
 21
48.27457
 31
0.0
  0
LINE
  5
5E4
330
3C8
100
AcDbEntity
  8
0
  6
CONTINUOUS
 62
     7
100
AcDbLine
 10
71.119413
 20
48.27457
 30
0.0
 11
71.122057
 21
48.274475
 31
0.0
  0
LINE
  5
5E5
330
3C8
100
AcDbEntity
  8
0
  6
CONTINUOUS
 62
     7
100
AcDbLine
 10
71.122057
 20
48.274475
 30
0.0
 11
71.124696
 21
48.27438
 31
0.0
  0
LINE
  5
5E6
330
3C8
100
AcDbEntity
  8
0
  6
CONTINUOUS
 62
     7
100
AcDbLine
 10
71.124696
 20
48.27438
 30
0.0
 11
71.127331
 21
48.274284
 31
0.0
  0
LINE
  5
5E7
330
3C8
100
AcDbEntity
  8
0
  6
CONTINUOUS
 62
     7
100
AcDbLine
 10
71.127331
 20
48.274284
 30
0.0
 11
71.129962
 21
48.274187
 31
0.0
  0
LINE
  5
5E8
330
3C8
100
AcDbEntity
  8
0
  6
CONTINUOUS
 62
     7
100
AcDbLine
 10
71.129962
 20
48.274187
 30
0.0
 11
71.132589
 21
48.27409
 31
0.0
  0
LINE
  5
5E9
330
3C8
100
AcDbEntity
  8
0
  6
CONTINUOUS
 62
     7
100
AcDbLine
 10
71.132589
 20
48.27409
 30
0.0
 11
71.135211
 21
48.273992
 31
0.0
  0
LINE
  5
5EA
330
3C8
100
AcDbEntity
  8
0
  6
CONTINUOUS
 62
     7
100
AcDbLine
 10
71.135211
 20
48.273992
 30
0.0
 11
71.13783
 21
48.273893
 31
0.0
  0
LINE
  5
5EB
330
3C8
100
AcDbEntity
  8
0
  6
CONTINUOUS
 62
     7
100
AcDbLine
 10
71.13783
 20
48.273893
 30
0.0
 11
71.140444
 21
48.273794
 31
0.0
  0
LINE
  5
5EC
330
3C8
100
AcDbEntity
  8
0
  6
CONTINUOUS
 62
     7
100
AcDbLine
 10
71.140444
 20
48.273794
 30
0.0
 11
71.143055
 21
48.273695
 31
0.0
  0
LINE
  5
5ED
330
3C8
100
AcDbEntity
  8
0
  6
CONTINUOUS
 62
     7
100
AcDbLine
 10
71.143055
 20
48.273695
 30
0.0
 11
71.145661
 21
48.273595
 31
0.0
  0
LINE
  5
5EE
330
3C8
100
AcDbEntity
  8
0
  6
CONTINUOUS
 62
     7
100
AcDbLine
 10
71.145661
 20
48.273595
 30
0.0
 11
71.148262
 21
48.273494
 31
0.0
  0
LINE
  5
5EF
330
3C8
100
AcDbEntity
  8
0
  6
CONTINUOUS
 62
     7
100
AcDbLine
 10
71.148262
 20
48.273494
 30
0.0
 11
71.15086
 21
48.273393
 31
0.0
  0
LINE
  5
5F0
330
3C8
100
AcDbEntity
  8
0
  6
CONTINUOUS
 62
     7
100
AcDbLine
 10
71.15086
 20
48.273393
 30
0.0
 11
71.153453
 21
48.273291
 31
0.0
  0
LINE
  5
5F1
330
3C8
100
AcDbEntity
  8
0
  6
CONTINUOUS
 62
     7
100
AcDbLine
 10
71.153453
 20
48.273291
 30
0.0
 11
71.156043
 21
48.273189
 31
0.0
  0
LINE
  5
5F2
330
3C8
100
AcDbEntity
  8
0
  6
CONTINUOUS
 62
     7
100
AcDbLine
 10
71.156043
 20
48.273189
 30
0.0
 11
71.158627
 21
48.273086
 31
0.0
  0
LINE
  5
5F3
330
3C8
100
AcDbEntity
  8
0
  6
CONTINUOUS
 62
     7
100
AcDbLine
 10
71.158627
 20
48.273086
 30
0.0
 11
71.161208
 21
48.272983
 31
0.0
  0
LINE
  5
5F4
330
3C8
100
AcDbEntity
  8
0
  6
CONTINUOUS
 62
     7
100
AcDbLine
 10
71.161208
 20
48.272983
 30
0.0
 11
71.163784
 21
48.272879
 31
0.0
  0
LINE
  5
5F5
330
3C8
100
AcDbEntity
  8
0
  6
CONTINUOUS
 62
     7
100
AcDbLine
 10
71.163784
 20
48.272879
 30
0.0
 11
71.166357
 21
48.272775
 31
0.0
  0
LINE
  5
5F6
330
3C8
100
AcDbEntity
  8
0
  6
CONTINUOUS
 62
     7
100
AcDbLine
 10
71.166357
 20
48.272775
 30
0.0
 11
71.168924
 21
48.27267
 31
0.0
  0
LINE
  5
5F7
330
3C8
100
AcDbEntity
  8
0
  6
CONTINUOUS
 62
     7
100
AcDbLine
 10
71.168924
 20
48.27267
 30
0.0
 11
71.171488
 21
48.272565
 31
0.0
  0
LINE
  5
5F8
330
3C8
100
AcDbEntity
  8
0
  6
CONTINUOUS
 62
     7
100
AcDbLine
 10
71.171488
 20
48.272565
 30
0.0
 11
71.174047
 21
48.272459
 31
0.0
  0
LINE
  5
5F9
330
3C8
100
AcDbEntity
  8
0
  6
CONTINUOUS
 62
     7
100
AcDbLine
 10
71.174047
 20
48.272459
 30
0.0
 11
71.176602
 21
48.272353
 31
0.0
  0
LINE
  5
5FA
330
3C8
100
AcDbEntity
  8
0
  6
CONTINUOUS
 62
     7
100
AcDbLine
 10
71.176602
 20
48.272353
 30
0.0
 11
71.179153
 21
48.272246
 31
0.0
  0
LINE
  5
5FB
330
3C8
100
AcDbEntity
  8
0
  6
CONTINUOUS
 62
     7
100
AcDbLine
 10
71.179153
 20
48.272246
 30
0.0
 11
71.181699
 21
48.272139
 31
0.0
  0
LINE
  5
5FC
330
3C8
100
AcDbEntity
  8
0
  6
CONTINUOUS
 62
     7
100
AcDbLine
 10
71.181699
 20
48.272139
 30
0.0
 11
71.184241
 21
48.272032
 31
0.0
  0
LINE
  5
5FD
330
3C8
100
AcDbEntity
  8
0
  6
CONTINUOUS
 62
     7
100
AcDbLine
 10
71.184241
 20
48.272032
 30
0.0
 11
71.186778
 21
48.271924
 31
0.0
  0
LINE
  5
5FE
330
3C8
100
AcDbEntity
  8
0
  6
CONTINUOUS
 62
     7
100
AcDbLine
 10
71.186778
 20
48.271924
 30
0.0
 11
71.189311
 21
48.271815
 31
0.0
  0
LINE
  5
5FF
330
3C8
100
AcDbEntity
  8
0
  6
CONTINUOUS
 62
     7
100
AcDbLine
 10
71.189311
 20
48.271815
 30
0.0
 11
71.19184
 21
48.271706
 31
0.0
  0
LINE
  5
600
330
3C8
100
AcDbEntity
  8
0
  6
CONTINUOUS
 62
     7
100
AcDbLine
 10
71.19184
 20
48.271706
 30
0.0
 11
71.194364
 21
48.271597
 31
0.0
  0
LINE
  5
601
330
3C8
100
AcDbEntity
  8
0
  6
CONTINUOUS
 62
     7
100
AcDbLine
 10
71.194364
 20
48.271597
 30
0.0
 11
71.196884
 21
48.271487
 31
0.0
  0
LINE
  5
602
330
3C8
100
AcDbEntity
  8
0
  6
CONTINUOUS
 62
     7
100
AcDbLine
 10
71.196884
 20
48.271487
 30
0.0
 11
71.1994
 21
48.271376
 31
0.0
  0
LINE
  5
603
330
3C8
100
AcDbEntity
  8
0
  6
CONTINUOUS
 62
     7
100
AcDbLine
 10
71.1994
 20
48.271376
 30
0.0
 11
71.201911
 21
48.271266
 31
0.0
  0
LINE
  5
604
330
3C8
100
AcDbEntity
  8
0
  6
CONTINUOUS
 62
     7
100
AcDbLine
 10
71.201911
 20
48.271266
 30
0.0
 11
71.204417
 21
48.271155
 31
0.0
  0
LINE
  5
605
330
3C8
100
AcDbEntity
  8
0
  6
CONTINUOUS
 62
     7
100
AcDbLine
 10
71.204417
 20
48.271155
 30
0.0
 11
71.20692
 21
48.271043
 31
0.0
  0
LINE
  5
606
330
3C8
100
AcDbEntity
  8
0
  6
CONTINUOUS
 62
     7
100
AcDbLine
 10
71.20692
 20
48.271043
 30
0.0
 11
71.209417
 21
48.270931
 31
0.0
  0
LINE
  5
607
330
3C8
100
AcDbEntity
  8
0
  6
CONTINUOUS
 62
     7
100
AcDbLine
 10
71.209417
 20
48.270931
 30
0.0
 11
71.21191
 21
48.270819
 31
0.0
  0
LINE
  5
608
330
3C8
100
AcDbEntity
  8
0
  6
CONTINUOUS
 62
     7
100
AcDbLine
 10
71.21191
 20
48.270819
 30
0.0
 11
71.214399
 21
48.270706
 31
0.0
  0
LINE
  5
609
330
3C8
100
AcDbEntity
  8
0
  6
CONTINUOUS
 62
     7
100
AcDbLine
 10
71.214399
 20
48.270706
 30
0.0
 11
71.216883
 21
48.270593
 31
0.0
  0
LINE
  5
60A
330
3C8
100
AcDbEntity
  8
0
  6
CONTINUOUS
 62
     7
100
AcDbLine
 10
71.216883
 20
48.270593
 30
0.0
 11
71.219363
 21
48.270479
 31
0.0
  0
LINE
  5
60B
330
3C8
100
AcDbEntity
  8
0
  6
CONTINUOUS
 62
     7
100
AcDbLine
 10
71.219363
 20
48.270479
 30
0.0
 11
71.221838
 21
48.270365
 31
0.0
  0
LINE
  5
60C
330
3C8
100
AcDbEntity
  8
0
  6
CONTINUOUS
 62
     7
100
AcDbLine
 10
71.221838
 20
48.270365
 30
0.0
 11
71.224309
 21
48.270251
 31
0.0
  0
LINE
  5
60D
330
3C8
100
AcDbEntity
  8
0
  6
CONTINUOUS
 62
     7
100
AcDbLine
 10
71.224309
 20
48.270251
 30
0.0
 11
71.226775
 21
48.270136
 31
0.0
  0
LINE
  5
60E
330
3C8
100
AcDbEntity
  8
0
  6
CONTINUOUS
 62
     7
100
AcDbLine
 10
71.226775
 20
48.270136
 30
0.0
 11
71.229237
 21
48.270021
 31
0.0
  0
LINE
  5
60F
330
3C8
100
AcDbEntity
  8
0
  6
CONTINUOUS
 62
     7
100
AcDbLine
 10
71.229237
 20
48.270021
 30
0.0
 11
71.231694
 21
48.269906
 31
0.0
  0
LINE
  5
610
330
3C8
100
AcDbEntity
  8
0
  6
CONTINUOUS
 62
     7
100
AcDbLine
 10
71.231694
 20
48.269906
 30
0.0
 11
71.234146
 21
48.26979
 31
0.0
  0
LINE
  5
611
330
3C8
100
AcDbEntity
  8
0
  6
CONTINUOUS
 62
     7
100
AcDbLine
 10
71.234146
 20
48.26979
 30
0.0
 11
71.236594
 21
48.269674
 31
0.0
  0
LINE
  5
612
330
3C8
100
AcDbEntity
  8
0
  6
CONTINUOUS
 62
     7
100
AcDbLine
 10
71.236594
 20
48.269674
 30
0.0
 11
71.239037
 21
48.269557
 31
0.0
  0
LINE
  5
613
330
3C8
100
AcDbEntity
  8
0
  6
CONTINUOUS
 62
     7
100
AcDbLine
 10
71.239037
 20
48.269557
 30
0.0
 11
71.241476
 21
48.269441
 31
0.0
  0
LINE
  5
614
330
3C8
100
AcDbEntity
  8
0
  6
CONTINUOUS
 62
     7
100
AcDbLine
 10
71.241476
 20
48.269441
 30
0.0
 11
71.24391
 21
48.269324
 31
0.0
  0
LINE
  5
615
330
3C8
100
AcDbEntity
  8
0
  6
CONTINUOUS
 62
     7
100
AcDbLine
 10
71.24391
 20
48.269324
 30
0.0
 11
71.246339
 21
48.269206
 31
0.0
  0
LINE
  5
616
330
3C8
100
AcDbEntity
  8
0
  6
CONTINUOUS
 62
     7
100
AcDbLine
 10
71.246339
 20
48.269206
 30
0.0
 11
71.248764
 21
48.269088
 31
0.0
  0
LINE
  5
617
330
3C8
100
AcDbEntity
  8
0
  6
CONTINUOUS
 62
     7
100
AcDbLine
 10
71.248764
 20
48.269088
 30
0.0
 11
71.251184
 21
48.26897
 31
0.0
  0
LINE
  5
618
330
3C8
100
AcDbEntity
  8
0
  6
CONTINUOUS
 62
     7
100
AcDbLine
 10
71.251184
 20
48.26897
 30
0.0
 11
71.253599
 21
48.268852
 31
0.0
  0
LINE
  5
619
330
3C8
100
AcDbEntity
  8
0
  6
CONTINUOUS
 62
     7
100
AcDbLine
 10
71.253599
 20
48.268852
 30
0.0
 11
71.25601
 21
48.268733
 31
0.0
  0
LINE
  5
61A
330
3C8
100
AcDbEntity
  8
0
  6
CONTINUOUS
 62
     7
100
AcDbLine
 10
71.25601
 20
48.268733
 30
0.0
 11
71.258416
 21
48.268614
 31
0.0
  0
LINE
  5
61B
330
3C8
100
AcDbEntity
  8
0
  6
CONTINUOUS
 62
     7
100
AcDbLine
 10
71.258416
 20
48.268614
 30
0.0
 11
71.260817
 21
48.268495
 31
0.0
  0
LINE
  5
61C
330
3C8
100
AcDbEntity
  8
0
  6
CONTINUOUS
 62
     7
100
AcDbLine
 10
71.260817
 20
48.268495
 30
0.0
 11
71.263214
 21
48.268376
 31
0.0
  0
LINE
  5
61D
330
3C8
100
AcDbEntity
  8
0
  6
CONTINUOUS
 62
     7
100
AcDbLine
 10
71.263214
 20
48.268376
 30
0.0
 11
71.265606
 21
48.268256
 31
0.0
  0
LINE
  5
61E
330
3C8
100
AcDbEntity
  8
0
  6
CONTINUOUS
 62
     7
100
AcDbLine
 10
71.265606
 20
48.268256
 30
0.0
 11
71.267993
 21
48.268136
 31
0.0
  0
LINE
  5
61F
330
3C8
100
AcDbEntity
  8
0
  6
CONTINUOUS
 62
     7
100
AcDbLine
 10
71.267993
 20
48.268136
 30
0.0
 11
71.270375
 21
48.268015
 31
0.0
  0
LINE
  5
620
330
3C8
100
AcDbEntity
  8
0
  6
CONTINUOUS
 62
     7
100
AcDbLine
 10
71.270375
 20
48.268015
 30
0.0
 11
71.272753
 21
48.267895
 31
0.0
  0
LINE
  5
621
330
3C8
100
AcDbEntity
  8
0
  6
CONTINUOUS
 62
     7
100
AcDbLine
 10
71.272753
 20
48.267895
 30
0.0
 11
71.275126
 21
48.267774
 31
0.0
  0
LINE
  5
622
330
3C8
100
AcDbEntity
  8
0
  6
CONTINUOUS
 62
     7
100
AcDbLine
 10
71.275126
 20
48.267774
 30
0.0
 11
71.277494
 21
48.267653
 31
0.0
  0
LINE
  5
623
330
3C8
100
AcDbEntity
  8
0
  6
CONTINUOUS
 62
     7
100
AcDbLine
 10
71.277494
 20
48.267653
 30
0.0
 11
71.279857
 21
48.267531
 31
0.0
  0
LINE
  5
624
330
3C8
100
AcDbEntity
  8
0
  6
CONTINUOUS
 62
     7
100
AcDbLine
 10
71.279857
 20
48.267531
 30
0.0
 11
71.282216
 21
48.26741
 31
0.0
  0
LINE
  5
625
330
3C8
100
AcDbEntity
  8
0
  6
CONTINUOUS
 62
     7
100
AcDbLine
 10
71.282216
 20
48.26741
 30
0.0
 11
71.284569
 21
48.267288
 31
0.0
  0
LINE
  5
626
330
3C8
100
AcDbEntity
  8
0
  6
CONTINUOUS
 62
     7
100
AcDbLine
 10
71.284569
 20
48.267288
 30
0.0
 11
71.286918
 21
48.267166
 31
0.0
  0
LINE
  5
627
330
3C8
100
AcDbEntity
  8
0
  6
CONTINUOUS
 62
     7
100
AcDbLine
 10
71.286918
 20
48.267166
 30
0.0
 11
71.289262
 21
48.267043
 31
0.0
  0
LINE
  5
628
330
3C8
100
AcDbEntity
  8
0
  6
CONTINUOUS
 62
     7
100
AcDbLine
 10
71.289262
 20
48.267043
 30
0.0
 11
71.291601
 21
48.266921
 31
0.0
  0
LINE
  5
629
330
3C8
100
AcDbEntity
  8
0
  6
CONTINUOUS
 62
     7
100
AcDbLine
 10
71.291601
 20
48.266921
 30
0.0
 11
71.293936
 21
48.266798
 31
0.0
  0
LINE
  5
62A
330
3C8
100
AcDbEntity
  8
0
  6
CONTINUOUS
 62
     7
100
AcDbLine
 10
71.293936
 20
48.266798
 30
0.0
 11
71.296265
 21
48.266675
 31
0.0
  0
LINE
  5
62B
330
3C8
100
AcDbEntity
  8
0
  6
CONTINUOUS
 62
     7
100
AcDbLine
 10
71.296265
 20
48.266675
 30
0.0
 11
71.29859
 21
48.266552
 31
0.0
  0
LINE
  5
62C
330
3C8
100
AcDbEntity
  8
0
  6
CONTINUOUS
 62
     7
100
AcDbLine
 10
71.29859
 20
48.266552
 30
0.0
 11
71.300909
 21
48.266429
 31
0.0
  0
LINE
  5
62D
330
3C8
100
AcDbEntity
  8
0
  6
CONTINUOUS
 62
     7
100
AcDbLine
 10
71.300909
 20
48.266429
 30
0.0
 11
71.303224
 21
48.266305
 31
0.0
  0
LINE
  5
62E
330
3C8
100
AcDbEntity
  8
0
  6
CONTINUOUS
 62
     7
100
AcDbLine
 10
71.303224
 20
48.266305
 30
0.0
 11
71.305534
 21
48.266181
 31
0.0
  0
LINE
  5
62F
330
3C8
100
AcDbEntity
  8
0
  6
CONTINUOUS
 62
     7
100
AcDbLine
 10
71.305534
 20
48.266181
 30
0.0
 11
71.307839
 21
48.266058
 31
0.0
  0
LINE
  5
630
330
3C8
100
AcDbEntity
  8
0
  6
CONTINUOUS
 62
     7
100
AcDbLine
 10
71.307839
 20
48.266058
 30
0.0
 11
71.310139
 21
48.265933
 31
0.0
  0
LINE
  5
631
330
3C8
100
AcDbEntity
  8
0
  6
CONTINUOUS
 62
     7
100
AcDbLine
 10
71.310139
 20
48.265933
 30
0.0
 11
71.312434
 21
48.265809
 31
0.0
  0
LINE
  5
632
330
3C8
100
AcDbEntity
  8
0
  6
CONTINUOUS
 62
     7
100
AcDbLine
 10
71.312434
 20
48.265809
 30
0.0
 11
71.314724
 21
48.265685
 31
0.0
  0
LINE
  5
633
330
3C8
100
AcDbEntity
  8
0
  6
CONTINUOUS
 62
     7
100
AcDbLine
 10
71.314724
 20
48.265685
 30
0.0
 11
71.317009
 21
48.26556
 31
0.0
  0
LINE
  5
634
330
3C8
100
AcDbEntity
  8
0
  6
CONTINUOUS
 62
     7
100
AcDbLine
 10
71.317009
 20
48.26556
 30
0.0
 11
71.319289
 21
48.265436
 31
0.0
  0
LINE
  5
635
330
3C8
100
AcDbEntity
  8
0
  6
CONTINUOUS
 62
     7
100
AcDbLine
 10
71.319289
 20
48.265436
 30
0.0
 11
71.321564
 21
48.265311
 31
0.0
  0
LINE
  5
636
330
3C8
100
AcDbEntity
  8
0
  6
CONTINUOUS
 62
     7
100
AcDbLine
 10
71.321564
 20
48.265311
 30
0.0
 11
71.323834
 21
48.265186
 31
0.0
  0
LINE
  5
637
330
3C8
100
AcDbEntity
  8
0
  6
CONTINUOUS
 62
     7
100
AcDbLine
 10
71.323834
 20
48.265186
 30
0.0
 11
71.326099
 21
48.265061
 31
0.0
  0
LINE
  5
638
330
3C8
100
AcDbEntity
  8
0
  6
CONTINUOUS
 62
     7
100
AcDbLine
 10
71.326099
 20
48.265061
 30
0.0
 11
71.32836
 21
48.264935
 31
0.0
  0
LINE
  5
639
330
3C8
100
AcDbEntity
  8
0
  6
CONTINUOUS
 62
     7
100
AcDbLine
 10
71.32836
 20
48.264935
 30
0.0
 11
71.330615
 21
48.26481
 31
0.0
  0
LINE
  5
63A
330
3C8
100
AcDbEntity
  8
0
  6
CONTINUOUS
 62
     7
100
AcDbLine
 10
71.330615
 20
48.26481
 30
0.0
 11
71.332865
 21
48.264684
 31
0.0
  0
LINE
  5
63B
330
3C8
100
AcDbEntity
  8
0
  6
CONTINUOUS
 62
     7
100
AcDbLine
 10
71.332865
 20
48.264684
 30
0.0
 11
71.33511
 21
48.264559
 31
0.0
  0
LINE
  5
63C
330
3C8
100
AcDbEntity
  8
0
  6
CONTINUOUS
 62
     7
100
AcDbLine
 10
71.33511
 20
48.264559
 30
0.0
 11
71.337349
 21
48.264433
 31
0.0
  0
LINE
  5
63D
330
3C8
100
AcDbEntity
  8
0
  6
CONTINUOUS
 62
     7
100
AcDbLine
 10
71.337349
 20
48.264433
 30
0.0
 11
71.339584
 21
48.264307
 31
0.0
  0
LINE
  5
63E
330
3C8
100
AcDbEntity
  8
0
  6
CONTINUOUS
 62
     7
100
AcDbLine
 10
71.339584
 20
48.264307
 30
0.0
 11
71.341814
 21
48.264181
 31
0.0
  0
LINE
  5
63F
330
3C8
100
AcDbEntity
  8
0
  6
CONTINUOUS
 62
     7
100
AcDbLine
 10
71.341814
 20
48.264181
 30
0.0
 11
71.344039
 21
48.264055
 31
0.0
  0
LINE
  5
640
330
3C8
100
AcDbEntity
  8
0
  6
CONTINUOUS
 62
     7
100
AcDbLine
 10
71.344039
 20
48.264055
 30
0.0
 11
71.346258
 21
48.263929
 31
0.0
  0
LINE
  5
641
330
3C8
100
AcDbEntity
  8
0
  6
CONTINUOUS
 62
     7
100
AcDbLine
 10
71.346258
 20
48.263929
 30
0.0
 11
71.348472
 21
48.263803
 31
0.0
  0
LINE
  5
642
330
3C8
100
AcDbEntity
  8
0
  6
CONTINUOUS
 62
     7
100
AcDbLine
 10
71.348472
 20
48.263803
 30
0.0
 11
71.350682
 21
48.263677
 31
0.0
  0
LINE
  5
643
330
3C8
100
AcDbEntity
  8
0
  6
CONTINUOUS
 62
     7
100
AcDbLine
 10
71.350682
 20
48.263677
 30
0.0
 11
71.352886
 21
48.263551
 31
0.0
  0
LINE
  5
644
330
3C8
100
AcDbEntity
  8
0
  6
CONTINUOUS
 62
     7
100
AcDbLine
 10
71.352886
 20
48.263551
 30
0.0
 11
71.355085
 21
48.263424
 31
0.0
  0
LINE
  5
645
330
3C8
100
AcDbEntity
  8
0
  6
CONTINUOUS
 62
     7
100
AcDbLine
 10
71.355085
 20
48.263424
 30
0.0
 11
71.357278
 21
48.263298
 31
0.0
  0
LINE
  5
646
330
3C8
100
AcDbEntity
  8
0
  6
CONTINUOUS
 62
     7
100
AcDbLine
 10
71.357278
 20
48.263298
 30
0.0
 11
71.359467
 21
48.263171
 31
0.0
  0
LINE
  5
647
330
3C8
100
AcDbEntity
  8
0
  6
CONTINUOUS
 62
     7
100
AcDbLine
 10
71.359467
 20
48.263171
 30
0.0
 11
71.36165
 21
48.263045
 31
0.0
  0
LINE
  5
648
330
3C8
100
AcDbEntity
  8
0
  6
CONTINUOUS
 62
     7
100
AcDbLine
 10
71.36165
 20
48.263045
 30
0.0
 11
71.363828
 21
48.262918
 31
0.0
  0
LINE
  5
649
330
3C8
100
AcDbEntity
  8
0
  6
CONTINUOUS
 62
     7
100
AcDbLine
 10
71.363828
 20
48.262918
 30
0.0
 11
71.366001
 21
48.262792
 31
0.0
  0
LINE
  5
64A
330
3C8
100
AcDbEntity
  8
0
  6
CONTINUOUS
 62
     7
100
AcDbLine
 10
71.366001
 20
48.262792
 30
0.0
 11
71.368169
 21
48.262665
 31
0.0
  0
LINE
  5
64B
330
3C8
100
AcDbEntity
  8
0
  6
CONTINUOUS
 62
     7
100
AcDbLine
 10
71.368169
 20
48.262665
 30
0.0
 11
71.370331
 21
48.262538
 31
0.0
  0
LINE
  5
64C
330
3C8
100
AcDbEntity
  8
0
  6
CONTINUOUS
 62
     7
100
AcDbLine
 10
71.370331
 20
48.262538
 30
0.0
 11
71.372489
 21
48.262412
 31
0.0
  0
LINE
  5
64D
330
3C8
100
AcDbEntity
  8
0
  6
CONTINUOUS
 62
     7
100
AcDbLine
 10
71.372489
 20
48.262412
 30
0.0
 11
71.374641
 21
48.262285
 31
0.0
  0
LINE
  5
64E
330
3C8
100
AcDbEntity
  8
0
  6
CONTINUOUS
 62
     7
100
AcDbLine
 10
71.374641
 20
48.262285
 30
0.0
 11
71.376787
 21
48.262158
 31
0.0
  0
LINE
  5
64F
330
3C8
100
AcDbEntity
  8
0
  6
CONTINUOUS
 62
     7
100
AcDbLine
 10
71.376787
 20
48.262158
 30
0.0
 11
71.378929
 21
48.262032
 31
0.0
  0
LINE
  5
650
330
3C8
100
AcDbEntity
  8
0
  6
CONTINUOUS
 62
     7
100
AcDbLine
 10
71.378929
 20
48.262032
 30
0.0
 11
71.381065
 21
48.261905
 31
0.0
  0
LINE
  5
651
330
3C8
100
AcDbEntity
  8
0
  6
CONTINUOUS
 62
     7
100
AcDbLine
 10
71.381065
 20
48.261905
 30
0.0
 11
71.383196
 21
48.261778
 31
0.0
  0
LINE
  5
652
330
3C8
100
AcDbEntity
  8
0
  6
CONTINUOUS
 62
     7
100
AcDbLine
 10
71.383196
 20
48.261778
 30
0.0
 11
71.385321
 21
48.261652
 31
0.0
  0
LINE
  5
653
330
3C8
100
AcDbEntity
  8
0
  6
CONTINUOUS
 62
     7
100
AcDbLine
 10
71.385321
 20
48.261652
 30
0.0
 11
71.387441
 21
48.261525
 31
0.0
  0
LINE
  5
654
330
3C8
100
AcDbEntity
  8
0
  6
CONTINUOUS
 62
     7
100
AcDbLine
 10
71.387441
 20
48.261525
 30
0.0
 11
71.389556
 21
48.261398
 31
0.0
  0
LINE
  5
655
330
3C8
100
AcDbEntity
  8
0
  6
CONTINUOUS
 62
     7
100
AcDbLine
 10
71.389556
 20
48.261398
 30
0.0
 11
71.391665
 21
48.261272
 31
0.0
  0
LINE
  5
656
330
3C8
100
AcDbEntity
  8
0
  6
CONTINUOUS
 62
     7
100
AcDbLine
 10
71.391665
 20
48.261272
 30
0.0
 11
71.39377
 21
48.261145
 31
0.0
  0
LINE
  5
657
330
3C8
100
AcDbEntity
  8
0
  6
CONTINUOUS
 62
     7
100
AcDbLine
 10
71.39377
 20
48.261145
 30
0.0
 11
71.395868
 21
48.261019
 31
0.0
  0
LINE
  5
658
330
3C8
100
AcDbEntity
  8
0
  6
CONTINUOUS
 62
     7
100
AcDbLine
 10
71.395868
 20
48.261019
 30
0.0
 11
71.397962
 21
48.260892
 31
0.0
  0
LINE
  5
659
330
3C8
100
AcDbEntity
  8
0
  6
CONTINUOUS
 62
     7
100
AcDbLine
 10
71.397962
 20
48.260892
 30
0.0
 11
71.40005
 21
48.260766
 31
0.0
  0
LINE
  5
65A
330
3C8
100
AcDbEntity
  8
0
  6
CONTINUOUS
 62
     7
100
AcDbLine
 10
71.40005
 20
48.260766
 30
0.0
 11
71.402132
 21
48.26064
 31
0.0
  0
LINE
  5
65B
330
3C8
100
AcDbEntity
  8
0
  6
CONTINUOUS
 62
     7
100
AcDbLine
 10
71.402132
 20
48.26064
 30
0.0
 11
71.404209
 21
48.260514
 31
0.0
  0
LINE
  5
65C
330
3C8
100
AcDbEntity
  8
0
  6
CONTINUOUS
 62
     7
100
AcDbLine
 10
71.404209
 20
48.260514
 30
0.0
 11
71.406281
 21
48.260387
 31
0.0
  0
LINE
  5
65D
330
3C8
100
AcDbEntity
  8
0
  6
CONTINUOUS
 62
     7
100
AcDbLine
 10
71.406281
 20
48.260387
 30
0.0
 11
71.408347
 21
48.260261
 31
0.0
  0
LINE
  5
65E
330
3C8
100
AcDbEntity
  8
0
  6
CONTINUOUS
 62
     7
100
AcDbLine
 10
71.408347
 20
48.260261
 30
0.0
 11
71.410408
 21
48.260135
 31
0.0
  0
LINE
  5
65F
330
3C8
100
AcDbEntity
  8
0
  6
CONTINUOUS
 62
     7
100
AcDbLine
 10
71.410408
 20
48.260135
 30
0.0
 11
71.412463
 21
48.260009
 31
0.0
  0
LINE
  5
660
330
3C8
100
AcDbEntity
  8
0
  6
CONTINUOUS
 62
     7
100
AcDbLine
 10
71.412463
 20
48.260009
 30
0.0
 11
71.414514
 21
48.259884
 31
0.0
  0
LINE
  5
661
330
3C8
100
AcDbEntity
  8
0
  6
CONTINUOUS
 62
     7
100
AcDbLine
 10
71.414514
 20
48.259884
 30
0.0
 11
71.41656
 21
48.259758
 31
0.0
  0
LINE
  5
662
330
3C8
100
AcDbEntity
  8
0
  6
CONTINUOUS
 62
     7
100
AcDbLine
 10
71.41656
 20
48.259758
 30
0.0
 11
71.4186
 21
48.259632
 31
0.0
  0
LINE
  5
663
330
3C8
100
AcDbEntity
  8
0
  6
CONTINUOUS
 62
     7
100
AcDbLine
 10
71.4186
 20
48.259632
 30
0.0
 11
71.420634
 21
48.259506
 31
0.0
  0
LINE
  5
664
330
3C8
100
AcDbEntity
  8
0
  6
CONTINUOUS
 62
     7
100
AcDbLine
 10
71.420634
 20
48.259506
 30
0.0
 11
71.422663
 21
48.259381
 31
0.0
  0
LINE
  5
665
330
3C8
100
AcDbEntity
  8
0
  6
CONTINUOUS
 62
     7
100
AcDbLine
 10
71.422663
 20
48.259381
 30
0.0
 11
71.424687
 21
48.259256
 31
0.0
  0
LINE
  5
666
330
3C8
100
AcDbEntity
  8
0
  6
CONTINUOUS
 62
     7
100
AcDbLine
 10
71.424687
 20
48.259256
 30
0.0
 11
71.426704
 21
48.25913
 31
0.0
  0
LINE
  5
667
330
3C8
100
AcDbEntity
  8
0
  6
CONTINUOUS
 62
     7
100
AcDbLine
 10
71.426704
 20
48.25913
 30
0.0
 11
71.428716
 21
48.259005
 31
0.0
  0
LINE
  5
668
330
3C8
100
AcDbEntity
  8
0
  6
CONTINUOUS
 62
     7
100
AcDbLine
 10
71.428716
 20
48.259005
 30
0.0
 11
71.430723
 21
48.25888
 31
0.0
  0
LINE
  5
669
330
3C8
100
AcDbEntity
  8
0
  6
CONTINUOUS
 62
     7
100
AcDbLine
 10
71.430723
 20
48.25888
 30
0.0
 11
71.432723
 21
48.258755
 31
0.0
  0
LINE
  5
66A
330
3C8
100
AcDbEntity
  8
0
  6
CONTINUOUS
 62
     7
100
AcDbLine
 10
71.432723
 20
48.258755
 30
0.0
 11
71.434718
 21
48.25863
 31
0.0
  0
LINE
  5
66B
330
3C8
100
AcDbEntity
  8
0
  6
CONTINUOUS
 62
     7
100
AcDbLine
 10
71.434718
 20
48.25863
 30
0.0
 11
71.436707
 21
48.258506
 31
0.0
  0
LINE
  5
66C
330
3C8
100
AcDbEntity
  8
0
  6
CONTINUOUS
 62
     7
100
AcDbLine
 10
71.436707
 20
48.258506
 30
0.0
 11
71.438691
 21
48.258381
 31
0.0
  0
LINE
  5
66D
330
3C8
100
AcDbEntity
  8
0
  6
CONTINUOUS
 62
     7
100
AcDbLine
 10
71.438691
 20
48.258381
 30
0.0
 11
71.440668
 21
48.258257
 31
0.0
  0
LINE
  5
66E
330
3C8
100
AcDbEntity
  8
0
  6
CONTINUOUS
 62
     7
100
AcDbLine
 10
71.440668
 20
48.258257
 30
0.0
 11
71.44264
 21
48.258133
 31
0.0
  0
LINE
  5
66F
330
3C8
100
AcDbEntity
  8
0
  6
CONTINUOUS
 62
     7
100
AcDbLine
 10
71.44264
 20
48.258133
 30
0.0
 11
71.444606
 21
48.258009
 31
0.0
  0
LINE
  5
670
330
3C8
100
AcDbEntity
  8
0
  6
CONTINUOUS
 62
     7
100
AcDbLine
 10
71.444606
 20
48.258009
 30
0.0
 11
71.446566
 21
48.257885
 31
0.0
  0
LINE
  5
671
330
3C8
100
AcDbEntity
  8
0
  6
CONTINUOUS
 62
     7
100
AcDbLine
 10
71.446566
 20
48.257885
 30
0.0
 11
71.44852
 21
48.257761
 31
0.0
  0
LINE
  5
672
330
3C8
100
AcDbEntity
  8
0
  6
CONTINUOUS
 62
     7
100
AcDbLine
 10
71.44852
 20
48.257761
 30
0.0
 11
71.450468
 21
48.257637
 31
0.0
  0
LINE
  5
673
330
3C8
100
AcDbEntity
  8
0
  6
CONTINUOUS
 62
     7
100
AcDbLine
 10
71.450468
 20
48.257637
 30
0.0
 11
71.45241
 21
48.257514
 31
0.0
  0
LINE
  5
674
330
3C8
100
AcDbEntity
  8
0
  6
CONTINUOUS
 62
     7
100
AcDbLine
 10
71.45241
 20
48.257514
 30
0.0
 11
71.454346
 21
48.25739
 31
0.0
  0
LINE
  5
675
330
3C8
100
AcDbEntity
  8
0
  6
CONTINUOUS
 62
     7
100
AcDbLine
 10
71.454346
 20
48.25739
 30
0.0
 11
71.456276
 21
48.257267
 31
0.0
  0
LINE
  5
676
330
3C8
100
AcDbEntity
  8
0
  6
CONTINUOUS
 62
     7
100
AcDbLine
 10
71.456276
 20
48.257267
 30
0.0
 11
71.4582
 21
48.257144
 31
0.0
  0
LINE
  5
677
330
3C8
100
AcDbEntity
  8
0
  6
CONTINUOUS
 62
     7
100
AcDbLine
 10
71.4582
 20
48.257144
 30
0.0
 11
71.460118
 21
48.257021
 31
0.0
  0
LINE
  5
678
330
3C8
100
AcDbEntity
  8
0
  6
CONTINUOUS
 62
     7
100
AcDbLine
 10
71.460118
 20
48.257021
 30
0.0
 11
71.46203
 21
48.256899
 31
0.0
  0
LINE
  5
679
330
3C8
100
AcDbEntity
  8
0
  6
CONTINUOUS
 62
     7
100
AcDbLine
 10
71.46203
 20
48.256899
 30
0.0
 11
71.463936
 21
48.256776
 31
0.0
  0
LINE
  5
67A
330
3C8
100
AcDbEntity
  8
0
  6
CONTINUOUS
 62
     7
100
AcDbLine
 10
71.463936
 20
48.256776
 30
0.0
 11
71.465836
 21
48.256654
 31
0.0
  0
LINE
  5
67B
330
3C8
100
AcDbEntity
  8
0
  6
CONTINUOUS
 62
     7
100
AcDbLine
 10
71.465836
 20
48.256654
 30
0.0
 11
71.467729
 21
48.256532
 31
0.0
  0
LINE
  5
67C
330
3C8
100
AcDbEntity
  8
0
  6
CONTINUOUS
 62
     7
100
AcDbLine
 10
71.467729
 20
48.256532
 30
0.0
 11
71.469617
 21
48.25641
 31
0.0
  0
LINE
  5
67D
330
3C8
100
AcDbEntity
  8
0
  6
CONTINUOUS
 62
     7
100
AcDbLine
 10
71.469617
 20
48.25641
 30
0.0
 11
71.471498
 21
48.256288
 31
0.0
  0
LINE
  5
67E
330
3C8
100
AcDbEntity
  8
0
  6
CONTINUOUS
 62
     7
100
AcDbLine
 10
71.471498
 20
48.256288
 30
0.0
 11
71.473373
 21
48.256167
 31
0.0
  0
LINE
  5
67F
330
3C8
100
AcDbEntity
  8
0
  6
CONTINUOUS
 62
     7
100
AcDbLine
 10
71.473373
 20
48.256167
 30
0.0
 11
71.475241
 21
48.256045
 31
0.0
  0
LINE
  5
680
330
3C8
100
AcDbEntity
  8
0
  6
CONTINUOUS
 62
     7
100
AcDbLine
 10
71.475241
 20
48.256045
 30
0.0
 11
71.477104
 21
48.255924
 31
0.0
  0
LINE
  5
681
330
3C8
100
AcDbEntity
  8
0
  6
CONTINUOUS
 62
     7
100
AcDbLine
 10
71.477104
 20
48.255924
 30
0.0
 11
71.47896
 21
48.255803
 31
0.0
  0
LINE
  5
682
330
3C8
100
AcDbEntity
  8
0
  6
CONTINUOUS
 62
     7
100
AcDbLine
 10
71.47896
 20
48.255803
 30
0.0
 11
71.480809
 21
48.255682
 31
0.0
  0
LINE
  5
683
330
3C8
100
AcDbEntity
  8
0
  6
CONTINUOUS
 62
     7
100
AcDbLine
 10
71.480809
 20
48.255682
 30
0.0
 11
71.482653
 21
48.255562
 31
0.0
  0
LINE
  5
684
330
3C8
100
AcDbEntity
  8
0
  6
CONTINUOUS
 62
     7
100
AcDbLine
 10
71.482653
 20
48.255562
 30
0.0
 11
71.48449
 21
48.255441
 31
0.0
  0
LINE
  5
685
330
3C8
100
AcDbEntity
  8
0
  6
CONTINUOUS
 62
     7
100
AcDbLine
 10
71.48449
 20
48.255441
 30
0.0
 11
71.48632
 21
48.255321
 31
0.0
  0
LINE
  5
686
330
3C8
100
AcDbEntity
  8
0
  6
CONTINUOUS
 62
     7
100
AcDbLine
 10
71.48632
 20
48.255321
 30
0.0
 11
71.488144
 21
48.255201
 31
0.0
  0
LINE
  5
687
330
3C8
100
AcDbEntity
  8
0
  6
CONTINUOUS
 62
     7
100
AcDbLine
 10
71.488144
 20
48.255201
 30
0.0
 11
71.489962
 21
48.255081
 31
0.0
  0
LINE
  5
688
330
3C8
100
AcDbEntity
  8
0
  6
CONTINUOUS
 62
     7
100
AcDbLine
 10
71.489962
 20
48.255081
 30
0.0
 11
71.491773
 21
48.254962
 31
0.0
  0
LINE
  5
689
330
3C8
100
AcDbEntity
  8
0
  6
CONTINUOUS
 62
     7
100
AcDbLine
 10
71.491773
 20
48.254962
 30
0.0
 11
71.493577
 21
48.254843
 31
0.0
  0
LINE
  5
68A
330
3C8
100
AcDbEntity
  8
0
  6
CONTINUOUS
 62
     7
100
AcDbLine
 10
71.493577
 20
48.254843
 30
0.0
 11
71.495376
 21
48.254723
 31
0.0
  0
LINE
  5
68B
330
3C8
100
AcDbEntity
  8
0
  6
CONTINUOUS
 62
     7
100
AcDbLine
 10
71.495376
 20
48.254723
 30
0.0
 11
71.497167
 21
48.254605
 31
0.0
  0
LINE
  5
68C
330
3C8
100
AcDbEntity
  8
0
  6
CONTINUOUS
 62
     7
100
AcDbLine
 10
71.497167
 20
48.254605
 30
0.0
 11
71.498952
 21
48.254486
 31
0.0
  0
LINE
  5
68D
330
3C8
100
AcDbEntity
  8
0
  6
CONTINUOUS
 62
     7
100
AcDbLine
 10
71.498952
 20
48.254486
 30
0.0
 11
71.50073
 21
48.254368
 31
0.0
  0
LINE
  5
68E
330
3C8
100
AcDbEntity
  8
0
  6
CONTINUOUS
 62
     7
100
AcDbLine
 10
71.50073
 20
48.254368
 30
0.0
 11
71.502502
 21
48.25425
 31
0.0
  0
LINE
  5
68F
330
3C8
100
AcDbEntity
  8
0
  6
CONTINUOUS
 62
     7
100
AcDbLine
 10
71.502502
 20
48.25425
 30
0.0
 11
71.504267
 21
48.254132
 31
0.0
  0
LINE
  5
690
330
3C8
100
AcDbEntity
  8
0
  6
CONTINUOUS
 62
     7
100
AcDbLine
 10
71.504267
 20
48.254132
 30
0.0
 11
71.506025
 21
48.254014
 31
0.0
  0
LINE
  5
691
330
3C8
100
AcDbEntity
  8
0
  6
CONTINUOUS
 62
     7
100
AcDbLine
 10
71.506025
 20
48.254014
 30
0.0
 11
71.507776
 21
48.253897
 31
0.0
  0
LINE
  5
692
330
3C8
100
AcDbEntity
  8
0
  6
CONTINUOUS
 62
     7
100
AcDbLine
 10
71.507776
 20
48.253897
 30
0.0
 11
71.509521
 21
48.25378
 31
0.0
  0
LINE
  5
693
330
3C8
100
AcDbEntity
  8
0
  6
CONTINUOUS
 62
     7
100
AcDbLine
 10
71.509521
 20
48.25378
 30
0.0
 11
71.511259
 21
48.253663
 31
0.0
  0
LINE
  5
694
330
3C8
100
AcDbEntity
  8
0
  6
CONTINUOUS
 62
     7
100
AcDbLine
 10
71.511259
 20
48.253663
 30
0.0
 11
71.51299
 21
48.253546
 31
0.0
  0
LINE
  5
695
330
3C8
100
AcDbEntity
  8
0
  6
CONTINUOUS
 62
     7
100
AcDbLine
 10
71.51299
 20
48.253546
 30
0.0
 11
71.514715
 21
48.25343
 31
0.0
  0
LINE
  5
696
330
3C8
100
AcDbEntity
  8
0
  6
CONTINUOUS
 62
     7
100
AcDbLine
 10
71.514715
 20
48.25343
 30
0.0
 11
71.516432
 21
48.253314
 31
0.0
  0
LINE
  5
697
330
3C8
100
AcDbEntity
  8
0
  6
CONTINUOUS
 62
     7
100
AcDbLine
 10
71.516432
 20
48.253314
 30
0.0
 11
71.518143
 21
48.253198
 31
0.0
  0
LINE
  5
698
330
3C8
100
AcDbEntity
  8
0
  6
CONTINUOUS
 62
     7
100
AcDbLine
 10
71.518143
 20
48.253198
 30
0.0
 11
71.519847
 21
48.253082
 31
0.0
  0
LINE
  5
699
330
3C8
100
AcDbEntity
  8
0
  6
CONTINUOUS
 62
     7
100
AcDbLine
 10
71.519847
 20
48.253082
 30
0.0
 11
71.521544
 21
48.252967
 31
0.0
  0
LINE
  5
69A
330
3C8
100
AcDbEntity
  8
0
  6
CONTINUOUS
 62
     7
100
AcDbLine
 10
71.521544
 20
48.252967
 30
0.0
 11
71.523233
 21
48.252852
 31
0.0
  0
LINE
  5
69B
330
3C8
100
AcDbEntity
  8
0
  6
CONTINUOUS
 62
     7
100
AcDbLine
 10
71.523233
 20
48.252852
 30
0.0
 11
71.524916
 21
48.252737
 31
0.0
  0
LINE
  5
69C
330
3C8
100
AcDbEntity
  8
0
  6
CONTINUOUS
 62
     7
100
AcDbLine
 10
71.524916
 20
48.252737
 30
0.0
 11
71.528261
 21
48.252509
 31
0.0
  0
LINE
  5
69D
330
3C8
100
AcDbEntity
  8
0
  6
CONTINUOUS
 62
     7
100
AcDbLine
 10
71.528261
 20
48.252509
 30
0.0
 11
71.531578
 21
48.252281
 31
0.0
  0
LINE
  5
69E
330
3C8
100
AcDbEntity
  8
0
  6
CONTINUOUS
 62
     7
100
AcDbLine
 10
71.531578
 20
48.252281
 30
0.0
 11
71.534866
 21
48.252055
 31
0.0
  0
LINE
  5
69F
330
3C8
100
AcDbEntity
  8
0
  6
CONTINUOUS
 62
     7
100
AcDbLine
 10
71.534866
 20
48.252055
 30
0.0
 11
71.538126
 21
48.25183
 31
0.0
  0
LINE
  5
6A0
330
3C8
100
AcDbEntity
  8
0
  6
CONTINUOUS
 62
     7
100
AcDbLine
 10
71.538126
 20
48.25183
 30
0.0
 11
71.541356
 21
48.251606
 31
0.0
  0
LINE
  5
6A1
330
3C8
100
AcDbEntity
  8
0
  6
CONTINUOUS
 62
     7
100
AcDbLine
 10
71.541356
 20
48.251606
 30
0.0
 11
71.544558
 21
48.251383
 31
0.0
  0
LINE
  5
6A2
330
3C8
100
AcDbEntity
  8
0
  6
CONTINUOUS
 62
     7
100
AcDbLine
 10
71.544558
 20
48.251383
 30
0.0
 11
71.547731
 21
48.251162
 31
0.0
  0
LINE
  5
6A3
330
3C8
100
AcDbEntity
  8
0
  6
CONTINUOUS
 62
     7
100
AcDbLine
 10
71.547731
 20
48.251162
 30
0.0
 11
71.550874
 21
48.250942
 31
0.0
  0
LINE
  5
6A4
330
3C8
100
AcDbEntity
  8
0
  6
CONTINUOUS
 62
     7
100
AcDbLine
 10
71.550874
 20
48.250942
 30
0.0
 11
71.553987
 21
48.250724
 31
0.0
  0
LINE
  5
6A5
330
3C8
100
AcDbEntity
  8
0
  6
CONTINUOUS
 62
     7
100
AcDbLine
 10
71.553987
 20
48.250724
 30
0.0
 11
71.557071
 21
48.250506
 31
0.0
  0
LINE
  5
6A6
330
3C8
100
AcDbEntity
  8
0
  6
CONTINUOUS
 62
     7
100
AcDbLine
 10
71.557071
 20
48.250506
 30
0.0
 11
71.560125
 21
48.25029
 31
0.0
  0
LINE
  5
6A7
330
3C8
100
AcDbEntity
  8
0
  6
CONTINUOUS
 62
     7
100
AcDbLine
 10
71.560125
 20
48.25029
 30
0.0
 11
71.563148
 21
48.250076
 31
0.0
  0
LINE
  5
6A8
330
3C8
100
AcDbEntity
  8
0
  6
CONTINUOUS
 62
     7
100
AcDbLine
 10
71.563148
 20
48.250076
 30
0.0
 11
71.566141
 21
48.249863
 31
0.0
  0
LINE
  5
6A9
330
3C8
100
AcDbEntity
  8
0
  6
CONTINUOUS
 62
     7
100
AcDbLine
 10
71.566141
 20
48.249863
 30
0.0
 11
71.569104
 21
48.249651
 31
0.0
  0
LINE
  5
6AA
330
3C8
100
AcDbEntity
  8
0
  6
CONTINUOUS
 62
     7
100
AcDbLine
 10
71.569104
 20
48.249651
 30
0.0
 11
71.572035
 21
48.249441
 31
0.0
  0
LINE
  5
6AB
330
3C8
100
AcDbEntity
  8
0
  6
CONTINUOUS
 62
     7
100
AcDbLine
 10
71.572035
 20
48.249441
 30
0.0
 11
71.574936
 21
48.249233
 31
0.0
  0
LINE
  5
6AC
330
3C8
100
AcDbEntity
  8
0
  6
CONTINUOUS
 62
     7
100
AcDbLine
 10
71.574936
 20
48.249233
 30
0.0
 11
71.577805
 21
48.249026
 31
0.0
  0
LINE
  5
6AD
330
3C8
100
AcDbEntity
  8
0
  6
CONTINUOUS
 62
     7
100
AcDbLine
 10
71.577805
 20
48.249026
 30
0.0
 11
71.580643
 21
48.24882
 31
0.0
  0
LINE
  5
6AE
330
3C8
100
AcDbEntity
  8
0
  6
CONTINUOUS
 62
     7
100
AcDbLine
 10
71.580643
 20
48.24882
 30
0.0
 11
71.583449
 21
48.248616
 31
0.0
  0
LINE
  5
6AF
330
3C8
100
AcDbEntity
  8
0
  6
CONTINUOUS
 62
     7
100
AcDbLine
 10
71.583449
 20
48.248616
 30
0.0
 11
71.586223
 21
48.248414
 31
0.0
  0
LINE
  5
6B0
330
3C8
100
AcDbEntity
  8
0
  6
CONTINUOUS
 62
     7
100
AcDbLine
 10
71.586223
 20
48.248414
 30
0.0
 11
71.588965
 21
48.248213
 31
0.0
  0
LINE
  5
6B1
330
3C8
100
AcDbEntity
  8
0
  6
CONTINUOUS
 62
     7
100
AcDbLine
 10
71.588965
 20
48.248213
 30
0.0
 11
71.591675
 21
48.248014
 31
0.0
  0
LINE
  5
6B2
330
3C8
100
AcDbEntity
  8
0
  6
CONTINUOUS
 62
     7
100
AcDbLine
 10
71.591675
 20
48.248014
 30
0.0
 11
71.594353
 21
48.247817
 31
0.0
  0
LINE
  5
6B3
330
3C8
100
AcDbEntity
  8
0
  6
CONTINUOUS
 62
     7
100
AcDbLine
 10
71.594353
 20
48.247817
 30
0.0
 11
71.596998
 21
48.247621
 31
0.0
  0
LINE
  5
6B4
330
3C8
100
AcDbEntity
  8
0
  6
CONTINUOUS
 62
     7
100
AcDbLine
 10
71.596998
 20
48.247621
 30
0.0
 11
71.59961
 21
48.247427
 31
0.0
  0
LINE
  5
6B5
330
3C8
100
AcDbEntity
  8
0
  6
CONTINUOUS
 62
     7
100
AcDbLine
 10
71.59961
 20
48.247427
 30
0.0
 11
71.602189
 21
48.247235
 31
0.0
  0
LINE
  5
6B6
330
3C8
100
AcDbEntity
  8
0
  6
CONTINUOUS
 62
     7
100
AcDbLine
 10
71.602189
 20
48.247235
 30
0.0
 11
71.604735
 21
48.247045
 31
0.0
  0
LINE
  5
6B7
330
3C8
100
AcDbEntity
  8
0
  6
CONTINUOUS
 62
     7
100
AcDbLine
 10
71.604735
 20
48.247045
 30
0.0
 11
71.607247
 21
48.246856
 31
0.0
  0
LINE
  5
6B8
330
3C8
100
AcDbEntity
  8
0
  6
CONTINUOUS
 62
     7
100
AcDbLine
 10
71.607247
 20
48.246856
 30
0.0
 11
71.609725
 21
48.24667
 31
0.0
  0
LINE
  5
6B9
330
3C8
100
AcDbEntity
  8
0
  6
CONTINUOUS
 62
     7
100
AcDbLine
 10
71.609725
 20
48.24667
 30
0.0
 11
71.61217
 21
48.246485
 31
0.0
  0
LINE
  5
6BA
330
3C8
100
AcDbEntity
  8
0
  6
CONTINUOUS
 62
     7
100
AcDbLine
 10
71.61217
 20
48.246485
 30
0.0
 11
71.614581
 21
48.246302
 31
0.0
  0
LINE
  5
6BB
330
3C8
100
AcDbEntity
  8
0
  6
CONTINUOUS
 62
     7
100
AcDbLine
 10
71.614581
 20
48.246302
 30
0.0
 11
71.616957
 21
48.246121
 31
0.0
  0
LINE
  5
6BC
330
3C8
100
AcDbEntity
  8
0
  6
CONTINUOUS
 62
     7
100
AcDbLine
 10
71.616957
 20
48.246121
 30
0.0
 11
71.619299
 21
48.245942
 31
0.0
  0
LINE
  5
6BD
330
3C8
100
AcDbEntity
  8
0
  6
CONTINUOUS
 62
     7
100
AcDbLine
 10
71.619299
 20
48.245942
 30
0.0
 11
71.621606
 21
48.245765
 31
0.0
  0
LINE
  5
6BE
330
3C8
100
AcDbEntity
  8
0
  6
CONTINUOUS
 62
     7
100
AcDbLine
 10
71.621606
 20
48.245765
 30
0.0
 11
71.6238
 21
48.245596
 31
0.0
  0
LINE
  5
6BF
330
3C8
100
AcDbEntity
  8
0
  6
CONTINUOUS
 62
     7
100
AcDbLine
 10
71.6238
 20
48.245596
 30
0.0
 11
71.625961
 21
48.245429
 31
0.0
  0
LINE
  5
6C0
330
3C8
100
AcDbEntity
  8
0
  6
CONTINUOUS
 62
     7
100
AcDbLine
 10
71.625961
 20
48.245429
 30
0.0
 11
71.628089
 21
48.245263
 31
0.0
  0
LINE
  5
6C1
330
3C8
100
AcDbEntity
  8
0
  6
CONTINUOUS
 62
     7
100
AcDbLine
 10
71.628089
 20
48.245263
 30
0.0
 11
71.630183
 21
48.2451
 31
0.0
  0
LINE
  5
6C2
330
3C8
100
AcDbEntity
  8
0
  6
CONTINUOUS
 62
     7
100
AcDbLine
 10
71.630183
 20
48.2451
 30
0.0
 11
71.632244
 21
48.244939
 31
0.0
  0
LINE
  5
6C3
330
3C8
100
AcDbEntity
  8
0
  6
CONTINUOUS
 62
     7
100
AcDbLine
 10
71.632244
 20
48.244939
 30
0.0
 11
71.63427
 21
48.24478
 31
0.0
  0
LINE
  5
6C4
330
3C8
100
AcDbEntity
  8
0
  6
CONTINUOUS
 62
     7
100
AcDbLine
 10
71.63427
 20
48.24478
 30
0.0
 11
71.636262
 21
48.244623
 31
0.0
  0
LINE
  5
6C5
330
3C8
100
AcDbEntity
  8
0
  6
CONTINUOUS
 62
     7
100
AcDbLine
 10
71.636262
 20
48.244623
 30
0.0
 11
71.638219
 21
48.244468
 31
0.0
  0
LINE
  5
6C6
330
3C8
100
AcDbEntity
  8
0
  6
CONTINUOUS
 62
     7
100
AcDbLine
 10
71.638219
 20
48.244468
 30
0.0
 11
71.640141
 21
48.244316
 31
0.0
  0
LINE
  5
6C7
330
3C8
100
AcDbEntity
  8
0
  6
CONTINUOUS
 62
     7
100
AcDbLine
 10
71.640141
 20
48.244316
 30
0.0
 11
71.642027
 21
48.244166
 31
0.0
  0
LINE
  5
6C8
330
3C8
100
AcDbEntity
  8
0
  6
CONTINUOUS
 62
     7
100
AcDbLine
 10
71.642027
 20
48.244166
 30
0.0
 11
71.643878
 21
48.244018
 31
0.0
  0
LINE
  5
6C9
330
3C8
100
AcDbEntity
  8
0
  6
CONTINUOUS
 62
     7
100
AcDbLine
 10
71.643878
 20
48.244018
 30
0.0
 11
71.645692
 21
48.243873
 31
0.0
  0
LINE
  5
6CA
330
3C8
100
AcDbEntity
  8
0
  6
CONTINUOUS
 62
     7
100
AcDbLine
 10
71.645692
 20
48.243873
 30
0.0
 11
71.64747
 21
48.24373
 31
0.0
  0
LINE
  5
6CB
330
3C8
100
AcDbEntity
  8
0
  6
CONTINUOUS
 62
     7
100
AcDbLine
 10
71.64747
 20
48.24373
 30
0.0
 11
71.649211
 21
48.243589
 31
0.0
  0
LINE
  5
6CC
330
3C8
100
AcDbEntity
  8
0
  6
CONTINUOUS
 62
     7
100
AcDbLine
 10
71.649211
 20
48.243589
 30
0.0
 11
71.650916
 21
48.243452
 31
0.0
  0
LINE
  5
6CD
330
3C8
100
AcDbEntity
  8
0
  6
CONTINUOUS
 62
     7
100
AcDbLine
 10
71.650916
 20
48.243452
 30
0.0
 11
71.652582
 21
48.243316
 31
0.0
  0
LINE
  5
6CE
330
3C8
100
AcDbEntity
  8
0
  6
CONTINUOUS
 62
     7
100
AcDbLine
 10
71.652582
 20
48.243316
 30
0.0
 11
71.654211
 21
48.243184
 31
0.0
  0
LINE
  5
6CF
330
3C8
100
AcDbEntity
  8
0
  6
CONTINUOUS
 62
     7
100
AcDbLine
 10
71.654211
 20
48.243184
 30
0.0
 11
71.655802
 21
48.243054
 31
0.0
  0
LINE
  5
6D0
330
3C8
100
AcDbEntity
  8
0
  6
CONTINUOUS
 62
     7
100
AcDbLine
 10
71.655802
 20
48.243054
 30
0.0
 11
71.657354
 21
48.242927
 31
0.0
  0
LINE
  5
6D1
330
3C8
100
AcDbEntity
  8
0
  6
CONTINUOUS
 62
     7
100
AcDbLine
 10
71.657354
 20
48.242927
 30
0.0
 11
71.658867
 21
48.242803
 31
0.0
  0
LINE
  5
6D2
330
3C8
100
AcDbEntity
  8
0
  6
CONTINUOUS
 62
     7
100
AcDbLine
 10
71.658867
 20
48.242803
 30
0.0
 11
71.660341
 21
48.242681
 31
0.0
  0
LINE
  5
6D3
330
3C8
100
AcDbEntity
  8
0
  6
CONTINUOUS
 62
     7
100
AcDbLine
 10
71.660341
 20
48.242681
 30
0.0
 11
71.661776
 21
48.242563
 31
0.0
  0
LINE
  5
6D4
330
3C8
100
AcDbEntity
  8
0
  6
CONTINUOUS
 62
     7
100
AcDbLine
 10
71.661776
 20
48.242563
 30
0.0
 11
71.663171
 21
48.242448
 31
0.0
  0
LINE
  5
6D5
330
3C8
100
AcDbEntity
  8
0
  6
CONTINUOUS
 62
     7
100
AcDbLine
 10
71.663171
 20
48.242448
 30
0.0
 11
71.664526
 21
48.242335
 31
0.0
  0
LINE
  5
6D6
330
3C8
100
AcDbEntity
  8
0
  6
CONTINUOUS
 62
     7
100
AcDbLine
 10
71.664526
 20
48.242335
 30
0.0
 11
71.665841
 21
48.242226
 31
0.0
  0
LINE
  5
6D7
330
3C8
100
AcDbEntity
  8
0
  6
CONTINUOUS
 62
     7
100
AcDbLine
 10
71.665841
 20
48.242226
 30
0.0
 11
71.667114
 21
48.242119
 31
0.0
  0
LINE
  5
6D8
330
3C8
100
AcDbEntity
  8
0
  6
CONTINUOUS
 62
     7
100
AcDbLine
 10
71.667114
 20
48.242119
 30
0.0
 11
71.669538
 21
48.241917
 31
0.0
  0
LINE
  5
6D9
330
3C8
100
AcDbEntity
  8
0
  6
CONTINUOUS
 62
     7
100
AcDbLine
 10
71.669538
 20
48.241917
 30
0.0
 11
71.671795
 21
48.241727
 31
0.0
  0
LINE
  5
6DA
330
3C8
100
AcDbEntity
  8
0
  6
CONTINUOUS
 62
     7
100
AcDbLine
 10
71.671795
 20
48.241727
 30
0.0
 11
71.673882
 21
48.241551
 31
0.0
  0
LINE
  5
6DB
330
3C8
100
AcDbEntity
  8
0
  6
CONTINUOUS
 62
     7
100
AcDbLine
 10
71.673882
 20
48.241551
 30
0.0
 11
71.675846
 21
48.241384
 31
0.0
  0
LINE
  5
6DC
330
3C8
100
AcDbEntity
  8
0
  6
CONTINUOUS
 62
     7
100
AcDbLine
 10
71.675846
 20
48.241384
 30
0.0
 11
71.677639
 21
48.241231
 31
0.0
  0
LINE
  5
6DD
330
3C8
100
AcDbEntity
  8
0
  6
CONTINUOUS
 62
     7
100
AcDbLine
 10
71.677639
 20
48.241231
 30
0.0
 11
71.679274
 21
48.241091
 31
0.0
  0
LINE
  5
6DE
330
3C8
100
AcDbEntity
  8
0
  6
CONTINUOUS
 62
     7
100
AcDbLine
 10
71.679274
 20
48.241091
 30
0.0
 11
71.680762
 21
48.240963
 31
0.0
  0
LINE
  5
6DF
330
3C8
100
AcDbEntity
  8
0
  6
CONTINUOUS
 62
     7
100
AcDbLine
 10
71.680762
 20
48.240963
 30
0.0
 11
71.682114
 21
48.240846
 31
0.0
  0
LINE
  5
6E0
330
3C8
100
AcDbEntity
  8
0
  6
CONTINUOUS
 62
     7
100
AcDbLine
 10
71.682114
 20
48.240846
 30
0.0
 11
71.683341
 21
48.240739
 31
0.0
  0
LINE
  5
6E1
330
3C8
100
AcDbEntity
  8
0
  6
CONTINUOUS
 62
     7
100
AcDbLine
 10
71.683341
 20
48.240739
 30
0.0
 11
71.684455
 21
48.240642
 31
0.0
  0
LINE
  5
6E2
330
3C8
100
AcDbEntity
  8
0
  6
CONTINUOUS
 62
     7
100
AcDbLine
 10
71.684455
 20
48.240642
 30
0.0
 11
71.685467
 21
48.240552
 31
0.0
  0
LINE
  5
6E3
330
3C8
100
AcDbEntity
  8
0
  6
CONTINUOUS
 62
     7
100
AcDbLine
 10
71.685467
 20
48.240552
 30
0.0
 11
71.686388
 21
48.24047
 31
0.0
  0
LINE
  5
6E4
330
3C8
100
AcDbEntity
  8
0
  6
CONTINUOUS
 62
     7
100
AcDbLine
 10
71.686388
 20
48.24047
 30
0.0
 11
71.68723
 21
48.240394
 31
0.0
  0
LINE
  5
6E5
330
3C8
100
AcDbEntity
  8
0
  6
CONTINUOUS
 62
     7
100
AcDbLine
 10
71.68723
 20
48.240394
 30
0.0
 11
71.688004
 21
48.240324
 31
0.0
  0
LINE
  5
6E6
330
3C8
100
AcDbEntity
  8
0
  6
CONTINUOUS
 62
     7
100
AcDbLine
 10
71.688004
 20
48.240324
 30
0.0
 11
71.688721
 21
48.240258
 31
0.0
  0
LINE
  5
6E7
330
3C8
100
AcDbEntity
  8
0
  6
CONTINUOUS
 62
     7
100
AcDbLine
 10
71.688721
 20
48.240258
 30
0.0
 11
71.690031
 21
48.240136
 31
0.0
  0
LINE
  5
6E8
330
3C8
100
AcDbEntity
  8
0
  6
CONTINUOUS
 62
     7
100
AcDbLine
 10
71.690031
 20
48.240136
 30
0.0
 11
71.69125
 21
48.240022
 31
0.0
  0
ENDBLK
  5
3CA
330
3C8
100
AcDbEntity
  8
0
100
AcDbBlockEnd
  0
BLOCK
  5
719
330
718
100
AcDbEntity
  8
0
100
AcDbBlockBegin
  2
BLKF017
 70
     0
 71
     0
 10
0.0
 20
0.0
 30
0.0
  3
BLKF017
  1

  0
LINE
  5
71C
330
718
100
AcDbEntity
  8
CSLAYER2
  6
CONTINUOUS
 62
     3
100
AcDbLine
 10
56.985429
 20
36.819593
 30
0.0
 11
54.985429
 21
37.355491
 31
0.0
  0
LINE
  5
71D
330
718
100
AcDbEntity
  8
CSLAYER2
  6
CONTINUOUS
 62
     3
100
AcDbLine
 10
54.985429
 20
37.355491
 30
0.0
 11
56.985429
 21
37.891389
 31
0.0
  0
LINE
  5
71E
330
718
100
AcDbEntity
  8
CSLAYER2
  6
CONTINUOUS
 62
     3
100
AcDbLine
 10
54.985429
 20
37.355491
 30
0.0
 11
56.985429
 21
37.355491
 31
0.0
  0
LINE
  5
71F
330
718
100
AcDbEntity
  8
CSLAYER2
  6
CONTINUOUS
 62
     3
100
AcDbLine
 10
64.485429
 20
37.891389
 30
0.0
 11
66.485429
 21
37.355491
 31
0.0
  0
LINE
  5
720
330
718
100
AcDbEntity
  8
CSLAYER2
  6
CONTINUOUS
 62
     3
100
AcDbLine
 10
66.485429
 20
37.355491
 30
0.0
 11
64.485429
 21
36.819593
 31
0.0
  0
LINE
  5
721
330
718
100
AcDbEntity
  8
CSLAYER2
  6
CONTINUOUS
 62
     3
100
AcDbLine
 10
66.485429
 20
37.355491
 30
0.0
 11
64.485429
 21
37.355491
 31
0.0
  0
LINE
  5
722
330
718
100
AcDbEntity
  8
CSLAYER2
  6
CONTINUOUS
 62
     3
100
AcDbLine
 10
54.985429
 20
55.707369
 30
0.0
 11
54.985429
 21
36.555491
 31
0.0
  0
LINE
  5
723
330
718
100
AcDbEntity
  8
CSLAYER2
  6
CONTINUOUS
 62
     3
100
AcDbLine
 10
66.485429
 20
54.030019
 30
0.0
 11
66.485429
 21
36.555491
 31
0.0
  0
LINE
  5
724
330
718
100
AcDbEntity
  8
CSLAYER2
  6
CONTINUOUS
 62
     3
100
AcDbLine
 10
54.985429
 20
37.355491
 30
0.0
 11
66.485429
 21
37.355491
 31
0.0
  0
TEXT
  5
725
330
718
100
AcDbEntity
  8
CSLAYER2
 62
     3
100
AcDbText
 10
56.712513
 20
38.222694
 30
0.0
 40
3.0
  1
11.5
 41
0.877612
  7
ED_VECTOR
 72
     5
 11
65.112513
 21
38.222694
 31
0.0
100
AcDbText
  0
ENDBLK
  5
71A
330
718
100
AcDbEntity
  8
0
100
AcDbBlockEnd
  0
BLOCK
  5
727
330
726
100
AcDbEntity
  8
0
100
AcDbBlockBegin
  2
BLKF018
 70
     0
 71
     0
 10
0.0
 20
0.0
 30
0.0
  3
BLKF018
  1

  0
LINE
  5
72A
330
726
100
AcDbEntity
  8
CSLAYER2
  6
CONTINUOUS
 62
     3
100
AcDbLine
 10
67.556932
 20
29.482394
 30
0.0
 11
69.556932
 21
28.946496
 31
0.0
  0
LINE
  5
72B
330
726
100
AcDbEntity
  8
CSLAYER2
  6
CONTINUOUS
 62
     3
100
AcDbLine
 10
69.556932
 20
28.946496
 30
0.0
 11
67.556932
 21
28.410598
 31
0.0
  0
LINE
  5
72C
330
726
100
AcDbEntity
  8
CSLAYER2
  6
CONTINUOUS
 62
     3
100
AcDbLine
 10
69.556932
 20
28.946496
 30
0.0
 11
67.556932
 21
28.946496
 31
0.0
  0
LINE
  5
72D
330
726
100
AcDbEntity
  8
CSLAYER2
  6
CONTINUOUS
 62
     3
100
AcDbLine
 10
56.985429
 20
28.410598
 30
0.0
 11
54.985429
 21
28.946496
 31
0.0
  0
LINE
  5
72E
330
726
100
AcDbEntity
  8
CSLAYER2
  6
CONTINUOUS
 62
     3
100
AcDbLine
 10
54.985429
 20
28.946496
 30
0.0
 11
56.985429
 21
29.482394
 31
0.0
  0
LINE
  5
72F
330
726
100
AcDbEntity
  8
CSLAYER2
  6
CONTINUOUS
 62
     3
100
AcDbLine
 10
54.985429
 20
28.946496
 30
0.0
 11
56.985429
 21
28.946496
 31
0.0
  0
LINE
  5
730
330
726
100
AcDbEntity
  8
CSLAYER2
  6
CONTINUOUS
 62
     3
100
AcDbLine
 10
69.556932
 20
48.430019
 30
0.0
 11
69.556932
 21
28.146496
 31
0.0
  0
LINE
  5
731
330
726
100
AcDbEntity
  8
CSLAYER2
  6
CONTINUOUS
 62
     3
100
AcDbLine
 10
54.985429
 20
55.707369
 30
0.0
 11
54.985429
 21
28.146496
 31
0.0
  0
LINE
  5
732
330
726
100
AcDbEntity
  8
CSLAYER2
  6
CONTINUOUS
 62
     3
100
AcDbLine
 10
69.556932
 20
28.946496
 30
0.0
 11
54.985429
 21
28.946496
 31
0.0
  0
TEXT
  5
733
330
726
100
AcDbEntity
  8
CSLAYER2
 62
     3
100
AcDbText
 10
55.822147
 20
29.813698
 30
0.0
 40
3.0
  1
(14.6)
 41
0.938298
  7
ED_VECTOR
 72
     5
 11
68.422147
 21
29.813698
 31
0.0
100
AcDbText
  0
ENDBLK
  5
728
330
726
100
AcDbEntity
  8
0
100
AcDbBlockEnd
  0
BLOCK
  5
735
330
734
100
AcDbEntity
  8
0
100
AcDbBlockBegin
  2
BLKF019
 70
     0
 71
     0
 10
0.0
 20
0.0
 30
0.0
  3
BLKF019
  1

  0
LINE
  5
738
330
734
100
AcDbEntity
  8
CSLAYER2
  6
CONTINUOUS
 62
     3
100
AcDbLine
 10
56.985429
 20
20.264102
 30
0.0
 11
54.985429
 21
20.8
 31
0.0
  0
LINE
  5
739
330
734
100
AcDbEntity
  8
CSLAYER2
  6
CONTINUOUS
 62
     3
100
AcDbLine
 10
54.985429
 20
20.8
 30
0.0
 11
56.985429
 21
21.335898
 31
0.0
  0
LINE
  5
73A
330
734
100
AcDbEntity
  8
CSLAYER2
  6
CONTINUOUS
 62
     3
100
AcDbLine
 10
54.985429
 20
20.8
 30
0.0
 11
56.985429
 21
20.8
 31
0.0
  0
LINE
  5
73B
330
734
100
AcDbEntity
  8
CSLAYER2
  6
CONTINUOUS
 62
     3
100
AcDbLine
 10
157.356932
 20
21.335898
 30
0.0
 11
159.356932
 21
20.8
 31
0.0
  0
LINE
  5
73C
330
734
100
AcDbEntity
  8
CSLAYER2
  6
CONTINUOUS
 62
     3
100
AcDbLine
 10
159.356932
 20
20.8
 30
0.0
 11
157.356932
 21
20.264102
 31
0.0
  0
LINE
  5
73D
330
734
100
AcDbEntity
  8
CSLAYER2
  6
CONTINUOUS
 62
     3
100
AcDbLine
 10
159.356932
 20
20.8
 30
0.0
 11
157.356932
 21
20.8
 31
0.0
  0
LINE
  5
73E
330
734
100
AcDbEntity
  8
CSLAYER2
  6
CONTINUOUS
 62
     3
100
AcDbLine
 10
54.985429
 20
55.707369
 30
0.0
 11
54.985429
 21
20.0
 31
0.0
  0
LINE
  5
73F
330
734
100
AcDbEntity
  8
CSLAYER2
  6
CONTINUOUS
 62
     3
100
AcDbLine
 10
159.356932
 20
51.180019
 30
0.0
 11
159.356932
 21
20.0
 31
0.0
  0
LINE
  5
740
330
734
100
AcDbEntity
  8
CSLAYER2
  6
CONTINUOUS
 62
     3
100
AcDbLine
 10
54.985429
 20
20.8
 30
0.0
 11
159.356932
 21
20.8
 31
0.0
  0
TEXT
  5
741
330
734
100
AcDbEntity
  8
CSLAYER2
 62
     3
100
AcDbText
 10
101.379478
 20
21.667204
 30
0.0
 40
3.0
  1
(104.4)
 41
0.902632
  7
ED_VECTOR
 72
     5
 11
116.079478
 21
21.667204
 31
0.0
100
AcDbText
  0
ENDBLK
  5
736
330
734
100
AcDbEntity
  8
0
100
AcDbBlockEnd
  0
BLOCK
  5
743
330
742
100
AcDbEntity
  8
0
100
AcDbBlockBegin
  2
BLKF020
 70
     0
 71
     0
 10
0.0
 20
0.0
 30
0.0
  3
BLKF020
  1

  0
LINE
  5
746
330
742
100
AcDbEntity
  8
CSLAYER2
  6
CONTINUOUS
 62
     3
100
AcDbLine
 10
26.521327
 20
72.140019
 30
0.0
 11
25.985429
 21
70.140019
 31
0.0
  0
LINE
  5
747
330
742
100
AcDbEntity
  8
CSLAYER2
  6
CONTINUOUS
 62
     3
100
AcDbLine
 10
25.985429
 20
70.140019
 30
0.0
 11
25.449531
 21
72.140019
 31
0.0
  0
LINE
  5
748
330
742
100
AcDbEntity
  8
CSLAYER2
  6
CONTINUOUS
 62
     3
100
AcDbLine
 10
25.985429
 20
70.140019
 30
0.0
 11
25.985429
 21
72.140019
 31
0.0
  0
LINE
  5
749
330
742
100
AcDbEntity
  8
CSLAYER2
  6
CONTINUOUS
 62
     3
100
AcDbLine
 10
25.449531
 20
46.140019
 30
0.0
 11
25.985429
 21
48.140019
 31
0.0
  0
LINE
  5
74A
330
742
100
AcDbEntity
  8
CSLAYER2
  6
CONTINUOUS
 62
     3
100
AcDbLine
 10
25.985429
 20
48.140019
 30
0.0
 11
26.521327
 21
46.140019
 31
0.0
  0
LINE
  5
74B
330
742
100
AcDbEntity
  8
CSLAYER2
  6
CONTINUOUS
 62
     3
100
AcDbLine
 10
25.985429
 20
48.140019
 30
0.0
 11
25.985429
 21
46.140019
 31
0.0
  0
LINE
  5
74C
330
742
100
AcDbEntity
  8
CSLAYER2
  6
CONTINUOUS
 62
     3
100
AcDbLine
 10
76.646932
 20
70.140019
 30
0.0
 11
25.185429
 21
70.140019
 31
0.0
  0
LINE
  5
74D
330
742
100
AcDbEntity
  8
CSLAYER2
  6
CONTINUOUS
 62
     3
100
AcDbLine
 10
76.646932
 20
48.140019
 30
0.0
 11
25.185429
 21
48.140019
 31
0.0
  0
LINE
  5
74E
330
742
100
AcDbEntity
  8
CSLAYER2
  6
CONTINUOUS
 62
     3
100
AcDbLine
 10
25.985429
 20
70.140019
 30
0.0
 11
25.985429
 21
73.140019
 31
0.0
  0
LINE
  5
74F
330
742
100
AcDbEntity
  8
CSLAYER2
  6
CONTINUOUS
 62
     3
100
AcDbLine
 10
25.985429
 20
70.140019
 30
0.0
 11
25.985429
 21
48.140019
 31
0.0
  0
LINE
  5
750
330
742
100
AcDbEntity
  8
CSLAYER2
  6
CONTINUOUS
 62
     3
100
AcDbLine
 10
25.985429
 20
48.140019
 30
0.0
 11
25.985429
 21
45.140019
 31
0.0
  0
TEXT
  5
751
330
742
100
AcDbEntity
  8
CSLAYER2
 62
     3
100
AcDbText
 10
25.118225
 20
51.077728
 30
0.0
 40
3.0
  1
%%c
 50
90.0
 41
0.864706
  7
ED_VECTOR
 72
     5
 11
25.118225
 21
53.177728
 31
0.0
100
AcDbText
  0
TEXT
  5
752
330
742
100
AcDbEntity
  8
CSLAYER2
 62
     3
100
AcDbText
 10
25.118225
 20
54.39481
 30
0.0
 40
3.0
  1
22
 50
90.0
 41
0.794595
  7
ED_VECTOR
 72
     5
 11
25.118225
 21
58.59481
 31
0.0
100
AcDbText
  0
TEXT
  5
753
330
742
100
AcDbEntity
  8
CSLAYER2
 62
     3
100
AcDbText
 10
25.193333
 20
61.048977
 30
0.0
 40
2.4
  1
-
 50
90.0
 41
0.668182
  7
ED_VECTOR
 72
     5
 11
25.193333
 21
62.728977
 31
0.0
100
AcDbText
  0
TEXT
  5
754
330
742
100
AcDbEntity
  8
CSLAYER2
 62
     3
100
AcDbText
 10
22.4
 20
62.445644
 30
0.0
 40
2.4
  1
0
 50
90.0
 41
0.864706
  7
ED_VECTOR
 72
     5
 11
22.4
 21
64.125644
 31
0.0
100
AcDbText
  0
TEXT
  5
755
330
742
100
AcDbEntity
  8
CSLAYER2
 62
     3
100
AcDbText
 10
25.193333
 20
62.445644
 30
0.0
 40
2.4
  1
0.01
 50
90.0
 41
0.963934
  7
ED_VECTOR
 72
     5
 11
25.193333
 21
69.165644
 31
0.0
100
AcDbText
  0
ENDBLK
  5
744
330
742
100
AcDbEntity
  8
0
100
AcDbBlockEnd
  0
BLOCK
  5
757
330
756
100
AcDbEntity
  8
0
100
AcDbBlockBegin
  2
BLKF021
 70
     0
 71
     0
 10
0.0
 20
0.0
 30
0.0
  3
BLKF021
  1

  0
LINE
  5
75A
330
756
100
AcDbEntity
  8
CSLAYER2
  6
CONTINUOUS
 62
     3
100
AcDbLine
 10
32.81147
 20
51.240019
 30
0.0
 11
33.347368
 21
53.240019
 31
0.0
  0
LINE
  5
75B
330
756
100
AcDbEntity
  8
CSLAYER2
  6
CONTINUOUS
 62
     3
100
AcDbLine
 10
33.347368
 20
53.240019
 30
0.0
 11
33.883266
 21
51.240019
 31
0.0
  0
LINE
  5
75C
330
756
100
AcDbEntity
  8
CSLAYER2
  6
CONTINUOUS
 62
     3
100
AcDbLine
 10
33.347368
 20
53.240019
 30
0.0
 11
33.347368
 21
51.240019
 31
0.0
  0
LINE
  5
75D
330
756
100
AcDbEntity
  8
CSLAYER2
  6
CONTINUOUS
 62
     3
100
AcDbLine
 10
33.883266
 20
67.040019
 30
0.0
 11
33.347368
 21
65.040019
 31
0.0
  0
LINE
  5
75E
330
756
100
AcDbEntity
  8
CSLAYER2
  6
CONTINUOUS
 62
     3
100
AcDbLine
 10
33.347368
 20
65.040019
 30
0.0
 11
32.81147
 21
67.040019
 31
0.0
  0
LINE
  5
75F
330
756
100
AcDbEntity
  8
CSLAYER2
  6
CONTINUOUS
 62
     3
100
AcDbLine
 10
33.347368
 20
65.040019
 30
0.0
 11
33.347368
 21
67.040019
 31
0.0
  0
LINE
  5
760
330
756
100
AcDbEntity
  8
CSLAYER2
  6
CONTINUOUS
 62
     3
100
AcDbLine
 10
58.534275
 20
53.240019
 30
0.0
 11
32.547368
 21
53.240019
 31
0.0
  0
LINE
  5
761
330
756
100
AcDbEntity
  8
CSLAYER2
  6
CONTINUOUS
 62
     3
100
AcDbLine
 10
58.534275
 20
65.040019
 30
0.0
 11
32.547368
 21
65.040019
 31
0.0
  0
LINE
  5
762
330
756
100
AcDbEntity
  8
CSLAYER2
  6
CONTINUOUS
 62
     3
100
AcDbLine
 10
33.347368
 20
53.240019
 30
0.0
 11
33.347368
 21
50.240019
 31
0.0
  0
LINE
  5
763
330
756
100
AcDbEntity
  8
CSLAYER2
  6
CONTINUOUS
 62
     3
100
AcDbLine
 10
33.347368
 20
53.240019
 30
0.0
 11
33.347368
 21
65.040019
 31
0.0
  0
LINE
  5
764
330
756
100
AcDbEntity
  8
CSLAYER2
  6
CONTINUOUS
 62
     3
100
AcDbLine
 10
33.347368
 20
65.040019
 30
0.0
 11
33.347368
 21
68.040019
 31
0.0
  0
TEXT
  5
765
330
756
100
AcDbEntity
  8
CSLAYER2
 62
     3
100
AcDbText
 10
32.480164
 20
53.458561
 30
0.0
 40
3.0
  1
%%c
 50
90.0
 41
0.864706
  7
ED_VECTOR
 72
     5
 11
32.480164
 21
55.558561
 31
0.0
100
AcDbText
  0
TEXT
  5
766
330
756
100
AcDbEntity
  8
CSLAYER2
 62
     3
100
AcDbText
 10
32.480164
 20
56.775642
 30
0.0
 40
3.0
  1
11.8
 50
90.0
 41
0.877612
  7
ED_VECTOR
 72
     5
 11
32.480164
 21
65.175642
 31
0.0
100
AcDbText
  0
ENDBLK
  5
758
330
756
100
AcDbEntity
  8
0
100
AcDbBlockEnd
  0
BLOCK
  5
768
330
767
100
AcDbEntity
  8
0
100
AcDbBlockBegin
  2
BLKF022
 70
     0
 71
     0
 10
0.0
 20
0.0
 30
0.0
  3
BLKF022
  1

  0
LINE
  5
76B
330
767
100
AcDbEntity
  8
CSLAYER2
  6
CONTINUOUS
 62
     3
100
AcDbLine
 10
149.256932
 20
29.482394
 30
0.0
 11
151.256932
 21
28.946496
 31
0.0
  0
LINE
  5
76C
330
767
100
AcDbEntity
  8
CSLAYER2
  6
CONTINUOUS
 62
     3
100
AcDbLine
 10
151.256932
 20
28.946496
 30
0.0
 11
149.256932
 21
28.410598
 31
0.0
  0
LINE
  5
76D
330
767
100
AcDbEntity
  8
CSLAYER2
  6
CONTINUOUS
 62
     3
100
AcDbLine
 10
151.256932
 20
28.946496
 30
0.0
 11
149.256932
 21
28.946496
 31
0.0
  0
LINE
  5
76E
330
767
100
AcDbEntity
  8
CSLAYER2
  6
CONTINUOUS
 62
     3
100
AcDbLine
 10
161.356932
 20
28.410598
 30
0.0
 11
159.356932
 21
28.946496
 31
0.0
  0
LINE
  5
76F
330
767
100
AcDbEntity
  8
CSLAYER2
  6
CONTINUOUS
 62
     3
100
AcDbLine
 10
159.356932
 20
28.946496
 30
0.0
 11
161.356932
 21
29.482394
 31
0.0
  0
LINE
  5
770
330
767
100
AcDbEntity
  8
CSLAYER2
  6
CONTINUOUS
 62
     3
100
AcDbLine
 10
159.356932
 20
28.946496
 30
0.0
 11
161.356932
 21
28.946496
 31
0.0
  0
LINE
  5
771
330
767
100
AcDbEntity
  8
CSLAYER2
  6
CONTINUOUS
 62
     3
100
AcDbLine
 10
151.256932
 20
48.280019
 30
0.0
 11
151.256932
 21
28.146496
 31
0.0
  0
LINE
  5
772
330
767
100
AcDbEntity
  8
CSLAYER2
  6
CONTINUOUS
 62
     3
100
AcDbLine
 10
159.356932
 20
51.180019
 30
0.0
 11
159.356932
 21
28.146496
 31
0.0
  0
LINE
  5
773
330
767
100
AcDbEntity
  8
CSLAYER2
  6
CONTINUOUS
 62
     3
100
AcDbLine
 10
151.256932
 20
28.946496
 30
0.0
 11
148.256932
 21
28.946496
 31
0.0
  0
LINE
  5
774
330
767
100
AcDbEntity
  8
CSLAYER2
  6
CONTINUOUS
 62
     3
100
AcDbLine
 10
151.256932
 20
28.946496
 30
0.0
 11
159.356932
 21
28.946496
 31
0.0
  0
LINE
  5
775
330
767
100
AcDbEntity
  8
CSLAYER2
  6
CONTINUOUS
 62
     3
100
AcDbLine
 10
159.356932
 20
28.946496
 30
0.0
 11
162.356932
 21
28.946496
 31
0.0
  0
TEXT
  5
776
330
767
100
AcDbEntity
  8
CSLAYER2
 62
     3
100
AcDbText
 10
152.156937
 20
29.813698
 30
0.0
 40
3.0
  1
8.1
 41
1.07561
  7
ED_VECTOR
 72
     5
 11
158.456936
 21
29.813698
 31
0.0
100
AcDbText
  0
ENDBLK
  5
769
330
767
100
AcDbEntity
  8
0
100
AcDbBlockEnd
  0
BLOCK
  5
778
330
777
100
AcDbEntity
  8
0
100
AcDbBlockBegin
  2
BLKF023
 70
     0
 71
     0
 10
0.0
 20
0.0
 30
0.0
  3
BLKF023
  1

  0
LINE
  5
77B
330
777
100
AcDbEntity
  8
CSLAYER2
  6
CONTINUOUS
 62
     3
100
AcDbLine
 10
71.556932
 20
28.410598
 30
0.0
 11
69.556932
 21
28.946496
 31
0.0
  0
LINE
  5
77C
330
777
100
AcDbEntity
  8
CSLAYER2
  6
CONTINUOUS
 62
     3
100
AcDbLine
 10
69.556932
 20
28.946496
 30
0.0
 11
71.556932
 21
29.482394
 31
0.0
  0
LINE
  5
77D
330
777
100
AcDbEntity
  8
CSLAYER2
  6
CONTINUOUS
 62
     3
100
AcDbLine
 10
69.556932
 20
28.946496
 30
0.0
 11
71.556932
 21
28.946496
 31
0.0
  0
LINE
  5
77E
330
777
100
AcDbEntity
  8
CSLAYER2
  6
CONTINUOUS
 62
     3
100
AcDbLine
 10
149.256932
 20
29.482394
 30
0.0
 11
151.256932
 21
28.946496
 31
0.0
  0
LINE
  5
77F
330
777
100
AcDbEntity
  8
CSLAYER2
  6
CONTINUOUS
 62
     3
100
AcDbLine
 10
151.256932
 20
28.946496
 30
0.0
 11
149.256932
 21
28.410598
 31
0.0
  0
LINE
  5
780
330
777
100
AcDbEntity
  8
CSLAYER2
  6
CONTINUOUS
 62
     3
100
AcDbLine
 10
151.256932
 20
28.946496
 30
0.0
 11
149.256932
 21
28.946496
 31
0.0
  0
LINE
  5
781
330
777
100
AcDbEntity
  8
CSLAYER2
  6
CONTINUOUS
 62
     3
100
AcDbLine
 10
69.556932
 20
48.430019
 30
0.0
 11
69.556932
 21
28.146496
 31
0.0
  0
LINE
  5
782
330
777
100
AcDbEntity
  8
CSLAYER2
  6
CONTINUOUS
 62
     3
100
AcDbLine
 10
151.256932
 20
48.280019
 30
0.0
 11
151.256932
 21
28.146496
 31
0.0
  0
LINE
  5
783
330
777
100
AcDbEntity
  8
CSLAYER2
  6
CONTINUOUS
 62
     3
100
AcDbLine
 10
69.556932
 20
28.946496
 30
0.0
 11
151.256932
 21
28.946496
 31
0.0
  0
TEXT
  5
784
330
777
100
AcDbEntity
  8
CSLAYER2
 62
     3
100
AcDbText
 10
106.384018
 20
29.813698
 30
0.0
 40
3.0
  1
81.7
 41
0.877612
  7
ED_VECTOR
 72
     5
 11
114.784018
 21
29.813698
 31
0.0
100
AcDbText
  0
ENDBLK
  5
779
330
777
100
AcDbEntity
  8
0
100
AcDbBlockEnd
  0
ENDSEC
  0
SECTION
  2
ENTITIES
  0
LINE
  5
6F
330
1F
100
AcDbEntity
  8
0
  6
CONTINUOUS
 62
     7
100
AcDbLine
 10
66.856932
 20
54.440019
 30
0.0
 11
66.956932
 21
54.540019
 31
0.0
  0
LINE
  5
70
330
1F
100
AcDbEntity
  8
0
  6
CONTINUOUS
 62
     7
100
AcDbLine
 10
66.956932
 20
63.740019
 30
0.0
 11
66.856932
 21
63.840019
 31
0.0
  0
LINE
  5
71
330
1F
100
AcDbEntity
  8
0
  6
CONTINUOUS
 62
     7
100
AcDbLine
 10
66.485429
 20
54.440019
 30
0.0
 11
66.856932
 21
54.440019
 31
0.0
  0
LINE
  5
72
330
1F
100
AcDbEntity
  8
0
  6
CONTINUOUS
 62
     7
100
AcDbLine
 10
66.856932
 20
63.840019
 30
0.0
 11
66.485429
 21
63.840019
 31
0.0
  0
LINE
  5
73
330
1F
100
AcDbEntity
  8
0
  6
CONTINUOUS
 62
     7
100
AcDbLine
 10
69.456932
 20
54.540019
 30
0.0
 11
69.556932
 21
54.540019
 31
0.0
  0
LINE
  5
74
330
1F
100
AcDbEntity
  8
0
  6
CONTINUOUS
 62
     7
100
AcDbLine
 10
66.956932
 20
54.540019
 30
0.0
 11
67.056932
 21
54.540019
 31
0.0
  0
LINE
  5
75
330
1F
100
AcDbEntity
  8
0
  6
CONTINUOUS
 62
     7
100
AcDbLine
 10
67.056932
 20
63.740019
 30
0.0
 11
66.956932
 21
63.740019
 31
0.0
  0
LINE
  5
76
330
1F
100
AcDbEntity
  8
0
  6
CONTINUOUS
 62
     7
100
AcDbLine
 10
69.556932
 20
63.740019
 30
0.0
 11
69.456932
 21
63.740019
 31
0.0
  0
LINE
  5
77
330
1F
100
AcDbEntity
  8
0
  6
CONTINUOUS
 62
     7
100
AcDbLine
 10
151.156935
 20
48.190019
 30
0.0
 11
151.25693
 21
48.290018
 31
0.0
  0
LINE
  5
78
330
1F
100
AcDbEntity
  8
0
  6
CONTINUOUS
 62
     7
100
AcDbLine
 10
151.25693
 20
69.990019
 30
0.0
 11
151.156935
 21
70.090019
 31
0.0
  0
LINE
  5
79
330
1F
100
AcDbEntity
  8
0
  6
CONTINUOUS
 62
     7
100
AcDbLine
 10
150.942932
 20
48.190019
 30
0.0
 11
151.156935
 21
48.190019
 31
0.0
  0
LINE
  5
7A
330
1F
100
AcDbEntity
  8
0
  6
CONTINUOUS
 62
     7
100
AcDbLine
 10
149.05693
 20
48.190019
 30
0.0
 11
149.271015
 21
48.190019
 31
0.0
  0
LINE
  5
7B
330
1F
100
AcDbEntity
  8
0
  6
CONTINUOUS
 62
     7
100
AcDbLine
 10
149.27094
 20
70.090019
 30
0.0
 11
149.05693
 21
70.090019
 31
0.0
  0
LINE
  5
7C
330
1F
100
AcDbEntity
  8
0
  6
CONTINUOUS
 62
     7
100
AcDbLine
 10
151.156935
 20
70.090019
 30
0.0
 11
150.942895
 21
70.090019
 31
0.0
  0
LINE
  5
7D
330
1F
100
AcDbEntity
  8
0
  6
CONTINUOUS
 62
     7
100
AcDbLine
 10
149.05693
 20
70.090019
 30
0.0
 11
148.956935
 21
69.990019
 31
0.0
  0
LINE
  5
7E
330
1F
100
AcDbEntity
  8
0
  6
CONTINUOUS
 62
     7
100
AcDbLine
 10
148.956935
 20
48.290018
 30
0.0
 11
149.05693
 21
48.190019
 31
0.0
  0
LINE
  5
7F
330
1F
100
AcDbEntity
  8
0
  6
CONTINUOUS
 62
     7
100
AcDbLine
 10
152.556929
 20
50.690019
 30
0.0
 11
155.056934
 21
50.690019
 31
0.0
  0
LINE
  5
80
330
1F
100
AcDbEntity
  8
0
  6
CONTINUOUS
 62
     7
100
AcDbLine
 10
155.056934
 20
67.590018
 30
0.0
 11
152.556929
 21
67.590018
 31
0.0
  0
LINE
  5
81
330
1F
100
AcDbEntity
  8
0
  6
CONTINUOUS
 62
     7
100
AcDbLine
 10
155.056934
 20
50.690019
 30
0.0
 11
155.356932
 21
50.990019
 31
0.0
  0
LINE
  5
82
330
1F
100
AcDbEntity
  8
0
  6
CONTINUOUS
 62
     7
100
AcDbLine
 10
155.356932
 20
67.290019
 30
0.0
 11
155.056934
 21
67.590018
 31
0.0
  0
LINE
  5
83
330
1F
100
AcDbEntity
  8
0
  6
CONTINUOUS
 62
     7
100
AcDbLine
 10
159.156929
 20
50.990019
 30
0.0
 11
159.356933
 21
51.190018
 31
0.0
  0
LINE
  5
84
330
1F
100
AcDbEntity
  8
0
  6
CONTINUOUS
 62
     7
100
AcDbLine
 10
159.356933
 20
67.090019
 30
0.0
 11
159.156929
 21
67.290019
 31
0.0
  0
LINE
  5
85
330
1F
100
AcDbEntity
  8
0
  6
CONTINUOUS
 62
     7
100
AcDbLine
 10
155.356932
 20
50.990019
 30
0.0
 11
159.156929
 21
50.990019
 31
0.0
  0
LINE
  5
86
330
1F
100
AcDbEntity
  8
0
  6
CONTINUOUS
 62
     7
100
AcDbLine
 10
159.156929
 20
67.290019
 30
0.0
 11
155.356932
 21
67.290019
 31
0.0
  0
LINE
  5
87
330
1F
100
AcDbEntity
  8
0
  6
CONTINUOUS
 62
     7
100
AcDbLine
 10
152.256932
 20
51.140018
 30
0.0
 11
152.556929
 21
51.140018
 31
0.0
  0
LINE
  5
88
330
1F
100
AcDbEntity
  8
0
  6
CONTINUOUS
 62
     7
100
AcDbLine
 10
152.556929
 20
67.140019
 30
0.0
 11
152.256932
 21
67.140019
 31
0.0
  0
LINE
  5
89
330
1F
100
AcDbEntity
  8
0
  6
CONTINUOUS
 62
     7
100
AcDbLine
 10
69.756932
 20
70.040019
 30
0.0
 11
69.556932
 21
69.840019
 31
0.0
  0
LINE
  5
8A
330
1F
100
AcDbEntity
  8
0
  6
CONTINUOUS
 62
     7
100
AcDbLine
 10
69.556932
 20
48.440018
 30
0.0
 11
69.756932
 21
48.240019
 31
0.0
  0
LINE
  5
8B
330
1F
100
AcDbEntity
  8
0
  6
CONTINUOUS
 62
     7
100
AcDbLine
 10
71.856932
 20
48.240019
 30
0.0
 11
71.956932
 21
48.340018
 31
0.0
  0
LINE
  5
8C
330
1F
100
AcDbEntity
  8
0
  6
CONTINUOUS
 62
     7
100
AcDbLine
 10
71.956932
 20
69.940019
 30
0.0
 11
71.856932
 21
70.040019
 31
0.0
  0
LINE
  5
8D
330
1F
100
AcDbEntity
  8
0
  6
CONTINUOUS
 62
     7
100
AcDbLine
 10
71.69125
 20
48.240019
 30
0.0
 11
71.856932
 21
48.240019
 31
0.0
  0
LINE
  5
8E
330
1F
100
AcDbEntity
  8
0
  6
CONTINUOUS
 62
     7
100
AcDbLine
 10
69.756932
 20
48.240019
 30
0.0
 11
69.822586
 21
48.240019
 31
0.0
  0
LINE
  5
8F
330
1F
100
AcDbEntity
  8
0
  6
CONTINUOUS
 62
     7
100
AcDbLine
 10
69.822586
 20
70.040019
 30
0.0
 11
69.756932
 21
70.040019
 31
0.0
  0
LINE
  5
90
330
1F
100
AcDbEntity
  8
0
  6
CONTINUOUS
 62
     7
100
AcDbLine
 10
71.856932
 20
70.040019
 30
0.0
 11
71.69125
 21
70.040019
 31
0.0
  0
LINE
  5
91
330
1F
100
AcDbEntity
  8
0
  6
CONTINUOUS
 62
     7
100
AcDbLine
 10
71.956932
 20
50.190019
 30
0.0
 11
72.156932
 21
50.190019
 31
0.0
  0
LINE
  5
92
330
1F
100
AcDbEntity
  8
0
  6
CONTINUOUS
 62
     7
100
AcDbLine
 10
72.156932
 20
68.090018
 30
0.0
 11
71.956932
 21
68.090018
 31
0.0
  0
LINE
  5
93
330
1F
100
AcDbEntity
  8
0
  6
CONTINUOUS
 62
     7
100
AcDbLine
 10
76.656932
 20
48.140019
 30
0.0
 11
133.656933
 21
48.140019
 31
0.0
  0
LINE
  5
94
330
1F
100
AcDbEntity
  8
0
  6
CONTINUOUS
 62
     7
100
AcDbLine
 10
133.656933
 20
70.140019
 30
0.0
 11
76.656932
 21
70.140019
 31
0.0
  0
LINE
  5
95
330
1F
100
AcDbEntity
  8
0
  6
CONTINUOUS
 62
     7
100
AcDbLine
 10
73.503196
 20
48.150018
 30
0.0
 11
76.656932
 21
48.150018
 31
0.0
  0
LINE
  5
96
330
1F
100
AcDbEntity
  8
0
  6
CONTINUOUS
 62
     7
100
AcDbLine
 10
76.656932
 20
70.130019
 30
0.0
 11
73.503196
 21
70.130019
 31
0.0
  0
LINE
  5
97
330
1F
100
AcDbEntity
  8
0
  6
CONTINUOUS
 62
     7
100
AcDbLine
 10
133.656933
 20
48.150018
 30
0.0
 11
148.856934
 21
48.150018
 31
0.0
  0
LINE
  5
98
330
1F
100
AcDbEntity
  8
0
  6
CONTINUOUS
 62
     7
100
AcDbLine
 10
148.856934
 20
70.130019
 30
0.0
 11
133.656933
 21
70.130019
 31
0.0
  0
LINE
  5
99
330
1F
100
AcDbEntity
  8
0
  6
CONTINUOUS
 62
     7
100
AcDbLine
 10
148.856934
 20
48.150018
 30
0.0
 11
148.956935
 21
48.250019
 31
0.0
  0
LINE
  5
9A
330
1F
100
AcDbEntity
  8
0
  6
CONTINUOUS
 62
     7
100
AcDbLine
 10
148.956935
 20
70.030018
 30
0.0
 11
148.856934
 21
70.130019
 31
0.0
  0
LINE
  5
9B
330
1F
100
AcDbEntity
  8
0
  6
CONTINUOUS
 62
     7
100
AcDbLine
 10
73.503196
 20
70.130019
 30
0.0
 11
72.156932
 21
69.640019
 31
0.0
  0
LINE
  5
9C
330
1F
100
AcDbEntity
  8
0
  6
CONTINUOUS
 62
     7
100
AcDbLine
 10
72.156932
 20
48.640019
 30
0.0
 11
73.503196
 21
48.150018
 31
0.0
  0
ARC
  5
9D
330
1F
100
AcDbEntity
  8
0
  6
CONTINUOUS
 62
     7
100
AcDbCircle
 10
45.185429
 20
60.440019
 30
0.0
 40
0.2000000000000028
100
AcDbArc
 50
90.0
 51
180.0
  0
ARC
  5
9E
330
1F
100
AcDbEntity
  8
0
  6
CONTINUOUS
 62
     7
100
AcDbCircle
 10
45.185429
 20
57.840019
 30
0.0
 40
0.2000000000000028
100
AcDbArc
 50
180.0
 51
270.0
  0
LINE
  5
9F
330
1F
100
AcDbEntity
  8
0
  6
CONTINUOUS
 62
     7
100
AcDbLine
 10
45.18543
 20
57.640019
 30
0.0
 11
54.98543
 21
57.640019
 31
0.0
  0
LINE
  5
A0
330
1F
100
AcDbEntity
  8
0
  6
CONTINUOUS
 62
     7
100
AcDbLine
 10
54.98543
 20
60.640019
 30
0.0
 11
45.18543
 21
60.640019
 31
0.0
  0
LINE
  5
A1
330
1F
100
AcDbEntity
  8
0
  6
CONTINUOUS
 62
     7
100
AcDbLine
 10
58.835832
 20
53.240018
 30
0.0
 11
58.985429
 21
53.390018
 31
0.0
  0
LINE
  5
A2
330
1F
100
AcDbEntity
  8
0
  6
CONTINUOUS
 62
     7
100
AcDbLine
 10
58.985429
 20
64.890019
 30
0.0
 11
58.835832
 21
65.040019
 31
0.0
  0
LINE
  5
A3
330
1F
100
AcDbEntity
  8
0
  6
CONTINUOUS
 62
     7
100
AcDbLine
 10
62.135832
 20
53.240018
 30
0.0
 11
65.685429
 21
53.240018
 31
0.0
  0
LINE
  5
A4
330
1F
100
AcDbEntity
  8
0
  6
CONTINUOUS
 62
     7
100
AcDbLine
 10
65.685429
 20
65.040019
 30
0.0
 11
62.135832
 21
65.040019
 31
0.0
  0
LINE
  5
A5
330
1F
100
AcDbEntity
  8
0
  6
CONTINUOUS
 62
     7
100
AcDbLine
 10
58.544275
 20
53.240018
 30
0.0
 11
58.835832
 21
53.240018
 31
0.0
  0
LINE
  5
A6
330
1F
100
AcDbEntity
  8
0
  6
CONTINUOUS
 62
     7
100
AcDbLine
 10
58.835832
 20
65.040019
 30
0.0
 11
58.544275
 21
65.040019
 31
0.0
  0
ARC
  5
A7
330
1F
100
AcDbEntity
  8
0
  6
CONTINUOUS
 62
     7
100
AcDbCircle
 10
65.685429
 20
64.240019
 30
0.0
 40
0.8000000000000114
100
AcDbArc
 50
0.0
 51
90.0
  0
ARC
  5
A8
330
1F
100
AcDbEntity
  8
0
  6
CONTINUOUS
 62
     7
100
AcDbCircle
 10
65.685429
 20
54.040019
 30
0.0
 40
0.8000000000000114
100
AcDbArc
 50
270.0
 51
360.0
  0
ARC
  5
A9
330
1F
100
AcDbEntity
  8
0
  6
CONTINUOUS
 62
     7
100
AcDbCircle
 10
58.544275
 20
64.040019
 30
0.0
 40
1.0
100
AcDbArc
 50
90.0
 51
120.0
  0
ARC
  5
AA
330
1F
100
AcDbEntity
  8
0
  6
CONTINUOUS
 62
     7
100
AcDbCircle
 10
58.544275
 20
54.240019
 30
0.0
 40
1.0
100
AcDbArc
 50
240.0
 51
270.0
  0
LINE
  5
AB
330
1F
100
AcDbEntity
  8
0
  6
CONTINUOUS
 62
     7
100
AcDbLine
 10
62.135832
 20
65.040019
 30
0.0
 11
61.985429
 21
64.890019
 31
0.0
  0
LINE
  5
AC
330
1F
100
AcDbEntity
  8
0
  6
CONTINUOUS
 62
     7
100
AcDbLine
 10
61.985429
 20
53.390018
 30
0.0
 11
62.135832
 21
53.240018
 31
0.0
  0
LINE
  5
AD
330
1F
100
AcDbEntity
  8
0
  6
CONTINUOUS
 62
     7
100
AcDbLine
 10
58.044275
 20
64.906044
 30
0.0
 11
55.485429
 21
63.428694
 31
0.0
  0
LINE
  5
AE
330
1F
100
AcDbEntity
  8
0
  6
CONTINUOUS
 62
     7
100
AcDbLine
 10
55.485429
 20
54.851343
 30
0.0
 11
58.044275
 21
53.373993
 31
0.0
  0
ARC
  5
AF
330
1F
100
AcDbEntity
  8
0
  6
CONTINUOUS
 62
     7
100
AcDbCircle
 10
55.985429
 20
55.717369
 30
0.0
 40
1.000000000000008
100
AcDbArc
 50
180.0
 51
240.0
  0
ARC
  5
B0
330
1F
100
AcDbEntity
  8
0
  6
CONTINUOUS
 62
     7
100
AcDbCircle
 10
55.985429
 20
62.562668
 30
0.0
 40
1.0
100
AcDbArc
 50
120.0
 51
180.0
  0
ARC
  5
B1
330
1F
100
AcDbEntity
  8
0
  6
CONTINUOUS
 62
     7
100
AcDbCircle
 10
151.756932
 20
67.640019
 30
0.0
 40
0.5
100
AcDbArc
 50
0.0
 51
180.0
  0
ARC
  5
B2
330
1F
100
AcDbEntity
  8
0
  6
CONTINUOUS
 62
     7
100
AcDbCircle
 10
151.756932
 20
50.640019
 30
0.0
 40
0.5
100
AcDbArc
 50
180.0
 51
360.0
  0
LINE
  5
B3
330
1F
100
AcDbEntity
  8
0
  6
CONTINUOUS
 62
     7
100
AcDbLine
 10
152.256932
 20
50.640018
 30
0.0
 11
152.256932
 21
67.640019
 31
0.0
  0
LINE
  5
B4
330
1F
100
AcDbEntity
  8
0
  6
CONTINUOUS
 62
     7
100
AcDbLine
 10
66.956932
 20
54.540019
 30
0.0
 11
66.956932
 21
63.740019
 31
0.0
  0
LINE
  5
B5
330
1F
100
AcDbEntity
  8
0
  6
CONTINUOUS
 62
     7
100
AcDbLine
 10
67.056932
 20
63.740019
 30
0.0
 11
67.056932
 21
63.140019
 31
0.0
  0
LINE
  5
B6
330
1F
100
AcDbEntity
  8
0
  6
CONTINUOUS
 62
     7
100
AcDbLine
 10
69.456932
 20
63.140019
 30
0.0
 11
67.056932
 21
63.140019
 31
0.0
  0
LINE
  5
B7
330
1F
100
AcDbEntity
  8
0
  6
CONTINUOUS
 62
     7
100
AcDbLine
 10
69.456932
 20
63.740019
 30
0.0
 11
69.456932
 21
63.140019
 31
0.0
  0
LINE
  5
B8
330
1F
100
AcDbEntity
  8
0
  6
CONTINUOUS
 62
     7
100
AcDbLine
 10
67.056932
 20
55.140018
 30
0.0
 11
67.056932
 21
54.540019
 31
0.0
  0
LINE
  5
B9
330
1F
100
AcDbEntity
  8
0
  6
CONTINUOUS
 62
     7
100
AcDbLine
 10
69.456932
 20
55.140018
 30
0.0
 11
69.456932
 21
54.540019
 31
0.0
  0
LINE
  5
BA
330
1F
100
AcDbEntity
  8
0
  6
CONTINUOUS
 62
     7
100
AcDbLine
 10
69.456932
 20
55.140018
 30
0.0
 11
67.056932
 21
55.140018
 31
0.0
  0
LINE
  5
BB
330
1F
100
AcDbEntity
  8
0
  6
CONTINUOUS
 62
     7
100
AcDbLine
 10
151.25693
 20
69.990019
 30
0.0
 11
151.25693
 21
48.290018
 31
0.0
  0
INSERT
  5
BF
330
1F
100
AcDbEntity
  8
0
100
AcDbBlockReference
  2
BLKF011
 10
0.0
 20
0.0
 30
0.0
  0
LINE
  5
ED
330
1F
100
AcDbEntity
  8
0
  6
CONTINUOUS
 62
     7
100
AcDbLine
 10
150.019977
 20
70.058159
 30
0.0
 11
150.107387
 21
70.057508
 31
0.0
  0
INSERT
  5
F1
330
1F
100
AcDbEntity
  8
0
100
AcDbBlockReference
  2
BLKF012
 10
0.0
 20
0.0
 30
0.0
  0
INSERT
  5
231
330
1F
100
AcDbEntity
  8
0
100
AcDbBlockReference
  2
BLKF013
 10
0.0
 20
0.0
 30
0.0
  0
LINE
  5
23F
330
1F
100
AcDbEntity
  8
0
  6
CONTINUOUS
 62
     7
100
AcDbLine
 10
152.556929
 20
50.690019
 30
0.0
 11
152.556929
 21
67.590018
 31
0.0
  0
LINE
  5
240
330
1F
100
AcDbEntity
  8
0
  6
CONTINUOUS
 62
     7
100
AcDbLine
 10
155.356932
 20
50.990019
 30
0.0
 11
155.356932
 21
67.290019
 31
0.0
  0
LINE
  5
241
330
1F
100
AcDbEntity
  8
0
  6
CONTINUOUS
 62
     7
100
AcDbLine
 10
159.356933
 20
67.090019
 30
0.0
 11
159.356933
 21
51.190018
 31
0.0
  0
LINE
  5
242
330
1F
100
AcDbEntity
  8
0
  6
CONTINUOUS
 62
     7
100
AcDbLine
 10
69.556932
 20
48.440018
 30
0.0
 11
69.556932
 21
69.840019
 31
0.0
  0
LINE
  5
243
330
1F
100
AcDbEntity
  8
0
  6
CONTINUOUS
 62
     7
100
AcDbLine
 10
71.956932
 20
59.140019
 30
0.0
 11
71.956932
 21
48.340018
 31
0.0
  0
LINE
  5
244
330
1F
100
AcDbEntity
  8
0
  6
CONTINUOUS
 62
     7
100
AcDbLine
 10
71.956932
 20
69.940019
 30
0.0
 11
71.956932
 21
59.140019
 31
0.0
  0
INSERT
  5
248
330
1F
100
AcDbEntity
  8
0
100
AcDbBlockReference
  2
BLKF014
 10
0.0
 20
0.0
 30
0.0
  0
LINE
  5
278
330
1F
100
AcDbEntity
  8
0
  6
CONTINUOUS
 62
     7
100
AcDbLine
 10
70.660771
 20
70.000017
 30
0.0
 11
70.757445
 21
69.999209
 31
0.0
  0
INSERT
  5
27C
330
1F
100
AcDbEntity
  8
0
100
AcDbBlockReference
  2
BLKF015
 10
0.0
 20
0.0
 30
0.0
  0
LINE
  5
3C7
330
1F
100
AcDbEntity
  8
0
  6
CONTINUOUS
 62
     7
100
AcDbLine
 10
70.756932
 20
48.280833
 30
0.0
 11
70.660771
 21
48.280021
 31
0.0
  0
INSERT
  5
3CB
330
1F
100
AcDbEntity
  8
0
100
AcDbBlockReference
  2
BLKF016
 10
0.0
 20
0.0
 30
0.0
  0
LINE
  5
6E9
330
1F
100
AcDbEntity
  8
0
  6
CONTINUOUS
 62
     7
100
AcDbLine
 10
133.656933
 20
59.140019
 30
0.0
 11
133.656933
 21
70.140019
 31
0.0
  0
LINE
  5
6EA
330
1F
100
AcDbEntity
  8
0
  6
CONTINUOUS
 62
     7
100
AcDbLine
 10
133.656933
 20
48.140019
 30
0.0
 11
133.656933
 21
59.140019
 31
0.0
  0
LINE
  5
6EB
330
1F
100
AcDbEntity
  8
0
  6
CONTINUOUS
 62
     7
100
AcDbLine
 10
76.656932
 20
59.140019
 30
0.0
 11
76.656932
 21
70.140019
 31
0.0
  0
LINE
  5
6EC
330
1F
100
AcDbEntity
  8
0
  6
CONTINUOUS
 62
     7
100
AcDbLine
 10
76.656932
 20
48.140019
 30
0.0
 11
76.656932
 21
59.140019
 31
0.0
  0
LINE
  5
6ED
330
1F
100
AcDbEntity
  8
0
  6
CONTINUOUS
 62
     7
100
AcDbLine
 10
73.503196
 20
59.140019
 30
0.0
 11
73.503196
 21
70.130019
 31
0.0
  0
LINE
  5
6EE
330
1F
100
AcDbEntity
  8
0
  6
CONTINUOUS
 62
     7
100
AcDbLine
 10
73.503196
 20
48.150018
 30
0.0
 11
73.503196
 21
59.140019
 31
0.0
  0
LINE
  5
6EF
330
1F
100
AcDbEntity
  8
0
  6
CONTINUOUS
 62
     7
100
AcDbLine
 10
148.956935
 20
59.140019
 30
0.0
 11
148.956935
 21
48.250019
 31
0.0
  0
LINE
  5
6F0
330
1F
100
AcDbEntity
  8
0
  6
CONTINUOUS
 62
     7
100
AcDbLine
 10
148.956935
 20
70.030018
 30
0.0
 11
148.956935
 21
59.140019
 31
0.0
  0
LINE
  5
6F1
330
1F
100
AcDbEntity
  8
0
  6
CONTINUOUS
 62
     7
100
AcDbLine
 10
72.156932
 20
59.140019
 30
0.0
 11
72.156932
 21
69.640019
 31
0.0
  0
LINE
  5
6F2
330
1F
100
AcDbEntity
  8
0
  6
CONTINUOUS
 62
     7
100
AcDbLine
 10
72.156932
 20
48.640019
 30
0.0
 11
72.156932
 21
59.140019
 31
0.0
  0
LINE
  5
6F3
330
1F
100
AcDbEntity
  8
0
  6
CONTINUOUS
 62
     7
100
AcDbLine
 10
44.98543
 20
57.840019
 30
0.0
 11
44.98543
 21
60.440019
 31
0.0
  0
LINE
  5
6F4
330
1F
100
AcDbEntity
  8
0
  6
CONTINUOUS
 62
     7
100
AcDbLine
 10
58.985429
 20
60.817071
 30
0.0
 11
58.985429
 21
64.640019
 31
0.0
  0
LINE
  5
6F5
330
1F
100
AcDbEntity
  8
0
  6
CONTINUOUS
 62
     7
100
AcDbLine
 10
58.985429
 20
57.462966
 30
0.0
 11
58.985429
 21
60.817071
 31
0.0
  0
LINE
  5
6F6
330
1F
100
AcDbEntity
  8
0
  6
CONTINUOUS
 62
     7
100
AcDbLine
 10
58.985429
 20
53.640019
 30
0.0
 11
58.985429
 21
57.462966
 31
0.0
  0
LINE
  5
6F7
330
1F
100
AcDbEntity
  8
0
  6
CONTINUOUS
 62
     7
100
AcDbLine
 10
58.985429
 20
53.390018
 30
0.0
 11
58.985429
 21
53.640019
 31
0.0
  0
LINE
  5
6F8
330
1F
100
AcDbEntity
  8
0
  6
CONTINUOUS
 62
     7
100
AcDbLine
 10
58.985429
 20
64.640019
 30
0.0
 11
58.985429
 21
64.890019
 31
0.0
  0
LINE
  5
6F9
330
1F
100
AcDbEntity
  8
0
  6
CONTINUOUS
 62
     7
100
AcDbLine
 10
66.485429
 20
64.240019
 30
0.0
 11
66.485429
 21
54.040018
 31
0.0
  0
LINE
  5
6FA
330
1F
100
AcDbEntity
  8
0
  6
CONTINUOUS
 62
     7
100
AcDbLine
 10
61.985429
 20
53.390018
 30
0.0
 11
61.985429
 21
53.640019
 31
0.0
  0
LINE
  5
6FB
330
1F
100
AcDbEntity
  8
0
  6
CONTINUOUS
 62
     7
100
AcDbLine
 10
61.985429
 20
53.640019
 30
0.0
 11
61.985429
 21
57.462966
 31
0.0
  0
LINE
  5
6FC
330
1F
100
AcDbEntity
  8
0
  6
CONTINUOUS
 62
     7
100
AcDbLine
 10
61.985429
 20
57.462966
 30
0.0
 11
61.985429
 21
60.817071
 31
0.0
  0
LINE
  5
6FD
330
1F
100
AcDbEntity
  8
0
  6
CONTINUOUS
 62
     7
100
AcDbLine
 10
61.985429
 20
60.817071
 30
0.0
 11
61.985429
 21
64.640019
 31
0.0
  0
LINE
  5
6FE
330
1F
100
AcDbEntity
  8
0
  6
CONTINUOUS
 62
     7
100
AcDbLine
 10
61.985429
 20
64.640019
 30
0.0
 11
61.985429
 21
64.890019
 31
0.0
  0
LINE
  5
6FF
330
1F
100
AcDbEntity
  8
0
  6
CONTINUOUS
 62
     7
100
AcDbLine
 10
61.985429
 20
53.640019
 30
0.0
 11
61.835831
 21
53.640019
 31
0.0
  0
LINE
  5
700
330
1F
100
AcDbEntity
  8
0
  6
CONTINUOUS
 62
     7
100
AcDbLine
 10
61.835831
 20
53.640019
 30
0.0
 11
61.835831
 21
57.004603
 31
0.0
  0
LINE
  5
701
330
1F
100
AcDbEntity
  8
0
  6
CONTINUOUS
 62
     7
100
AcDbLine
 10
61.835831
 20
57.004603
 30
0.0
 11
61.985429
 21
57.462966
 31
0.0
  0
LINE
  5
702
330
1F
100
AcDbEntity
  8
0
  6
CONTINUOUS
 62
     7
100
AcDbLine
 10
59.135831
 20
53.640019
 30
0.0
 11
59.135831
 21
57.004603
 31
0.0
  0
LINE
  5
703
330
1F
100
AcDbEntity
  8
0
  6
CONTINUOUS
 62
     7
100
AcDbLine
 10
59.135831
 20
53.640019
 30
0.0
 11
58.985429
 21
53.640019
 31
0.0
  0
LINE
  5
704
330
1F
100
AcDbEntity
  8
0
  6
CONTINUOUS
 62
     7
100
AcDbLine
 10
58.985429
 20
57.462966
 30
0.0
 11
59.135831
 21
57.004603
 31
0.0
  0
LINE
  5
705
330
1F
100
AcDbEntity
  8
0
  6
CONTINUOUS
 62
     7
100
AcDbLine
 10
61.835831
 20
61.275434
 30
0.0
 11
61.835831
 21
64.640019
 31
0.0
  0
LINE
  5
706
330
1F
100
AcDbEntity
  8
0
  6
CONTINUOUS
 62
     7
100
AcDbLine
 10
61.835831
 20
64.640019
 30
0.0
 11
61.985429
 21
64.640019
 31
0.0
  0
LINE
  5
707
330
1F
100
AcDbEntity
  8
0
  6
CONTINUOUS
 62
     7
100
AcDbLine
 10
61.985429
 20
60.817071
 30
0.0
 11
61.835831
 21
61.275434
 31
0.0
  0
LINE
  5
708
330
1F
100
AcDbEntity
  8
0
  6
CONTINUOUS
 62
     7
100
AcDbLine
 10
59.135831
 20
57.004603
 30
0.0
 11
61.835831
 21
57.004603
 31
0.0
  0
LINE
  5
709
330
1F
100
AcDbEntity
  8
0
  6
CONTINUOUS
 62
     7
100
AcDbLine
 10
59.135831
 20
61.275434
 30
0.0
 11
58.985429
 21
60.817071
 31
0.0
  0
LINE
  5
70A
330
1F
100
AcDbEntity
  8
0
  6
CONTINUOUS
 62
     7
100
AcDbLine
 10
61.835831
 20
61.275434
 30
0.0
 11
59.135831
 21
61.275434
 31
0.0
  0
LINE
  5
70B
330
1F
100
AcDbEntity
  8
0
  6
CONTINUOUS
 62
     7
100
AcDbLine
 10
58.985429
 20
64.640019
 30
0.0
 11
59.135831
 21
64.640019
 31
0.0
  0
LINE
  5
70C
330
1F
100
AcDbEntity
  8
0
  6
CONTINUOUS
 62
     7
100
AcDbLine
 10
59.135831
 20
61.275434
 30
0.0
 11
59.135831
 21
64.640019
 31
0.0
  0
LINE
  5
70D
330
1F
100
AcDbEntity
  8
0
  6
CONTINUOUS
 62
     7
100
AcDbLine
 10
61.835831
 20
53.640019
 30
0.0
 11
59.135831
 21
53.640019
 31
0.0
  0
LINE
  5
70E
330
1F
100
AcDbEntity
  8
0
  6
CONTINUOUS
 62
     7
100
AcDbLine
 10
59.135831
 20
64.640019
 30
0.0
 11
61.835831
 21
64.640019
 31
0.0
  0
LINE
  5
70F
330
1F
100
AcDbEntity
  8
0
  6
CONTINUOUS
 62
     7
100
AcDbLine
 10
54.98543
 20
59.140019
 30
0.0
 11
54.98543
 21
62.562668
 31
0.0
  0
LINE
  5
710
330
1F
100
AcDbEntity
  8
0
  6
CONTINUOUS
 62
     7
100
AcDbLine
 10
54.98543
 20
55.717369
 30
0.0
 11
54.98543
 21
59.140019
 31
0.0
  0
LINE
  5
711
330
1F
100
AcDbEntity
  8
0
  6
CONTINUOUS
 62
     8
100
AcDbLine
 10
65.685429
 20
53.240018
 30
0.0
 11
65.685429
 21
65.040019
 31
0.0
  0
LINE
  5
712
330
1F
100
AcDbEntity
  8
0
  6
CONTINUOUS
 62
     8
100
AcDbLine
 10
58.544275
 20
65.040019
 30
0.0
 11
58.544275
 21
53.240018
 31
0.0
  0
LINE
  5
713
330
1F
100
AcDbEntity
  8
0
  6
CONTINUOUS
 62
     8
100
AcDbLine
 10
58.044275
 20
59.140019
 30
0.0
 11
58.044275
 21
64.906044
 31
0.0
  0
LINE
  5
714
330
1F
100
AcDbEntity
  8
0
  6
CONTINUOUS
 62
     8
100
AcDbLine
 10
58.044275
 20
53.373993
 30
0.0
 11
58.044275
 21
59.140019
 31
0.0
  0
LINE
  5
715
330
1F
100
AcDbEntity
  8
0
  6
CONTINUOUS
 62
     8
100
AcDbLine
 10
55.485429
 20
59.140019
 30
0.0
 11
55.485429
 21
54.851343
 31
0.0
  0
LINE
  5
716
330
1F
100
AcDbEntity
  8
0
  6
CONTINUOUS
 62
     8
100
AcDbLine
 10
55.485429
 20
63.428694
 30
0.0
 11
55.485429
 21
59.140019
 31
0.0
  0
LINE
  5
717
330
1F
100
AcDbEntity
  8
CSLAYER2
  6
CONTINUOUS
 62
     3
100
AcDbLine
 10
42.228101
 20
59.140019
 30
0.0
 11
162.459991
 21
59.140019
 31
0.0
  0
INSERT
  5
71B
330
1F
100
AcDbEntity
  8
0
100
AcDbBlockReference
  2
BLKF017
 10
0.0
 20
0.0
 30
0.0
  0
INSERT
  5
729
330
1F
100
AcDbEntity
  8
0
100
AcDbBlockReference
  2
BLKF018
 10
0.0
 20
0.0
 30
0.0
  0
INSERT
  5
737
330
1F
100
AcDbEntity
  8
0
100
AcDbBlockReference
  2
BLKF019
 10
0.0
 20
0.0
 30
0.0
  0
INSERT
  5
745
330
1F
100
AcDbEntity
  8
0
100
AcDbBlockReference
  2
BLKF020
 10
0.0
 20
0.0
 30
0.0
  0
INSERT
  5
759
330
1F
100
AcDbEntity
  8
0
100
AcDbBlockReference
  2
BLKF021
 10
0.0
 20
0.0
 30
0.0
  0
INSERT
  5
76A
330
1F
100
AcDbEntity
  8
0
100
AcDbBlockReference
  2
BLKF022
 10
0.0
 20
0.0
 30
0.0
  0
INSERT
  5
77A
330
1F
100
AcDbEntity
  8
0
100
AcDbBlockReference
  2
BLKF023
 10
0.0
 20
0.0
 30
0.0
  0
ENDSEC
  0
SECTION
  2
OBJECTS
  0
DICTIONARY
  5
C
330
0
100
AcDbDictionary
  3
ACAD_GROUP
350
D
  3
ACAD_LAYOUT
350
1A
  3
ACAD_MLINESTYLE
350
17
  3
ACAD_PLOTSETTINGS
350
19
1001
ACAD
1000
TREAT_AS_HARD
1070
     0
  0
DICTIONARY
  5
D
102
{ACAD_REACTORS
330
C
102
}
330
C
100
AcDbDictionary
1001
ACAD
1000
TREAT_AS_HARD
1070
     0
  0
DICTIONARY
  5
1A
102
{ACAD_REACTORS
330
C
102
}
330
C
100
AcDbDictionary
1001
ACAD
1000
TREAT_AS_HARD
1070
     0
  0
DICTIONARY
  5
17
102
{ACAD_REACTORS
330
C
102
}
330
C
100
AcDbDictionary
  3
STANDARD
350
18
1001
ACAD
1000
TREAT_AS_HARD
1070
     0
  0
DICTIONARY
  5
19
102
{ACAD_REACTORS
330
C
102
}
330
C
100
AcDbDictionary
1001
ACAD
1000
TREAT_AS_HARD
1070
     0
  0
MLINESTYLE
  5
18
102
{ACAD_REACTORS
330
17
102
}
330
17
100
AcDbMlineStyle
  2
Standard
 70
     0
  3

 62
   256
 51
90.0
 52
90.0
 71
     2
 49
0.5
 62
   256
  6
BYLAYER
 49
-0.5
 62
   256
  6
BYLAYER
  0
ENDSEC
  0
EOF
