  0
SECTION
  2
HEADER
  9
$ACADVER
  1
AC1012
  9
$DWGCODEPAGE
  3
ansi_932
  9
$INSBASE
 10
0.0
 20
0.0
 30
0.0
  9
$EXTMIN
 10
0.0
 20
0.0
 30
0.0
  9
$EXTMAX
 10
268.855037
 20
135.834455
 30
0.0
  9
$LIMMIN
 10
0.0
 20
0.0
  9
$LIMMAX
 10
268.855037
 20
135.834455
  9
$ORTHOMODE
 70
     0
  9
$REGENMODE
 70
     1
  9
$FILLMODE
 70
     1
  9
$QTEXTMODE
 70
     0
  9
$MIRRTEXT
 70
     1
  9
$DRAGMODE
 70
     2
  9
$LTSCALE
 40
1.0
  9
$OSMODE
 70
    37
  9
$ATTMODE
 70
     1
  9
$TEXTSIZE
 40
0.2
  9
$TRACEWID
 40
0.05
  9
$TEXTSTYLE
  7
ED_VECTOR
  9
$CLAYER
  8
0
  9
$CELTYPE
  6
BYLAYER
  9
$CECOLOR
 62
   256
  9
$CELTSCALE
 40
1.0
  9
$DELOBJ
 70
     1
  9
$DISPSILH
 70
     0
  9
$DIMSCALE
 40
1.0
  9
$DIMASZ
 40
3.0
  9
$DIMEXO
 40
1.0
  9
$DIMDLI
 40
10.0
  9
$DIMRND
 40
0.0
  9
$DIMDLE
 40
5.0
  9
$DIMEXE
 40
1.0
  9
$DIMTP
 40
0.0
  9
$DIMTM
 40
0.0
  9
$DIMTXT
 40
4.0
  9
$DIMCEN
 40
2.5
  9
$DIMTSZ
 40
0.0
  9
$DIMTOL
 70
     0
  9
$DIMLIM
 70
     0
  9
$DIMTIH
 70
     0
  9
$DIMTOH
 70
     0
  9
$DIMSE1
 70
     0
  9
$DIMSE2
 70
     0
  9
$DIMTAD
 70
     1
  9
$DIMZIN
 70
     8
  9
$DIMBLK
  1

  9
$DIMASO
 70
     1
  9
$DIMSHO
 70
     1
  9
$DIMPOST
  1

  9
$DIMAPOST
  1

  9
$DIMALT
 70
     0
  9
$DIMALTD
 70
     3
  9
$DIMALTF
 40
0.03937
  9
$DIMLFAC
 40
1.0
  9
$DIMTOFL
 70
     1
  9
$DIMTVP
 40
0.0
  9
$DIMTIX
 70
     0
  9
$DIMSOXD
 70
     0
  9
$DIMSAH
 70
     1
  9
$DIMBLK1
  1
EDTIP_ARROW_S
  9
$DIMBLK2
  1
EDTIP_ARROW_E
  9
$DIMSTYLE
  2
EDDIMINFO
  9
$DIMCLRD
 70
     7
  9
$DIMCLRE
 70
     7
  9
$DIMCLRT
 70
     7
  9
$DIMTFAC
 40
1.0
  9
$DIMGAP
 40
1.0
  9
$DIMJUST
 70
     0
  9
$DIMSD1
 70
     0
  9
$DIMSD2
 70
     0
  9
$DIMTOLJ
 70
     0
  9
$DIMTZIN
 70
     8
  9
$DIMALTZ
 70
     0
  9
$DIMALTTZ
 70
     0
  9
$DIMFIT
 70
     3
  9
$DIMUPT
 70
     0
  9
$DIMUNIT
 70
     2
  9
$DIMDEC
 70
     2
  9
$DIMTDEC
 70
     2
  9
$DIMALTU
 70
     2
  9
$DIMALTTD
 70
     3
  9
$DIMTXSTY
  7
ED_VECTOR
  9
$DIMAUNIT
 70
     0
  9
$LUNITS
 70
     2
  9
$LUPREC
 70
     4
  9
$SKETCHINC
 40
0.1
  9
$FILLETRAD
 40
0.5
  9
$AUNITS
 70
     0
  9
$AUPREC
 70
     0
  9
$MENU
  1
.
  9
$ELEVATION
 40
0.0
  9
$PELEVATION
 40
0.0
  9
$THICKNESS
 40
0.0
  9
$LIMCHECK
 70
     0
  9
$CHAMFERA
 40
0.5
  9
$CHAMFERB
 40
0.5
  9
$CHAMFERC
 40
1.0
  9
$CHAMFERD
 40
0.0
  9
$SKPOLY
 70
     0
  9
$TDCREATE
 40
2456062.621017338
  9
$TDUPDATE
 40
2456062.621017349
  9
$TDINDWG
 40
0.0000000116
  9
$TDUSRTIMER
 40
0.0000000116
  9
$USRTIMER
 70
     1
  9
$ANGBASE
 50
0.0
  9
$ANGDIR
 70
     0
  9
$PDMODE
 70
     0
  9
$PDSIZE
 40
0.0
  9
$PLINEWID
 40
0.0
  9
$COORDS
 70
     1
  9
$SPLFRAME
 70
     0
  9
$SPLINETYPE
 70
     6
  9
$SPLINESEGS
 70
     8
  9
$ATTDIA
 70
     0
  9
$ATTREQ
 70
     1
  9
$HANDLING
 70
     1
  9
$HANDSEED
  5
616
  9
$SURFTAB1
 70
     6
  9
$SURFTAB2
 70
     6
  9
$SURFTYPE
 70
     6
  9
$SURFU
 70
     6
  9
$SURFV
 70
     6
  9
$UCSNAME
  2

  9
$UCSORG
 10
0.0
 20
0.0
 30
0.0
  9
$UCSXDIR
 10
1.0
 20
0.0
 30
0.0
  9
$UCSYDIR
 10
0.0
 20
1.0
 30
0.0
  9
$PUCSNAME
  2

  9
$PUCSORG
 10
0.0
 20
0.0
 30
0.0
  9
$PUCSXDIR
 10
1.0
 20
0.0
 30
0.0
  9
$PUCSYDIR
 10
0.0
 20
1.0
 30
0.0
  9
$USERI1
 70
     0
  9
$USERI2
 70
     0
  9
$USERI3
 70
     0
  9
$USERI4
 70
     0
  9
$USERI5
 70
     0
  9
$USERR1
 40
0.0
  9
$USERR2
 40
0.0
  9
$USERR3
 40
0.0
  9
$USERR4
 40
0.0
  9
$USERR5
 40
0.0
  9
$WORLDVIEW
 70
     1
  9
$SHADEDGE
 70
     3
  9
$SHADEDIF
 70
    70
  9
$TILEMODE
 70
     1
  9
$MAXACTVP
 70
    64
  9
$PINSBASE
 10
0.0
 20
0.0
 30
0.0
  9
$PLIMCHECK
 70
     0
  9
$PEXTMIN
 10
1.000000E+20
 20
1.000000E+20
 30
1.000000E+20
  9
$PEXTMAX
 10
-1.000000E+20
 20
-1.000000E+20
 30
-1.000000E+20
  9
$PLIMMIN
 10
0.0
 20
0.0
  9
$PLIMMAX
 10
12.0
 20
9.0
  9
$UNITMODE
 70
     0
  9
$VISRETAIN
 70
     1
  9
$PLINEGEN
 70
     0
  9
$PSLTSCALE
 70
     1
  9
$TREEDEPTH
 70
  3020
  9
$PICKSTYLE
 70
     1
  9
$CMLSTYLE
  2
STANDARD
  9
$CMLJUST
 70
     0
  9
$CMLSCALE
 40
1.0
  9
$SAVEIMAGES
 70
     1
  0
ENDSEC
  0
SECTION
  2
CLASSES
  0
CLASS
  1
ACDBDICTIONARYWDFLT
  2
AcDbDictionaryWithDefault
  3
ObjectDBX Classes
 90
    32768
280
     0
281
     0
  0
CLASS
  1
XRECORD
  2
AcDbXrecord
  3
AutoCAD 2000
 90
    32768
280
     0
281
     0
  0
CLASS
  1
LWPOLYLINE
  2
AcDbPolyline
  3
AutoCAD 2000
 90
    32768
280
     0
281
     1
  0
CLASS
  1
HATCH
  2
AcDbHatch
  3
AutoCAD 2000
 90
    32768
280
     0
281
     1
  0
CLASS
  1
ACDBPLACEHOLDER
  2
AcDbPlaceHolder
  3
ObjectDBX Classes
 90
        0
280
     0
281
     0
  0
CLASS
  1
LAYOUT
  2
AcDbLayout
  3
ObjectDBX Classes
 90
        0
280
     0
281
     0
  0
ENDSEC
  0
SECTION
  2
TABLES
  0
TABLE
  2
VPORT
  5
8
330
0
100
AcDbSymbolTable
 70
     1
  0
VPORT
  5
29
330
8
100
AcDbSymbolTableRecord
100
AcDbViewportTableRecord
  2
*ACTIVE
 70
     0
 10
0.0
 20
0.0
 11
1.0
 21
1.0
 12
134.427518
 22
67.917227
 13
0.0
 23
0.0
 14
0.5
 24
0.5
 15
0.5
 25
0.5
 16
0.0
 26
0.0
 36
1.0
 17
0.0
 27
0.0
 37
0.0
 40
135.834455
 41
1.979285
 42
50.0
 43
0.0
 44
0.0
 50
0.0
 51
0.0
 71
     0
 72
   100
 73
     1
 74
     3
 75
     0
 76
     0
 77
     0
 78
     0
  0
ENDTAB
  0
TABLE
  2
LTYPE
  5
5
330
0
100
AcDbSymbolTable
 70
     5
  0
LTYPE
  5
14
330
5
100
AcDbSymbolTableRecord
100
AcDbLinetypeTableRecord
  2
BYBLOCK
 70
     0
  3

 72
    65
 73
     0
 40
0.0
  0
LTYPE
  5
15
330
5
100
AcDbSymbolTableRecord
100
AcDbLinetypeTableRecord
  2
BYLAYER
 70
     0
  3

 72
    65
 73
     0
 40
0.0
  0
LTYPE
  5
16
330
5
100
AcDbSymbolTableRecord
100
AcDbLinetypeTableRecord
  2
CONTINUOUS
 70
     0
  3
--------------------
 72
    65
 73
     0
 40
0.0
  0
LTYPE
  5
2A
330
5
100
AcDbSymbolTableRecord
100
AcDbLinetypeTableRecord
  2
DASHED
 70
     0
  3
- - - - - - - - - - -
 72
    65
 73
     2
 40
19.1
 49
12.7
 74
     0
 49
-6.4
 74
     0
  0
LTYPE
  5
2B
330
5
100
AcDbSymbolTableRecord
100
AcDbLinetypeTableRecord
  2
CENTER
 70
     0
  3
- ･ - ･ - ･ - ･ - ･ - ･ - ･ - ･ - ･ - ･ -
 72
    65
 73
     4
 40
51.0
 49
31.8
 74
     0
 49
-6.4
 74
     0
 49
6.4
 74
     0
 49
-6.4
 74
     0
  0
LTYPE
  5
2C
330
5
100
AcDbSymbolTableRecord
100
AcDbLinetypeTableRecord
  2
PHANTOM
 70
     0
  3
- ･ ･ - ･ ･ - ･ ･ - ･ ･ - ･ ･ - ･ ･ - ･ ･ - 
 72
    65
 73
     6
 40
63.8
 49
31.8
 74
     0
 49
-6.4
 74
     0
 49
6.4
 74
     0
 49
-6.4
 74
     0
 49
6.4
 74
     0
 49
-6.4
 74
     0
  0
LTYPE
  5
2D
330
5
100
AcDbSymbolTableRecord
100
AcDbLinetypeTableRecord
  2
DOT
 70
     0
  3
・・・・・・・・・・・・・・・
 72
    65
 73
     2
 40
6.5
 49
0.1
 74
     0
 49
-6.4
 74
     0
  0
ENDTAB
  0
TABLE
  2
LAYER
  5
2
330
0
100
AcDbSymbolTable
 70
    16
  0
LAYER
  5
10
330
2
100
AcDbSymbolTableRecord
100
AcDbLayerTableRecord
  2
0
 70
     0
 62
     7
  6
CONTINUOUS
  0
LAYER
  5
2E
330
2
100
AcDbSymbolTableRecord
100
AcDbLayerTableRecord
  2
CSLAYER2
 70
     0
 62
     7
  6
CONTINUOUS
  0
ENDTAB
  0
TABLE
  2
STYLE
  5
3
330
0
100
AcDbSymbolTable
 70
     2
  0
STYLE
  5
11
330
3
100
AcDbSymbolTableRecord
100
AcDbTextStyleTableRecord
  2
STANDARD
 70
     0
 40
0.0
 41
1.0
 50
0.0
 71
     0
 42
0.2
  3
txt
  4

  0
STYLE
  5
3D
330
3
100
AcDbSymbolTableRecord
100
AcDbTextStyleTableRecord
  2
ED_VECTOR
 70
     0
 40
0.0
 41
1.0
 50
0.0
 71
     0
 42
0.2
  3
MONOTXT.SHX
  4
BIGFONT.SHX
  0
ENDTAB
  0
TABLE
  2
VIEW
  5
6
330
0
100
AcDbSymbolTable
 70
     0
  0
ENDTAB
  0
TABLE
  2
UCS
  5
7
330
0
100
AcDbSymbolTable
 70
     0
  0
ENDTAB
  0
TABLE
  2
APPID
  5
9
330
0
100
AcDbSymbolTable
 70
     1
  0
APPID
  5
12
330
9
100
AcDbSymbolTableRecord
100
AcDbRegAppTableRecord
  2
ACAD
 70
     0
  0
ENDTAB
  0
TABLE
  2
DIMSTYLE
  5
A
330
0
100
AcDbSymbolTable
 70
     2
  0
DIMSTYLE
105
27
330
A
100
AcDbSymbolTableRecord
100
AcDbDimStyleTableRecord
  2
STANDARD
 70
     0
  3

  4

  5

  6

  7

 40
1.0
 41
0.18
 42
0.0625
 43
0.38
 44
0.18
 45
0.0
 46
0.0
 47
0.0
 48
0.0
140
0.18
141
0.09
142
0.0
143
25.4
144
1.0
145
0.0
146
1.0
147
0.09
 71
     0
 72
     0
 73
     1
 74
     1
 75
     0
 76
     0
 77
     0
 78
     0
170
     0
171
     2
172
     0
173
     0
174
     0
175
     0
176
     0
177
     0
178
     0
270
     2
271
     4
272
     4
273
     2
274
     2
340
11
275
     0
280
     0
281
     0
282
     0
283
     1
284
     0
285
     0
286
     0
287
     3
288
     0
  0
DIMSTYLE
105
6E
330
A
100
AcDbSymbolTableRecord
100
AcDbDimStyleTableRecord
  2
EDDIMINFO
 70
     0
  3

  4

  5

  6
EDTIP_ARROW_S
  7
EDTIP_ARROW_E
 40
1.0
 41
3.0
 42
1.0
 43
10.0
 44
1.0
 45
0.0
 46
5.0
 47
0.0
 48
0.0
140
4.0
141
2.5
142
0.0
143
0.03937
144
1.0
145
0.0
146
1.0
147
1.0
 71
     0
 72
     0
 73
     0
 74
     0
 75
     0
 76
     0
 77
     1
 78
     8
170
     0
171
     3
172
     1
173
     1
174
     0
175
     0
176
     7
177
     7
178
     7
179
     2
270
     2
271
     2
272
     2
273
     2
274
     3
340
3D
275
     0
280
     0
281
     0
282
     0
283
     0
284
     8
285
     0
286
     0
287
     3
288
     0
  0
ENDTAB
  0
TABLE
  2
BLOCK_RECORD
  5
1
330
0
100
AcDbSymbolTable
 70
    30
  0
BLOCK_RECORD
  5
1F
330
1
100
AcDbSymbolTableRecord
100
AcDbBlockTableRecord
  2
*MODEL_SPACE
  0
BLOCK_RECORD
  5
1B
330
1
100
AcDbSymbolTableRecord
100
AcDbBlockTableRecord
  2
*PAPER_SPACE
  0
BLOCK_RECORD
  5
3E
330
1
100
AcDbSymbolTableRecord
100
AcDbBlockTableRecord
  2
EDTIP_ARROW_S
  0
BLOCK_RECORD
  5
44
330
1
100
AcDbSymbolTableRecord
100
AcDbBlockTableRecord
  2
EDTIP_ARROW_E
  0
BLOCK_RECORD
  5
4A
330
1
100
AcDbSymbolTableRecord
100
AcDbBlockTableRecord
  2
EDTIP_BLACKDOT_S
  0
BLOCK_RECORD
  5
50
330
1
100
AcDbSymbolTableRecord
100
AcDbBlockTableRecord
  2
EDTIP_BLACKDOT_E
  0
BLOCK_RECORD
  5
56
330
1
100
AcDbSymbolTableRecord
100
AcDbBlockTableRecord
  2
EDTIP_ARCHITECT_S
  0
BLOCK_RECORD
  5
5C
330
1
100
AcDbSymbolTableRecord
100
AcDbBlockTableRecord
  2
EDTIP_ARCHITECT_E
  0
BLOCK_RECORD
  5
62
330
1
100
AcDbSymbolTableRecord
100
AcDbBlockTableRecord
  2
EDTIP_CIVIL_S
  0
BLOCK_RECORD
  5
68
330
1
100
AcDbSymbolTableRecord
100
AcDbBlockTableRecord
  2
EDTIP_CIVIL_E
  0
BLOCK_RECORD
  5
6F
330
1
100
AcDbSymbolTableRecord
100
AcDbBlockTableRecord
  2
BLKF011
  0
BLOCK_RECORD
  5
176
330
1
100
AcDbSymbolTableRecord
100
AcDbBlockTableRecord
  2
BLKF012
  0
BLOCK_RECORD
  5
19B
330
1
100
AcDbSymbolTableRecord
100
AcDbBlockTableRecord
  2
BLKF013
  0
BLOCK_RECORD
  5
1EB
330
1
100
AcDbSymbolTableRecord
100
AcDbBlockTableRecord
  2
BLKF014
  0
BLOCK_RECORD
  5
23C
330
1
100
AcDbSymbolTableRecord
100
AcDbBlockTableRecord
  2
BLKF015
  0
BLOCK_RECORD
  5
24D
330
1
100
AcDbSymbolTableRecord
100
AcDbBlockTableRecord
  2
BLKF016
  0
BLOCK_RECORD
  5
266
330
1
100
AcDbSymbolTableRecord
100
AcDbBlockTableRecord
  2
BLKF017
  0
BLOCK_RECORD
  5
2B7
330
1
100
AcDbSymbolTableRecord
100
AcDbBlockTableRecord
  2
BLKF018
  0
BLOCK_RECORD
  5
2E3
330
1
100
AcDbSymbolTableRecord
100
AcDbBlockTableRecord
  2
BLKF019
  0
BLOCK_RECORD
  5
32D
330
1
100
AcDbSymbolTableRecord
100
AcDbBlockTableRecord
  2
BLKF020
  0
BLOCK_RECORD
  5
358
330
1
100
AcDbSymbolTableRecord
100
AcDbBlockTableRecord
  2
BLKF021
  0
BLOCK_RECORD
  5
3AF
330
1
100
AcDbSymbolTableRecord
100
AcDbBlockTableRecord
  2
BLKF022
  0
BLOCK_RECORD
  5
3BD
330
1
100
AcDbSymbolTableRecord
100
AcDbBlockTableRecord
  2
BLKF023
  0
BLOCK_RECORD
  5
3CB
330
1
100
AcDbSymbolTableRecord
100
AcDbBlockTableRecord
  2
BLKF024
  0
BLOCK_RECORD
  5
3DD
330
1
100
AcDbSymbolTableRecord
100
AcDbBlockTableRecord
  2
BLKF025
  0
BLOCK_RECORD
  5
4B2
330
1
100
AcDbSymbolTableRecord
100
AcDbBlockTableRecord
  2
BLKF026
  0
BLOCK_RECORD
  5
4FC
330
1
100
AcDbSymbolTableRecord
100
AcDbBlockTableRecord
  2
BLKF027
  0
BLOCK_RECORD
  5
511
330
1
100
AcDbSymbolTableRecord
100
AcDbBlockTableRecord
  2
BLKF028
  0
BLOCK_RECORD
  5
563
330
1
100
AcDbSymbolTableRecord
100
AcDbBlockTableRecord
  2
BLKF029
  0
BLOCK_RECORD
  5
5AE
330
1
100
AcDbSymbolTableRecord
100
AcDbBlockTableRecord
  2
BLKF030
  0
BLOCK_RECORD
  5
604
330
1
100
AcDbSymbolTableRecord
100
AcDbBlockTableRecord
  2
BLKF031
  0
ENDTAB
  0
ENDSEC
  0
SECTION
  2
BLOCKS
  0
BLOCK
  5
20
330
1F
100
AcDbEntity
  8
0
100
AcDbBlockBegin
  2
*MODEL_SPACE
 70
     0
 71
     0
 10
0.0
 20
0.0
 30
0.0
  3
*MODEL_SPACE
  1

  0
ENDBLK
  5
21
330
1F
100
AcDbEntity
  8
0
100
AcDbBlockEnd
  0
BLOCK
  5
1C
330
1B
100
AcDbEntity
 67
     1
  8
0
100
AcDbBlockBegin
  2
*PAPER_SPACE
 70
     0
 71
     0
 10
0.0
 20
0.0
 30
0.0
  3
*PAPER_SPACE
  1

  0
ENDBLK
  5
1D
330
1B
100
AcDbEntity
 67
     1
  8
0
100
AcDbBlockEnd
  0
BLOCK
  5
3F
330
3E
100
AcDbEntity
  8
0
100
AcDbBlockBegin
  2
EDTIP_ARROW_S
 70
     0
 71
     0
 10
0.0
 20
0.0
 30
0.0
  3
EDTIP_ARROW_S
  1

  0
LINE
  5
41
330
3E
100
AcDbEntity
  8
0
  6
CONTINUOUS
 62
     0
100
AcDbLine
 10
0.0
 20
0.0
 30
0.0
 11
-1.0
 21
0.0
 31
0.0
  0
LINE
  5
42
330
3E
100
AcDbEntity
  8
0
  6
CONTINUOUS
 62
     0
100
AcDbLine
 10
0.0
 20
0.0
 30
0.0
 11
-0.965926
 21
0.258819
 31
0.0
  0
LINE
  5
43
330
3E
100
AcDbEntity
  8
0
  6
CONTINUOUS
 62
     0
100
AcDbLine
 10
0.0
 20
0.0
 30
0.0
 11
-0.965926
 21
-0.258819
 31
0.0
  0
ENDBLK
  5
40
330
3E
100
AcDbEntity
  8
0
100
AcDbBlockEnd
  0
BLOCK
  5
45
330
44
100
AcDbEntity
  8
0
100
AcDbBlockBegin
  2
EDTIP_ARROW_E
 70
     0
 71
     0
 10
0.0
 20
0.0
 30
0.0
  3
EDTIP_ARROW_E
  1

  0
LINE
  5
47
330
44
100
AcDbEntity
  8
0
  6
CONTINUOUS
 62
     0
100
AcDbLine
 10
0.0
 20
0.0
 30
0.0
 11
-1.0
 21
0.0
 31
0.0
  0
LINE
  5
48
330
44
100
AcDbEntity
  8
0
  6
CONTINUOUS
 62
     0
100
AcDbLine
 10
0.0
 20
0.0
 30
0.0
 11
-0.965926
 21
-0.258819
 31
0.0
  0
LINE
  5
49
330
44
100
AcDbEntity
  8
0
  6
CONTINUOUS
 62
     0
100
AcDbLine
 10
0.0
 20
0.0
 30
0.0
 11
-0.965926
 21
0.258819
 31
0.0
  0
ENDBLK
  5
46
330
44
100
AcDbEntity
  8
0
100
AcDbBlockEnd
  0
BLOCK
  5
4B
330
4A
100
AcDbEntity
  8
0
100
AcDbBlockBegin
  2
EDTIP_BLACKDOT_S
 70
     0
 71
     0
 10
0.0
 20
0.0
 30
0.0
  3
EDTIP_BLACKDOT_S
  1

  0
LINE
  5
4D
330
4A
100
AcDbEntity
  8
0
  6
CONTINUOUS
 62
     0
100
AcDbLine
 10
0.0
 20
0.0
 30
0.0
 11
-1.0
 21
0.0
 31
0.0
  0
CIRCLE
  5
4E
330
4A
100
AcDbEntity
  8
0
  6
CONTINUOUS
 62
     0
100
AcDbCircle
 10
0.0
 20
0.0
 30
0.0
 40
0.5
  0
CIRCLE
  5
4F
330
4A
100
AcDbEntity
  8
0
  6
CONTINUOUS
 62
     0
100
AcDbCircle
 10
0.0
 20
0.0
 30
0.0
 40
0.25
  0
ENDBLK
  5
4C
330
4A
100
AcDbEntity
  8
0
100
AcDbBlockEnd
  0
BLOCK
  5
51
330
50
100
AcDbEntity
  8
0
100
AcDbBlockBegin
  2
EDTIP_BLACKDOT_E
 70
     0
 71
     0
 10
0.0
 20
0.0
 30
0.0
  3
EDTIP_BLACKDOT_E
  1

  0
LINE
  5
53
330
50
100
AcDbEntity
  8
0
  6
CONTINUOUS
 62
     0
100
AcDbLine
 10
0.0
 20
0.0
 30
0.0
 11
-1.0
 21
0.0
 31
0.0
  0
CIRCLE
  5
54
330
50
100
AcDbEntity
  8
0
  6
CONTINUOUS
 62
     0
100
AcDbCircle
 10
0.0
 20
0.0
 30
0.0
 40
0.5
  0
CIRCLE
  5
55
330
50
100
AcDbEntity
  8
0
  6
CONTINUOUS
 62
     0
100
AcDbCircle
 10
0.0
 20
0.0
 30
0.0
 40
0.25
  0
ENDBLK
  5
52
330
50
100
AcDbEntity
  8
0
100
AcDbBlockEnd
  0
BLOCK
  5
57
330
56
100
AcDbEntity
  8
0
100
AcDbBlockBegin
  2
EDTIP_ARCHITECT_S
 70
     0
 71
     0
 10
0.0
 20
0.0
 30
0.0
  3
EDTIP_ARCHITECT_S
  1

  0
LINE
  5
59
330
56
100
AcDbEntity
  8
0
  6
CONTINUOUS
 62
     0
100
AcDbLine
 10
0.0
 20
0.0
 30
0.0
 11
-1.0
 21
0.0
 31
0.0
  0
LINE
  5
5A
330
56
100
AcDbEntity
  8
0
  6
CONTINUOUS
 62
     0
100
AcDbLine
 10
0.0
 20
0.0
 30
0.0
 11
-0.707107
 21
-0.707107
 31
0.0
  0
LINE
  5
5B
330
56
100
AcDbEntity
  8
0
  6
CONTINUOUS
 62
     0
100
AcDbLine
 10
0.0
 20
0.0
 30
0.0
 11
0.707107
 21
0.707107
 31
0.0
  0
ENDBLK
  5
58
330
56
100
AcDbEntity
  8
0
100
AcDbBlockEnd
  0
BLOCK
  5
5D
330
5C
100
AcDbEntity
  8
0
100
AcDbBlockBegin
  2
EDTIP_ARCHITECT_E
 70
     0
 71
     0
 10
0.0
 20
0.0
 30
0.0
  3
EDTIP_ARCHITECT_E
  1

  0
LINE
  5
5F
330
5C
100
AcDbEntity
  8
0
  6
CONTINUOUS
 62
     0
100
AcDbLine
 10
0.0
 20
0.0
 30
0.0
 11
-1.0
 21
0.0
 31
0.0
  0
LINE
  5
60
330
5C
100
AcDbEntity
  8
0
  6
CONTINUOUS
 62
     0
100
AcDbLine
 10
0.0
 20
0.0
 30
0.0
 11
-0.707107
 21
-0.707107
 31
0.0
  0
LINE
  5
61
330
5C
100
AcDbEntity
  8
0
  6
CONTINUOUS
 62
     0
100
AcDbLine
 10
0.0
 20
0.0
 30
0.0
 11
0.707107
 21
0.707107
 31
0.0
  0
ENDBLK
  5
5E
330
5C
100
AcDbEntity
  8
0
100
AcDbBlockEnd
  0
BLOCK
  5
63
330
62
100
AcDbEntity
  8
0
100
AcDbBlockBegin
  2
EDTIP_CIVIL_S
 70
     0
 71
     0
 10
0.0
 20
0.0
 30
0.0
  3
EDTIP_CIVIL_S
  1

  0
LINE
  5
65
330
62
100
AcDbEntity
  8
0
  6
CONTINUOUS
 62
     0
100
AcDbLine
 10
0.0
 20
0.0
 30
0.0
 11
-1.0
 21
0.0
 31
0.0
  0
LINE
  5
66
330
62
100
AcDbEntity
  8
0
  6
CONTINUOUS
 62
     0
100
AcDbLine
 10
0.0
 20
-0.083333
 30
0.0
 11
-1.0
 21
-0.083333
 31
0.0
  0
LINE
  5
67
330
62
100
AcDbEntity
  8
0
  6
CONTINUOUS
 62
     0
100
AcDbLine
 10
0.0
 20
-0.166667
 30
0.0
 11
-1.0
 21
-0.166667
 31
0.0
  0
ENDBLK
  5
64
330
62
100
AcDbEntity
  8
0
100
AcDbBlockEnd
  0
BLOCK
  5
69
330
68
100
AcDbEntity
  8
0
100
AcDbBlockBegin
  2
EDTIP_CIVIL_E
 70
     0
 71
     0
 10
0.0
 20
0.0
 30
0.0
  3
EDTIP_CIVIL_E
  1

  0
LINE
  5
6B
330
68
100
AcDbEntity
  8
0
  6
CONTINUOUS
 62
     0
100
AcDbLine
 10
0.0
 20
0.0
 30
0.0
 11
-1.0
 21
0.0
 31
0.0
  0
LINE
  5
6C
330
68
100
AcDbEntity
  8
0
  6
CONTINUOUS
 62
     0
100
AcDbLine
 10
0.0
 20
0.083333
 30
0.0
 11
-1.0
 21
0.083333
 31
0.0
  0
LINE
  5
6D
330
68
100
AcDbEntity
  8
0
  6
CONTINUOUS
 62
     0
100
AcDbLine
 10
0.0
 20
0.166667
 30
0.0
 11
-1.0
 21
0.166667
 31
0.0
  0
ENDBLK
  5
6A
330
68
100
AcDbEntity
  8
0
100
AcDbBlockEnd
  0
BLOCK
  5
70
330
6F
100
AcDbEntity
  8
0
100
AcDbBlockBegin
  2
BLKF011
 70
     0
 71
     0
 10
0.0
 20
0.0
 30
0.0
  3
BLKF011
  1

  0
LINE
  5
73
330
6F
100
AcDbEntity
  8
0
  6
CONTINUOUS
 62
     7
100
AcDbLine
 10
31.117209
 20
70.349147
 30
0.0
 11
49.517208
 21
70.349147
 31
0.0
  0
LINE
  5
74
330
6F
100
AcDbEntity
  8
0
  6
CONTINUOUS
 62
     7
100
AcDbLine
 10
49.517208
 20
70.349147
 30
0.0
 11
49.717196
 21
70.149145
 31
0.0
  0
LINE
  5
75
330
6F
100
AcDbEntity
  8
0
  6
CONTINUOUS
 62
     7
100
AcDbLine
 10
49.717196
 20
70.149145
 30
0.0
 11
49.717196
 21
53.549146
 31
0.0
  0
LINE
  5
76
330
6F
100
AcDbEntity
  8
0
  6
CONTINUOUS
 62
     7
100
AcDbLine
 10
49.717196
 20
53.549146
 30
0.0
 11
49.517208
 21
53.349146
 31
0.0
  0
LINE
  5
77
330
6F
100
AcDbEntity
  8
0
  6
CONTINUOUS
 62
     7
100
AcDbLine
 10
49.517208
 20
53.349146
 30
0.0
 11
31.117209
 21
53.349146
 31
0.0
  0
LINE
  5
78
330
6F
100
AcDbEntity
  8
0
  6
CONTINUOUS
 62
     7
100
AcDbLine
 10
31.117209
 20
53.349146
 30
0.0
 11
30.917206
 21
53.549146
 31
0.0
  0
LINE
  5
79
330
6F
100
AcDbEntity
  8
0
  6
CONTINUOUS
 62
     7
100
AcDbLine
 10
30.917206
 20
53.549146
 30
0.0
 11
30.917206
 21
70.149145
 31
0.0
  0
LINE
  5
7A
330
6F
100
AcDbEntity
  8
0
  6
CONTINUOUS
 62
     7
100
AcDbLine
 10
31.117209
 20
70.349147
 30
0.0
 11
30.917206
 21
70.149145
 31
0.0
  0
LINE
  5
7B
330
6F
100
AcDbEntity
  8
0
  6
CONTINUOUS
 62
     7
100
AcDbLine
 10
31.704106
 20
70.349147
 30
0.0
 11
30.917206
 21
69.562248
 31
0.0
  0
LINE
  5
7C
330
6F
100
AcDbEntity
  8
0
  6
CONTINUOUS
 62
     7
100
AcDbLine
 10
32.826626
 20
70.349147
 30
0.0
 11
30.917206
 21
68.439717
 31
0.0
  0
LINE
  5
7D
330
6F
100
AcDbEntity
  8
0
  6
CONTINUOUS
 62
     7
100
AcDbLine
 10
33.94916
 20
70.349147
 30
0.0
 11
30.917206
 21
67.317185
 31
0.0
  0
LINE
  5
7E
330
6F
100
AcDbEntity
  8
0
  6
CONTINUOUS
 62
     7
100
AcDbLine
 10
35.071694
 20
70.349147
 30
0.0
 11
30.917206
 21
66.194653
 31
0.0
  0
LINE
  5
7F
330
6F
100
AcDbEntity
  8
0
  6
CONTINUOUS
 62
     7
100
AcDbLine
 10
36.194228
 20
70.349147
 30
0.0
 11
30.917206
 21
65.07212
 31
0.0
  0
LINE
  5
80
330
6F
100
AcDbEntity
  8
0
  6
CONTINUOUS
 62
     7
100
AcDbLine
 10
37.316763
 20
70.349147
 30
0.0
 11
30.917206
 21
63.949589
 31
0.0
  0
LINE
  5
81
330
6F
100
AcDbEntity
  8
0
  6
CONTINUOUS
 62
     7
100
AcDbLine
 10
38.439297
 20
70.349147
 30
0.0
 11
30.917206
 21
62.827056
 31
0.0
  0
LINE
  5
82
330
6F
100
AcDbEntity
  8
0
  6
CONTINUOUS
 62
     7
100
AcDbLine
 10
39.561831
 20
70.349147
 30
0.0
 11
30.917206
 21
61.704525
 31
0.0
  0
LINE
  5
83
330
6F
100
AcDbEntity
  8
0
  6
CONTINUOUS
 62
     7
100
AcDbLine
 10
40.684351
 20
70.349147
 30
0.0
 11
30.917206
 21
60.581992
 31
0.0
  0
LINE
  5
84
330
6F
100
AcDbEntity
  8
0
  6
CONTINUOUS
 62
     7
100
AcDbLine
 10
41.806885
 20
70.349147
 30
0.0
 11
30.917206
 21
59.459461
 31
0.0
  0
LINE
  5
85
330
6F
100
AcDbEntity
  8
0
  6
CONTINUOUS
 62
     7
100
AcDbLine
 10
42.929419
 20
70.349147
 30
0.0
 11
30.917206
 21
58.336929
 31
0.0
  0
LINE
  5
86
330
6F
100
AcDbEntity
  8
0
  6
CONTINUOUS
 62
     7
100
AcDbLine
 10
44.051953
 20
70.349147
 30
0.0
 11
30.917206
 21
57.214396
 31
0.0
  0
LINE
  5
87
330
6F
100
AcDbEntity
  8
0
  6
CONTINUOUS
 62
     7
100
AcDbLine
 10
45.174488
 20
70.349147
 30
0.0
 11
30.917206
 21
56.091864
 31
0.0
  0
LINE
  5
88
330
6F
100
AcDbEntity
  8
0
  6
CONTINUOUS
 62
     7
100
AcDbLine
 10
46.297022
 20
70.349147
 30
0.0
 11
30.917206
 21
54.969332
 31
0.0
  0
LINE
  5
89
330
6F
100
AcDbEntity
  8
0
  6
CONTINUOUS
 62
     7
100
AcDbLine
 10
47.419541
 20
70.349147
 30
0.0
 11
30.917206
 21
53.8468
 31
0.0
  0
LINE
  5
8A
330
6F
100
AcDbEntity
  8
0
  6
CONTINUOUS
 62
     7
100
AcDbLine
 10
48.542076
 20
70.349147
 30
0.0
 11
31.542086
 21
53.349146
 31
0.0
  0
LINE
  5
8B
330
6F
100
AcDbEntity
  8
0
  6
CONTINUOUS
 62
     7
100
AcDbLine
 10
49.590909
 20
70.275442
 30
0.0
 11
32.66462
 21
53.349146
 31
0.0
  0
LINE
  5
8C
330
6F
100
AcDbEntity
  8
0
  6
CONTINUOUS
 62
     7
100
AcDbLine
 10
49.717196
 20
69.279204
 30
0.0
 11
33.787139
 21
53.349146
 31
0.0
  0
LINE
  5
8D
330
6F
100
AcDbEntity
  8
0
  6
CONTINUOUS
 62
     7
100
AcDbLine
 10
49.717196
 20
68.156673
 30
0.0
 11
34.909674
 21
53.349146
 31
0.0
  0
LINE
  5
8E
330
6F
100
AcDbEntity
  8
0
  6
CONTINUOUS
 62
     7
100
AcDbLine
 10
49.717196
 20
67.03414
 30
0.0
 11
36.032208
 21
53.349146
 31
0.0
  0
LINE
  5
8F
330
6F
100
AcDbEntity
  8
0
  6
CONTINUOUS
 62
     7
100
AcDbLine
 10
49.717196
 20
65.911609
 30
0.0
 11
37.154742
 21
53.349146
 31
0.0
  0
LINE
  5
90
330
6F
100
AcDbEntity
  8
0
  6
CONTINUOUS
 62
     7
100
AcDbLine
 10
49.717196
 20
64.789076
 30
0.0
 11
38.277277
 21
53.349146
 31
0.0
  0
LINE
  5
91
330
6F
100
AcDbEntity
  8
0
  6
CONTINUOUS
 62
     7
100
AcDbLine
 10
49.717196
 20
63.666544
 30
0.0
 11
39.399811
 21
53.349146
 31
0.0
  0
LINE
  5
92
330
6F
100
AcDbEntity
  8
0
  6
CONTINUOUS
 62
     7
100
AcDbLine
 10
49.717196
 20
62.544013
 30
0.0
 11
40.52233
 21
53.349146
 31
0.0
  0
LINE
  5
93
330
6F
100
AcDbEntity
  8
0
  6
CONTINUOUS
 62
     7
100
AcDbLine
 10
49.717196
 20
61.42148
 30
0.0
 11
41.644865
 21
53.349146
 31
0.0
  0
LINE
  5
94
330
6F
100
AcDbEntity
  8
0
  6
CONTINUOUS
 62
     7
100
AcDbLine
 10
49.717196
 20
60.298948
 30
0.0
 11
42.767399
 21
53.349146
 31
0.0
  0
LINE
  5
95
330
6F
100
AcDbEntity
  8
0
  6
CONTINUOUS
 62
     7
100
AcDbLine
 10
49.717196
 20
59.176416
 30
0.0
 11
43.889933
 21
53.349146
 31
0.0
  0
LINE
  5
96
330
6F
100
AcDbEntity
  8
0
  6
CONTINUOUS
 62
     7
100
AcDbLine
 10
49.717196
 20
58.053884
 30
0.0
 11
45.012467
 21
53.349146
 31
0.0
  0
LINE
  5
97
330
6F
100
AcDbEntity
  8
0
  6
CONTINUOUS
 62
     7
100
AcDbLine
 10
49.717196
 20
56.931352
 30
0.0
 11
46.135002
 21
53.349146
 31
0.0
  0
LINE
  5
98
330
6F
100
AcDbEntity
  8
0
  6
CONTINUOUS
 62
     7
100
AcDbLine
 10
49.717196
 20
55.80882
 30
0.0
 11
47.257536
 21
53.349146
 31
0.0
  0
LINE
  5
99
330
6F
100
AcDbEntity
  8
0
  6
CONTINUOUS
 62
     7
100
AcDbLine
 10
49.717196
 20
54.686288
 30
0.0
 11
48.380055
 21
53.349146
 31
0.0
  0
LINE
  5
9A
330
6F
100
AcDbEntity
  8
0
  6
CONTINUOUS
 62
     7
100
AcDbLine
 10
49.717196
 20
53.563756
 30
0.0
 11
49.50259
 21
53.349146
 31
0.0
  0
LINE
  5
9B
330
6F
100
AcDbEntity
  8
0
  6
CONTINUOUS
 62
     7
100
AcDbLine
 10
30.917206
 20
54.224024
 30
0.0
 11
31.792083
 21
53.349146
 31
0.0
  0
LINE
  5
9C
330
6F
100
AcDbEntity
  8
0
  6
CONTINUOUS
 62
     7
100
AcDbLine
 10
30.917206
 20
55.346556
 30
0.0
 11
32.914617
 21
53.349146
 31
0.0
  0
LINE
  5
9D
330
6F
100
AcDbEntity
  8
0
  6
CONTINUOUS
 62
     7
100
AcDbLine
 10
30.917206
 20
56.469088
 30
0.0
 11
34.037151
 21
53.349146
 31
0.0
  0
LINE
  5
9E
330
6F
100
AcDbEntity
  8
0
  6
CONTINUOUS
 62
     7
100
AcDbLine
 10
30.917206
 20
57.59162
 30
0.0
 11
35.159671
 21
53.349146
 31
0.0
  0
LINE
  5
9F
330
6F
100
AcDbEntity
  8
0
  6
CONTINUOUS
 62
     7
100
AcDbLine
 10
30.917206
 20
58.714151
 30
0.0
 11
36.282205
 21
53.349146
 31
0.0
  0
LINE
  5
A0
330
6F
100
AcDbEntity
  8
0
  6
CONTINUOUS
 62
     7
100
AcDbLine
 10
30.917206
 20
59.836684
 30
0.0
 11
37.404739
 21
53.349146
 31
0.0
  0
LINE
  5
A1
330
6F
100
AcDbEntity
  8
0
  6
CONTINUOUS
 62
     7
100
AcDbLine
 10
30.917206
 20
60.959216
 30
0.0
 11
38.527273
 21
53.349146
 31
0.0
  0
LINE
  5
A2
330
6F
100
AcDbEntity
  8
0
  6
CONTINUOUS
 62
     7
100
AcDbLine
 10
30.917206
 20
62.081748
 30
0.0
 11
39.649808
 21
53.349146
 31
0.0
  0
LINE
  5
A3
330
6F
100
AcDbEntity
  8
0
  6
CONTINUOUS
 62
     7
100
AcDbLine
 10
30.917206
 20
63.20428
 30
0.0
 11
40.772342
 21
53.349146
 31
0.0
  0
LINE
  5
A4
330
6F
100
AcDbEntity
  8
0
  6
CONTINUOUS
 62
     7
100
AcDbLine
 10
30.917206
 20
64.326812
 30
0.0
 11
41.894876
 21
53.349146
 31
0.0
  0
LINE
  5
A5
330
6F
100
AcDbEntity
  8
0
  6
CONTINUOUS
 62
     7
100
AcDbLine
 10
30.917206
 20
65.449344
 30
0.0
 11
43.017396
 21
53.349146
 31
0.0
  0
LINE
  5
A6
330
6F
100
AcDbEntity
  8
0
  6
CONTINUOUS
 62
     7
100
AcDbLine
 10
30.917206
 20
66.571876
 30
0.0
 11
44.13993
 21
53.349146
 31
0.0
  0
LINE
  5
A7
330
6F
100
AcDbEntity
  8
0
  6
CONTINUOUS
 62
     7
100
AcDbLine
 10
30.917206
 20
67.694408
 30
0.0
 11
45.262464
 21
53.349146
 31
0.0
  0
LINE
  5
A8
330
6F
100
AcDbEntity
  8
0
  6
CONTINUOUS
 62
     7
100
AcDbLine
 10
30.917206
 20
68.816939
 30
0.0
 11
46.384998
 21
53.349146
 31
0.0
  0
LINE
  5
A9
330
6F
100
AcDbEntity
  8
0
  6
CONTINUOUS
 62
     7
100
AcDbLine
 10
30.917206
 20
69.939471
 30
0.0
 11
47.507533
 21
53.349146
 31
0.0
  0
LINE
  5
AA
330
6F
100
AcDbEntity
  8
0
  6
CONTINUOUS
 62
     7
100
AcDbLine
 10
31.630062
 20
70.349147
 30
0.0
 11
48.630067
 21
53.349146
 31
0.0
  0
LINE
  5
AB
330
6F
100
AcDbEntity
  8
0
  6
CONTINUOUS
 62
     7
100
AcDbLine
 10
32.752597
 20
70.349147
 30
0.0
 11
49.634897
 21
53.466841
 31
0.0
  0
LINE
  5
AC
330
6F
100
AcDbEntity
  8
0
  6
CONTINUOUS
 62
     7
100
AcDbLine
 10
33.875131
 20
70.349147
 30
0.0
 11
49.717196
 21
54.507068
 31
0.0
  0
LINE
  5
AD
330
6F
100
AcDbEntity
  8
0
  6
CONTINUOUS
 62
     7
100
AcDbLine
 10
34.99765
 20
70.349147
 30
0.0
 11
49.717196
 21
55.6296
 31
0.0
  0
LINE
  5
AE
330
6F
100
AcDbEntity
  8
0
  6
CONTINUOUS
 62
     7
100
AcDbLine
 10
36.120184
 20
70.349147
 30
0.0
 11
49.717196
 21
56.752132
 31
0.0
  0
LINE
  5
AF
330
6F
100
AcDbEntity
  8
0
  6
CONTINUOUS
 62
     7
100
AcDbLine
 10
37.242719
 20
70.349147
 30
0.0
 11
49.717196
 21
57.874664
 31
0.0
  0
LINE
  5
B0
330
6F
100
AcDbEntity
  8
0
  6
CONTINUOUS
 62
     7
100
AcDbLine
 10
38.365253
 20
70.349147
 30
0.0
 11
49.717196
 21
58.997196
 31
0.0
  0
LINE
  5
B1
330
6F
100
AcDbEntity
  8
0
  6
CONTINUOUS
 62
     7
100
AcDbLine
 10
39.487787
 20
70.349147
 30
0.0
 11
49.717196
 21
60.119728
 31
0.0
  0
LINE
  5
B2
330
6F
100
AcDbEntity
  8
0
  6
CONTINUOUS
 62
     7
100
AcDbLine
 10
40.610322
 20
70.349147
 30
0.0
 11
49.717196
 21
61.24226
 31
0.0
  0
LINE
  5
B3
330
6F
100
AcDbEntity
  8
0
  6
CONTINUOUS
 62
     7
100
AcDbLine
 10
41.732856
 20
70.349147
 30
0.0
 11
49.717196
 21
62.364792
 31
0.0
  0
LINE
  5
B4
330
6F
100
AcDbEntity
  8
0
  6
CONTINUOUS
 62
     7
100
AcDbLine
 10
42.855375
 20
70.349147
 30
0.0
 11
49.717196
 21
63.487324
 31
0.0
  0
LINE
  5
B5
330
6F
100
AcDbEntity
  8
0
  6
CONTINUOUS
 62
     7
100
AcDbLine
 10
43.97791
 20
70.349147
 30
0.0
 11
49.717196
 21
64.609856
 31
0.0
  0
LINE
  5
B6
330
6F
100
AcDbEntity
  8
0
  6
CONTINUOUS
 62
     7
100
AcDbLine
 10
45.100444
 20
70.349147
 30
0.0
 11
49.717196
 21
65.732388
 31
0.0
  0
LINE
  5
B7
330
6F
100
AcDbEntity
  8
0
  6
CONTINUOUS
 62
     7
100
AcDbLine
 10
46.222978
 20
70.349147
 30
0.0
 11
49.717196
 21
66.85492
 31
0.0
  0
LINE
  5
B8
330
6F
100
AcDbEntity
  8
0
  6
CONTINUOUS
 62
     7
100
AcDbLine
 10
47.345512
 20
70.349147
 30
0.0
 11
49.717196
 21
67.977452
 31
0.0
  0
LINE
  5
B9
330
6F
100
AcDbEntity
  8
0
  6
CONTINUOUS
 62
     7
100
AcDbLine
 10
48.468047
 20
70.349147
 30
0.0
 11
49.717196
 21
69.099984
 31
0.0
  0
LINE
  5
BA
330
6F
100
AcDbEntity
  8
0
  6
CONTINUOUS
 62
     7
100
AcDbLine
 10
227.155033
 20
54.699146
 30
0.0
 11
231.35503
 21
54.699146
 31
0.0
  0
LINE
  5
BB
330
6F
100
AcDbEntity
  8
0
  6
CONTINUOUS
 62
     7
100
AcDbLine
 10
227.155033
 20
54.699146
 30
0.0
 11
227.155033
 21
36.599145
 31
0.0
  0
LINE
  5
BC
330
6F
100
AcDbEntity
  8
0
  6
CONTINUOUS
 62
     7
100
AcDbLine
 10
227.155033
 20
36.599145
 30
0.0
 11
231.35503
 21
36.599145
 31
0.0
  0
LINE
  5
BD
330
6F
100
AcDbEntity
  8
0
  6
CONTINUOUS
 62
     7
100
AcDbLine
 10
231.35503
 20
54.699146
 30
0.0
 11
231.35503
 21
36.599145
 31
0.0
  0
LINE
  5
BE
330
6F
100
AcDbEntity
  8
0
  6
CONTINUOUS
 62
     7
100
AcDbLine
 10
233.855042
 20
54.699146
 30
0.0
 11
238.855037
 21
54.699146
 31
0.0
  0
LINE
  5
BF
330
6F
100
AcDbEntity
  8
0
  6
CONTINUOUS
 62
     7
100
AcDbLine
 10
233.855042
 20
54.699146
 30
0.0
 11
233.855042
 21
36.599145
 31
0.0
  0
LINE
  5
C0
330
6F
100
AcDbEntity
  8
0
  6
CONTINUOUS
 62
     7
100
AcDbLine
 10
233.855042
 20
36.599145
 30
0.0
 11
238.855037
 21
36.599145
 31
0.0
  0
LINE
  5
C1
330
6F
100
AcDbEntity
  8
0
  6
CONTINUOUS
 62
     7
100
AcDbLine
 10
238.855037
 20
54.699146
 30
0.0
 11
238.855037
 21
36.599145
 31
0.0
  0
LINE
  5
C2
330
6F
100
AcDbEntity
  8
0
  6
CONTINUOUS
 62
     7
100
AcDbLine
 10
227.155033
 20
53.902132
 30
0.0
 11
227.952051
 21
54.699146
 31
0.0
  0
LINE
  5
C3
330
6F
100
AcDbEntity
  8
0
  6
CONTINUOUS
 62
     7
100
AcDbLine
 10
227.155033
 20
52.7796
 30
0.0
 11
229.074586
 21
54.699146
 31
0.0
  0
LINE
  5
C4
330
6F
100
AcDbEntity
  8
0
  6
CONTINUOUS
 62
     7
100
AcDbLine
 10
227.155033
 20
51.657068
 30
0.0
 11
230.19712
 21
54.699146
 31
0.0
  0
LINE
  5
C5
330
6F
100
AcDbEntity
  8
0
  6
CONTINUOUS
 62
     7
100
AcDbLine
 10
227.155033
 20
50.534536
 30
0.0
 11
231.319654
 21
54.699146
 31
0.0
  0
LINE
  5
C6
330
6F
100
AcDbEntity
  8
0
  6
CONTINUOUS
 62
     7
100
AcDbLine
 10
227.155033
 20
49.412004
 30
0.0
 11
231.35503
 21
53.612004
 31
0.0
  0
LINE
  5
C7
330
6F
100
AcDbEntity
  8
0
  6
CONTINUOUS
 62
     7
100
AcDbLine
 10
227.155033
 20
48.289472
 30
0.0
 11
231.35503
 21
52.489472
 31
0.0
  0
LINE
  5
C8
330
6F
100
AcDbEntity
  8
0
  6
CONTINUOUS
 62
     7
100
AcDbLine
 10
227.155033
 20
47.16694
 30
0.0
 11
231.35503
 21
51.36694
 31
0.0
  0
LINE
  5
C9
330
6F
100
AcDbEntity
  8
0
  6
CONTINUOUS
 62
     7
100
AcDbLine
 10
227.155033
 20
46.044408
 30
0.0
 11
231.35503
 21
50.244408
 31
0.0
  0
LINE
  5
CA
330
6F
100
AcDbEntity
  8
0
  6
CONTINUOUS
 62
     7
100
AcDbLine
 10
227.155033
 20
44.921876
 30
0.0
 11
231.35503
 21
49.121876
 31
0.0
  0
LINE
  5
CB
330
6F
100
AcDbEntity
  8
0
  6
CONTINUOUS
 62
     7
100
AcDbLine
 10
227.155033
 20
43.799344
 30
0.0
 11
231.35503
 21
47.999344
 31
0.0
  0
LINE
  5
CC
330
6F
100
AcDbEntity
  8
0
  6
CONTINUOUS
 62
     7
100
AcDbLine
 10
227.155033
 20
42.676812
 30
0.0
 11
231.35503
 21
46.876812
 31
0.0
  0
LINE
  5
CD
330
6F
100
AcDbEntity
  8
0
  6
CONTINUOUS
 62
     7
100
AcDbLine
 10
227.155033
 20
41.55428
 30
0.0
 11
231.35503
 21
45.75428
 31
0.0
  0
LINE
  5
CE
330
6F
100
AcDbEntity
  8
0
  6
CONTINUOUS
 62
     7
100
AcDbLine
 10
227.155033
 20
40.431747
 30
0.0
 11
231.35503
 21
44.631748
 31
0.0
  0
LINE
  5
CF
330
6F
100
AcDbEntity
  8
0
  6
CONTINUOUS
 62
     7
100
AcDbLine
 10
227.155033
 20
39.309216
 30
0.0
 11
231.35503
 21
43.509216
 31
0.0
  0
LINE
  5
D0
330
6F
100
AcDbEntity
  8
0
  6
CONTINUOUS
 62
     7
100
AcDbLine
 10
227.155033
 20
38.186683
 30
0.0
 11
231.35503
 21
42.386684
 31
0.0
  0
LINE
  5
D1
330
6F
100
AcDbEntity
  8
0
  6
CONTINUOUS
 62
     7
100
AcDbLine
 10
227.155033
 20
37.064151
 30
0.0
 11
231.35503
 21
41.264151
 31
0.0
  0
LINE
  5
D2
330
6F
100
AcDbEntity
  8
0
  6
CONTINUOUS
 62
     7
100
AcDbLine
 10
227.812562
 20
36.599145
 30
0.0
 11
231.35503
 21
40.14162
 31
0.0
  0
LINE
  5
D3
330
6F
100
AcDbEntity
  8
0
  6
CONTINUOUS
 62
     7
100
AcDbLine
 10
228.935096
 20
36.599145
 30
0.0
 11
231.35503
 21
39.019087
 31
0.0
  0
LINE
  5
D4
330
6F
100
AcDbEntity
  8
0
  6
CONTINUOUS
 62
     7
100
AcDbLine
 10
230.05763
 20
36.599145
 30
0.0
 11
231.35503
 21
37.896556
 31
0.0
  0
LINE
  5
D5
330
6F
100
AcDbEntity
  8
0
  6
CONTINUOUS
 62
     7
100
AcDbLine
 10
231.180164
 20
36.599145
 30
0.0
 11
231.35503
 21
36.774024
 31
0.0
  0
LINE
  5
D6
330
6F
100
AcDbEntity
  8
0
  6
CONTINUOUS
 62
     7
100
AcDbLine
 10
227.886605
 20
36.599145
 30
0.0
 11
227.155033
 21
37.330712
 31
0.0
  0
LINE
  5
D7
330
6F
100
AcDbEntity
  8
0
  6
CONTINUOUS
 62
     7
100
AcDbLine
 10
229.00914
 20
36.599145
 30
0.0
 11
227.155033
 21
38.453244
 31
0.0
  0
LINE
  5
D8
330
6F
100
AcDbEntity
  8
0
  6
CONTINUOUS
 62
     7
100
AcDbLine
 10
230.131674
 20
36.599145
 30
0.0
 11
227.155033
 21
39.575776
 31
0.0
  0
LINE
  5
D9
330
6F
100
AcDbEntity
  8
0
  6
CONTINUOUS
 62
     7
100
AcDbLine
 10
231.254193
 20
36.599145
 30
0.0
 11
227.155033
 21
40.698308
 31
0.0
  0
LINE
  5
DA
330
6F
100
AcDbEntity
  8
0
  6
CONTINUOUS
 62
     7
100
AcDbLine
 10
231.35503
 20
37.62084
 30
0.0
 11
227.155033
 21
41.82084
 31
0.0
  0
LINE
  5
DB
330
6F
100
AcDbEntity
  8
0
  6
CONTINUOUS
 62
     7
100
AcDbLine
 10
231.35503
 20
38.743372
 30
0.0
 11
227.155033
 21
42.943372
 31
0.0
  0
LINE
  5
DC
330
6F
100
AcDbEntity
  8
0
  6
CONTINUOUS
 62
     7
100
AcDbLine
 10
231.35503
 20
39.865904
 30
0.0
 11
227.155033
 21
44.065904
 31
0.0
  0
LINE
  5
DD
330
6F
100
AcDbEntity
  8
0
  6
CONTINUOUS
 62
     7
100
AcDbLine
 10
231.35503
 20
40.988436
 30
0.0
 11
227.155033
 21
45.188436
 31
0.0
  0
LINE
  5
DE
330
6F
100
AcDbEntity
  8
0
  6
CONTINUOUS
 62
     7
100
AcDbLine
 10
231.35503
 20
42.110968
 30
0.0
 11
227.155033
 21
46.310968
 31
0.0
  0
LINE
  5
DF
330
6F
100
AcDbEntity
  8
0
  6
CONTINUOUS
 62
     7
100
AcDbLine
 10
231.35503
 20
43.2335
 30
0.0
 11
227.155033
 21
47.4335
 31
0.0
  0
LINE
  5
E0
330
6F
100
AcDbEntity
  8
0
  6
CONTINUOUS
 62
     7
100
AcDbLine
 10
231.35503
 20
44.356032
 30
0.0
 11
227.155033
 21
48.556032
 31
0.0
  0
LINE
  5
E1
330
6F
100
AcDbEntity
  8
0
  6
CONTINUOUS
 62
     7
100
AcDbLine
 10
231.35503
 20
45.478564
 30
0.0
 11
227.155033
 21
49.678564
 31
0.0
  0
LINE
  5
E2
330
6F
100
AcDbEntity
  8
0
  6
CONTINUOUS
 62
     7
100
AcDbLine
 10
231.35503
 20
46.601096
 30
0.0
 11
227.155033
 21
50.801096
 31
0.0
  0
LINE
  5
E3
330
6F
100
AcDbEntity
  8
0
  6
CONTINUOUS
 62
     7
100
AcDbLine
 10
231.35503
 20
47.723628
 30
0.0
 11
227.155033
 21
51.923628
 31
0.0
  0
LINE
  5
E4
330
6F
100
AcDbEntity
  8
0
  6
CONTINUOUS
 62
     7
100
AcDbLine
 10
231.35503
 20
48.84616
 30
0.0
 11
227.155033
 21
53.04616
 31
0.0
  0
LINE
  5
E5
330
6F
100
AcDbEntity
  8
0
  6
CONTINUOUS
 62
     7
100
AcDbLine
 10
231.35503
 20
49.968692
 30
0.0
 11
227.155033
 21
54.168692
 31
0.0
  0
LINE
  5
E6
330
6F
100
AcDbEntity
  8
0
  6
CONTINUOUS
 62
     7
100
AcDbLine
 10
231.35503
 20
51.091224
 30
0.0
 11
227.747116
 21
54.699146
 31
0.0
  0
LINE
  5
E7
330
6F
100
AcDbEntity
  8
0
  6
CONTINUOUS
 62
     7
100
AcDbLine
 10
231.35503
 20
52.213756
 30
0.0
 11
228.86965
 21
54.699146
 31
0.0
  0
LINE
  5
E8
330
6F
100
AcDbEntity
  8
0
  6
CONTINUOUS
 62
     7
100
AcDbLine
 10
231.35503
 20
53.336288
 30
0.0
 11
229.992184
 21
54.699146
 31
0.0
  0
LINE
  5
E9
330
6F
100
AcDbEntity
  8
0
  6
CONTINUOUS
 62
     7
100
AcDbLine
 10
231.35503
 20
54.45882
 30
0.0
 11
231.114704
 21
54.699146
 31
0.0
  0
LINE
  5
EA
330
6F
100
AcDbEntity
  8
0
  6
CONTINUOUS
 62
     7
100
AcDbLine
 10
233.855042
 20
53.86694
 30
0.0
 11
234.687242
 21
54.699146
 31
0.0
  0
LINE
  5
EB
330
6F
100
AcDbEntity
  8
0
  6
CONTINUOUS
 62
     7
100
AcDbLine
 10
233.855042
 20
52.744408
 30
0.0
 11
235.809776
 21
54.699146
 31
0.0
  0
LINE
  5
EC
330
6F
100
AcDbEntity
  8
0
  6
CONTINUOUS
 62
     7
100
AcDbLine
 10
233.855042
 20
51.621876
 30
0.0
 11
236.932311
 21
54.699146
 31
0.0
  0
LINE
  5
ED
330
6F
100
AcDbEntity
  8
0
  6
CONTINUOUS
 62
     7
100
AcDbLine
 10
233.855042
 20
50.499344
 30
0.0
 11
238.054845
 21
54.699146
 31
0.0
  0
LINE
  5
EE
330
6F
100
AcDbEntity
  8
0
  6
CONTINUOUS
 62
     7
100
AcDbLine
 10
233.855042
 20
49.376812
 30
0.0
 11
238.855037
 21
54.376812
 31
0.0
  0
LINE
  5
EF
330
6F
100
AcDbEntity
  8
0
  6
CONTINUOUS
 62
     7
100
AcDbLine
 10
233.855042
 20
48.254279
 30
0.0
 11
238.855037
 21
53.25428
 31
0.0
  0
LINE
  5
F0
330
6F
100
AcDbEntity
  8
0
  6
CONTINUOUS
 62
     7
100
AcDbLine
 10
233.855042
 20
47.131748
 30
0.0
 11
238.855037
 21
52.131748
 31
0.0
  0
LINE
  5
F1
330
6F
100
AcDbEntity
  8
0
  6
CONTINUOUS
 62
     7
100
AcDbLine
 10
233.855042
 20
46.009216
 30
0.0
 11
238.855037
 21
51.009216
 31
0.0
  0
LINE
  5
F2
330
6F
100
AcDbEntity
  8
0
  6
CONTINUOUS
 62
     7
100
AcDbLine
 10
233.855042
 20
44.886684
 30
0.0
 11
238.855037
 21
49.886684
 31
0.0
  0
LINE
  5
F3
330
6F
100
AcDbEntity
  8
0
  6
CONTINUOUS
 62
     7
100
AcDbLine
 10
233.855042
 20
43.764152
 30
0.0
 11
238.855037
 21
48.764152
 31
0.0
  0
LINE
  5
F4
330
6F
100
AcDbEntity
  8
0
  6
CONTINUOUS
 62
     7
100
AcDbLine
 10
233.855042
 20
42.641619
 30
0.0
 11
238.855037
 21
47.64162
 31
0.0
  0
LINE
  5
F5
330
6F
100
AcDbEntity
  8
0
  6
CONTINUOUS
 62
     7
100
AcDbLine
 10
233.855042
 20
41.519088
 30
0.0
 11
238.855037
 21
46.519088
 31
0.0
  0
LINE
  5
F6
330
6F
100
AcDbEntity
  8
0
  6
CONTINUOUS
 62
     7
100
AcDbLine
 10
233.855042
 20
40.396555
 30
0.0
 11
238.855037
 21
45.396555
 31
0.0
  0
LINE
  5
F7
330
6F
100
AcDbEntity
  8
0
  6
CONTINUOUS
 62
     7
100
AcDbLine
 10
233.855042
 20
39.274024
 30
0.0
 11
238.855037
 21
44.274024
 31
0.0
  0
LINE
  5
F8
330
6F
100
AcDbEntity
  8
0
  6
CONTINUOUS
 62
     7
100
AcDbLine
 10
233.855042
 20
38.151492
 30
0.0
 11
238.855037
 21
43.151491
 31
0.0
  0
LINE
  5
F9
330
6F
100
AcDbEntity
  8
0
  6
CONTINUOUS
 62
     7
100
AcDbLine
 10
233.855042
 20
37.02896
 30
0.0
 11
238.855037
 21
42.02896
 31
0.0
  0
LINE
  5
FA
330
6F
100
AcDbEntity
  8
0
  6
CONTINUOUS
 62
     7
100
AcDbLine
 10
234.547752
 20
36.599145
 30
0.0
 11
238.855037
 21
40.906428
 31
0.0
  0
LINE
  5
FB
330
6F
100
AcDbEntity
  8
0
  6
CONTINUOUS
 62
     7
100
AcDbLine
 10
235.670287
 20
36.599145
 30
0.0
 11
238.855037
 21
39.783895
 31
0.0
  0
LINE
  5
FC
330
6F
100
AcDbEntity
  8
0
  6
CONTINUOUS
 62
     7
100
AcDbLine
 10
236.792821
 20
36.599145
 30
0.0
 11
238.855037
 21
38.661364
 31
0.0
  0
LINE
  5
FD
330
6F
100
AcDbEntity
  8
0
  6
CONTINUOUS
 62
     7
100
AcDbLine
 10
237.915355
 20
36.599145
 30
0.0
 11
238.855037
 21
37.538831
 31
0.0
  0
LINE
  5
FE
330
6F
100
AcDbEntity
  8
0
  6
CONTINUOUS
 62
     7
100
AcDbLine
 10
234.621796
 20
36.599145
 30
0.0
 11
233.855042
 21
37.365903
 31
0.0
  0
LINE
  5
FF
330
6F
100
AcDbEntity
  8
0
  6
CONTINUOUS
 62
     7
100
AcDbLine
 10
235.744331
 20
36.599145
 30
0.0
 11
233.855042
 21
38.488436
 31
0.0
  0
LINE
  5
100
330
6F
100
AcDbEntity
  8
0
  6
CONTINUOUS
 62
     7
100
AcDbLine
 10
236.866865
 20
36.599145
 30
0.0
 11
233.855042
 21
39.610968
 31
0.0
  0
LINE
  5
101
330
6F
100
AcDbEntity
  8
0
  6
CONTINUOUS
 62
     7
100
AcDbLine
 10
237.989384
 20
36.599145
 30
0.0
 11
233.855042
 21
40.7335
 31
0.0
  0
LINE
  5
102
330
6F
100
AcDbEntity
  8
0
  6
CONTINUOUS
 62
     7
100
AcDbLine
 10
238.855037
 20
36.856032
 30
0.0
 11
233.855042
 21
41.856032
 31
0.0
  0
LINE
  5
103
330
6F
100
AcDbEntity
  8
0
  6
CONTINUOUS
 62
     7
100
AcDbLine
 10
238.855037
 20
37.978564
 30
0.0
 11
233.855042
 21
42.978564
 31
0.0
  0
LINE
  5
104
330
6F
100
AcDbEntity
  8
0
  6
CONTINUOUS
 62
     7
100
AcDbLine
 10
238.855037
 20
39.101096
 30
0.0
 11
233.855042
 21
44.101096
 31
0.0
  0
LINE
  5
105
330
6F
100
AcDbEntity
  8
0
  6
CONTINUOUS
 62
     7
100
AcDbLine
 10
238.855037
 20
40.223628
 30
0.0
 11
233.855042
 21
45.223628
 31
0.0
  0
LINE
  5
106
330
6F
100
AcDbEntity
  8
0
  6
CONTINUOUS
 62
     7
100
AcDbLine
 10
238.855037
 20
41.34616
 30
0.0
 11
233.855042
 21
46.34616
 31
0.0
  0
LINE
  5
107
330
6F
100
AcDbEntity
  8
0
  6
CONTINUOUS
 62
     7
100
AcDbLine
 10
238.855037
 20
42.468692
 30
0.0
 11
233.855042
 21
47.468692
 31
0.0
  0
LINE
  5
108
330
6F
100
AcDbEntity
  8
0
  6
CONTINUOUS
 62
     7
100
AcDbLine
 10
238.855037
 20
43.591224
 30
0.0
 11
233.855042
 21
48.591224
 31
0.0
  0
LINE
  5
109
330
6F
100
AcDbEntity
  8
0
  6
CONTINUOUS
 62
     7
100
AcDbLine
 10
238.855037
 20
44.713756
 30
0.0
 11
233.855042
 21
49.713756
 31
0.0
  0
LINE
  5
10A
330
6F
100
AcDbEntity
  8
0
  6
CONTINUOUS
 62
     7
100
AcDbLine
 10
238.855037
 20
45.836288
 30
0.0
 11
233.855042
 21
50.836288
 31
0.0
  0
LINE
  5
10B
330
6F
100
AcDbEntity
  8
0
  6
CONTINUOUS
 62
     7
100
AcDbLine
 10
238.855037
 20
46.95882
 30
0.0
 11
233.855042
 21
51.95882
 31
0.0
  0
LINE
  5
10C
330
6F
100
AcDbEntity
  8
0
  6
CONTINUOUS
 62
     7
100
AcDbLine
 10
238.855037
 20
48.081352
 30
0.0
 11
233.855042
 21
53.081352
 31
0.0
  0
LINE
  5
10D
330
6F
100
AcDbEntity
  8
0
  6
CONTINUOUS
 62
     7
100
AcDbLine
 10
238.855037
 20
49.203884
 30
0.0
 11
233.855042
 21
54.203884
 31
0.0
  0
LINE
  5
10E
330
6F
100
AcDbEntity
  8
0
  6
CONTINUOUS
 62
     7
100
AcDbLine
 10
238.855037
 20
50.326416
 30
0.0
 11
234.482306
 21
54.699146
 31
0.0
  0
LINE
  5
10F
330
6F
100
AcDbEntity
  8
0
  6
CONTINUOUS
 62
     7
100
AcDbLine
 10
238.855037
 20
51.448948
 30
0.0
 11
235.604841
 21
54.699146
 31
0.0
  0
LINE
  5
110
330
6F
100
AcDbEntity
  8
0
  6
CONTINUOUS
 62
     7
100
AcDbLine
 10
238.855037
 20
52.57148
 30
0.0
 11
236.727375
 21
54.699146
 31
0.0
  0
LINE
  5
111
330
6F
100
AcDbEntity
  8
0
  6
CONTINUOUS
 62
     7
100
AcDbLine
 10
238.855037
 20
53.694012
 30
0.0
 11
237.849909
 21
54.699146
 31
0.0
  0
ENDBLK
  5
71
330
6F
100
AcDbEntity
  8
0
100
AcDbBlockEnd
  0
BLOCK
  5
177
330
176
100
AcDbEntity
  8
0
100
AcDbBlockBegin
  2
BLKF012
 70
     0
 71
     0
 10
0.0
 20
0.0
 30
0.0
  3
BLKF012
  1

  0
LINE
  5
17A
330
176
100
AcDbEntity
  8
0
  6
CONTINUOUS
 62
     7
100
AcDbLine
 10
65.767207
 20
45.649145
 30
0.0
 11
65.751442
 21
45.442364
 31
0.0
  0
LINE
  5
17B
330
176
100
AcDbEntity
  8
0
  6
CONTINUOUS
 62
     7
100
AcDbLine
 10
65.751442
 20
45.442364
 30
0.0
 11
65.743217
 21
45.339052
 31
0.0
  0
LINE
  5
17C
330
176
100
AcDbEntity
  8
0
  6
CONTINUOUS
 62
     7
100
AcDbLine
 10
65.743217
 20
45.339052
 30
0.0
 11
65.734579
 21
45.235833
 31
0.0
  0
LINE
  5
17D
330
176
100
AcDbEntity
  8
0
  6
CONTINUOUS
 62
     7
100
AcDbLine
 10
65.734579
 20
45.235833
 30
0.0
 11
65.725393
 21
45.13274
 31
0.0
  0
LINE
  5
17E
330
176
100
AcDbEntity
  8
0
  6
CONTINUOUS
 62
     7
100
AcDbLine
 10
65.725393
 20
45.13274
 30
0.0
 11
65.715521
 21
45.029802
 31
0.0
  0
LINE
  5
17F
330
176
100
AcDbEntity
  8
0
  6
CONTINUOUS
 62
     7
100
AcDbLine
 10
65.715521
 20
45.029802
 30
0.0
 11
65.704826
 21
44.927051
 31
0.0
  0
LINE
  5
180
330
176
100
AcDbEntity
  8
0
  6
CONTINUOUS
 62
     7
100
AcDbLine
 10
65.704826
 20
44.927051
 30
0.0
 11
65.69317
 21
44.824519
 31
0.0
  0
LINE
  5
181
330
176
100
AcDbEntity
  8
0
  6
CONTINUOUS
 62
     7
100
AcDbLine
 10
65.69317
 20
44.824519
 30
0.0
 11
65.680416
 21
44.722236
 31
0.0
  0
LINE
  5
182
330
176
100
AcDbEntity
  8
0
  6
CONTINUOUS
 62
     7
100
AcDbLine
 10
65.680416
 20
44.722236
 30
0.0
 11
65.666427
 21
44.620234
 31
0.0
  0
LINE
  5
183
330
176
100
AcDbEntity
  8
0
  6
CONTINUOUS
 62
     7
100
AcDbLine
 10
65.666427
 20
44.620234
 30
0.0
 11
65.658927
 21
44.569348
 31
0.0
  0
LINE
  5
184
330
176
100
AcDbEntity
  8
0
  6
CONTINUOUS
 62
     7
100
AcDbLine
 10
65.658927
 20
44.569348
 30
0.0
 11
65.651066
 21
44.518544
 31
0.0
  0
LINE
  5
185
330
176
100
AcDbEntity
  8
0
  6
CONTINUOUS
 62
     7
100
AcDbLine
 10
65.651066
 20
44.518544
 30
0.0
 11
65.642828
 21
44.467826
 31
0.0
  0
LINE
  5
186
330
176
100
AcDbEntity
  8
0
  6
CONTINUOUS
 62
     7
100
AcDbLine
 10
65.642828
 20
44.467826
 30
0.0
 11
65.634196
 21
44.417197
 31
0.0
  0
LINE
  5
187
330
176
100
AcDbEntity
  8
0
  6
CONTINUOUS
 62
     7
100
AcDbLine
 10
65.634196
 20
44.417197
 30
0.0
 11
65.625151
 21
44.366662
 31
0.0
  0
LINE
  5
188
330
176
100
AcDbEntity
  8
0
  6
CONTINUOUS
 62
     7
100
AcDbLine
 10
65.625151
 20
44.366662
 30
0.0
 11
65.615679
 21
44.316225
 31
0.0
  0
LINE
  5
189
330
176
100
AcDbEntity
  8
0
  6
CONTINUOUS
 62
     7
100
AcDbLine
 10
65.615679
 20
44.316225
 30
0.0
 11
65.60576
 21
44.265889
 31
0.0
  0
LINE
  5
18A
330
176
100
AcDbEntity
  8
0
  6
CONTINUOUS
 62
     7
100
AcDbLine
 10
65.60576
 20
44.265889
 30
0.0
 11
65.595378
 21
44.215658
 31
0.0
  0
LINE
  5
18B
330
176
100
AcDbEntity
  8
0
  6
CONTINUOUS
 62
     7
100
AcDbLine
 10
65.595378
 20
44.215658
 30
0.0
 11
65.584515
 21
44.165536
 31
0.0
  0
LINE
  5
18C
330
176
100
AcDbEntity
  8
0
  6
CONTINUOUS
 62
     7
100
AcDbLine
 10
65.584515
 20
44.165536
 30
0.0
 11
65.573156
 21
44.115528
 31
0.0
  0
LINE
  5
18D
330
176
100
AcDbEntity
  8
0
  6
CONTINUOUS
 62
     7
100
AcDbLine
 10
65.573156
 20
44.115528
 30
0.0
 11
65.561281
 21
44.065636
 31
0.0
  0
LINE
  5
18E
330
176
100
AcDbEntity
  8
0
  6
CONTINUOUS
 62
     7
100
AcDbLine
 10
65.561281
 20
44.065636
 30
0.0
 11
65.548875
 21
44.015866
 31
0.0
  0
LINE
  5
18F
330
176
100
AcDbEntity
  8
0
  6
CONTINUOUS
 62
     7
100
AcDbLine
 10
65.548875
 20
44.015866
 30
0.0
 11
65.534523
 21
43.960956
 31
0.0
  0
LINE
  5
190
330
176
100
AcDbEntity
  8
0
  6
CONTINUOUS
 62
     7
100
AcDbLine
 10
65.534523
 20
43.960956
 30
0.0
 11
65.519542
 21
43.90619
 31
0.0
  0
LINE
  5
191
330
176
100
AcDbEntity
  8
0
  6
CONTINUOUS
 62
     7
100
AcDbLine
 10
65.519542
 20
43.90619
 30
0.0
 11
65.503973
 21
43.851557
 31
0.0
  0
LINE
  5
192
330
176
100
AcDbEntity
  8
0
  6
CONTINUOUS
 62
     7
100
AcDbLine
 10
65.503973
 20
43.851557
 30
0.0
 11
65.487858
 21
43.797048
 31
0.0
  0
LINE
  5
193
330
176
100
AcDbEntity
  8
0
  6
CONTINUOUS
 62
     7
100
AcDbLine
 10
65.487858
 20
43.797048
 30
0.0
 11
65.47124
 21
43.742654
 31
0.0
  0
LINE
  5
194
330
176
100
AcDbEntity
  8
0
  6
CONTINUOUS
 62
     7
100
AcDbLine
 10
65.47124
 20
43.742654
 30
0.0
 11
65.454159
 21
43.688365
 31
0.0
  0
LINE
  5
195
330
176
100
AcDbEntity
  8
0
  6
CONTINUOUS
 62
     7
100
AcDbLine
 10
65.454159
 20
43.688365
 30
0.0
 11
65.43666
 21
43.634171
 31
0.0
  0
LINE
  5
196
330
176
100
AcDbEntity
  8
0
  6
CONTINUOUS
 62
     7
100
AcDbLine
 10
65.43666
 20
43.634171
 30
0.0
 11
65.418782
 21
43.580063
 31
0.0
  0
LINE
  5
197
330
176
100
AcDbEntity
  8
0
  6
CONTINUOUS
 62
     7
100
AcDbLine
 10
65.418782
 20
43.580063
 30
0.0
 11
65.382061
 21
43.472066
 31
0.0
  0
LINE
  5
198
330
176
100
AcDbEntity
  8
0
  6
CONTINUOUS
 62
     7
100
AcDbLine
 10
65.382061
 20
43.472066
 30
0.0
 11
65.344333
 21
43.364299
 31
0.0
  0
LINE
  5
199
330
176
100
AcDbEntity
  8
0
  6
CONTINUOUS
 62
     7
100
AcDbLine
 10
65.344333
 20
43.364299
 30
0.0
 11
65.305934
 21
43.256684
 31
0.0
  0
LINE
  5
19A
330
176
100
AcDbEntity
  8
0
  6
CONTINUOUS
 62
     7
100
AcDbLine
 10
65.305934
 20
43.256684
 30
0.0
 11
65.267199
 21
43.149145
 31
0.0
  0
ENDBLK
  5
178
330
176
100
AcDbEntity
  8
0
100
AcDbBlockEnd
  0
BLOCK
  5
19C
330
19B
100
AcDbEntity
  8
0
100
AcDbBlockBegin
  2
BLKF013
 70
     0
 71
     0
 10
0.0
 20
0.0
 30
0.0
  3
BLKF013
  1

  0
LINE
  5
19F
330
19B
100
AcDbEntity
  8
0
  6
CONTINUOUS
 62
     7
100
AcDbLine
 10
65.267199
 20
41.702993
 30
0.0
 11
65.290092
 21
41.666705
 31
0.0
  0
LINE
  5
1A0
330
19B
100
AcDbEntity
  8
0
  6
CONTINUOUS
 62
     7
100
AcDbLine
 10
65.290092
 20
41.666705
 30
0.0
 11
65.312942
 21
41.630407
 31
0.0
  0
LINE
  5
1A1
330
19B
100
AcDbEntity
  8
0
  6
CONTINUOUS
 62
     7
100
AcDbLine
 10
65.312942
 20
41.630407
 30
0.0
 11
65.335707
 21
41.594092
 31
0.0
  0
LINE
  5
1A2
330
19B
100
AcDbEntity
  8
0
  6
CONTINUOUS
 62
     7
100
AcDbLine
 10
65.335707
 20
41.594092
 30
0.0
 11
65.358344
 21
41.557751
 31
0.0
  0
LINE
  5
1A3
330
19B
100
AcDbEntity
  8
0
  6
CONTINUOUS
 62
     7
100
AcDbLine
 10
65.358344
 20
41.557751
 30
0.0
 11
65.369601
 21
41.539568
 31
0.0
  0
LINE
  5
1A4
330
19B
100
AcDbEntity
  8
0
  6
CONTINUOUS
 62
     7
100
AcDbLine
 10
65.369601
 20
41.539568
 30
0.0
 11
65.38081
 21
41.521374
 31
0.0
  0
LINE
  5
1A5
330
19B
100
AcDbEntity
  8
0
  6
CONTINUOUS
 62
     7
100
AcDbLine
 10
65.38081
 20
41.521374
 30
0.0
 11
65.391965
 21
41.50317
 31
0.0
  0
LINE
  5
1A6
330
19B
100
AcDbEntity
  8
0
  6
CONTINUOUS
 62
     7
100
AcDbLine
 10
65.391965
 20
41.50317
 30
0.0
 11
65.403062
 21
41.484954
 31
0.0
  0
LINE
  5
1A7
330
19B
100
AcDbEntity
  8
0
  6
CONTINUOUS
 62
     7
100
AcDbLine
 10
65.403062
 20
41.484954
 30
0.0
 11
65.414094
 21
41.466725
 31
0.0
  0
LINE
  5
1A8
330
19B
100
AcDbEntity
  8
0
  6
CONTINUOUS
 62
     7
100
AcDbLine
 10
65.414094
 20
41.466725
 30
0.0
 11
65.425058
 21
41.448481
 31
0.0
  0
LINE
  5
1A9
330
19B
100
AcDbEntity
  8
0
  6
CONTINUOUS
 62
     7
100
AcDbLine
 10
65.425058
 20
41.448481
 30
0.0
 11
65.435946
 21
41.430222
 31
0.0
  0
LINE
  5
1AA
330
19B
100
AcDbEntity
  8
0
  6
CONTINUOUS
 62
     7
100
AcDbLine
 10
65.435946
 20
41.430222
 30
0.0
 11
65.446754
 21
41.411946
 31
0.0
  0
LINE
  5
1AB
330
19B
100
AcDbEntity
  8
0
  6
CONTINUOUS
 62
     7
100
AcDbLine
 10
65.446754
 20
41.411946
 30
0.0
 11
65.457477
 21
41.393653
 31
0.0
  0
LINE
  5
1AC
330
19B
100
AcDbEntity
  8
0
  6
CONTINUOUS
 62
     7
100
AcDbLine
 10
65.457477
 20
41.393653
 30
0.0
 11
65.468109
 21
41.375341
 31
0.0
  0
LINE
  5
1AD
330
19B
100
AcDbEntity
  8
0
  6
CONTINUOUS
 62
     7
100
AcDbLine
 10
65.468109
 20
41.375341
 30
0.0
 11
65.478645
 21
41.35701
 31
0.0
  0
LINE
  5
1AE
330
19B
100
AcDbEntity
  8
0
  6
CONTINUOUS
 62
     7
100
AcDbLine
 10
65.478645
 20
41.35701
 30
0.0
 11
65.489079
 21
41.338657
 31
0.0
  0
LINE
  5
1AF
330
19B
100
AcDbEntity
  8
0
  6
CONTINUOUS
 62
     7
100
AcDbLine
 10
65.489079
 20
41.338657
 30
0.0
 11
65.499407
 21
41.320283
 31
0.0
  0
LINE
  5
1B0
330
19B
100
AcDbEntity
  8
0
  6
CONTINUOUS
 62
     7
100
AcDbLine
 10
65.499407
 20
41.320283
 30
0.0
 11
65.509622
 21
41.301886
 31
0.0
  0
LINE
  5
1B1
330
19B
100
AcDbEntity
  8
0
  6
CONTINUOUS
 62
     7
100
AcDbLine
 10
65.509622
 20
41.301886
 30
0.0
 11
65.51972
 21
41.283464
 31
0.0
  0
LINE
  5
1B2
330
19B
100
AcDbEntity
  8
0
  6
CONTINUOUS
 62
     7
100
AcDbLine
 10
65.51972
 20
41.283464
 30
0.0
 11
65.529695
 21
41.265017
 31
0.0
  0
LINE
  5
1B3
330
19B
100
AcDbEntity
  8
0
  6
CONTINUOUS
 62
     7
100
AcDbLine
 10
65.529695
 20
41.265017
 30
0.0
 11
65.539542
 21
41.246544
 31
0.0
  0
LINE
  5
1B4
330
19B
100
AcDbEntity
  8
0
  6
CONTINUOUS
 62
     7
100
AcDbLine
 10
65.539542
 20
41.246544
 30
0.0
 11
65.549255
 21
41.228043
 31
0.0
  0
LINE
  5
1B5
330
19B
100
AcDbEntity
  8
0
  6
CONTINUOUS
 62
     7
100
AcDbLine
 10
65.549255
 20
41.228043
 30
0.0
 11
65.55883
 21
41.209514
 31
0.0
  0
LINE
  5
1B6
330
19B
100
AcDbEntity
  8
0
  6
CONTINUOUS
 62
     7
100
AcDbLine
 10
65.55883
 20
41.209514
 30
0.0
 11
65.56826
 21
41.190955
 31
0.0
  0
LINE
  5
1B7
330
19B
100
AcDbEntity
  8
0
  6
CONTINUOUS
 62
     7
100
AcDbLine
 10
65.56826
 20
41.190955
 30
0.0
 11
65.577541
 21
41.172365
 31
0.0
  0
LINE
  5
1B8
330
19B
100
AcDbEntity
  8
0
  6
CONTINUOUS
 62
     7
100
AcDbLine
 10
65.577541
 20
41.172365
 30
0.0
 11
65.586667
 21
41.153744
 31
0.0
  0
LINE
  5
1B9
330
19B
100
AcDbEntity
  8
0
  6
CONTINUOUS
 62
     7
100
AcDbLine
 10
65.586667
 20
41.153744
 30
0.0
 11
65.595632
 21
41.135089
 31
0.0
  0
LINE
  5
1BA
330
19B
100
AcDbEntity
  8
0
  6
CONTINUOUS
 62
     7
100
AcDbLine
 10
65.595632
 20
41.135089
 30
0.0
 11
65.604432
 21
41.116401
 31
0.0
  0
LINE
  5
1BB
330
19B
100
AcDbEntity
  8
0
  6
CONTINUOUS
 62
     7
100
AcDbLine
 10
65.604432
 20
41.116401
 30
0.0
 11
65.613061
 21
41.097677
 31
0.0
  0
LINE
  5
1BC
330
19B
100
AcDbEntity
  8
0
  6
CONTINUOUS
 62
     7
100
AcDbLine
 10
65.613061
 20
41.097677
 30
0.0
 11
65.621514
 21
41.078918
 31
0.0
  0
LINE
  5
1BD
330
19B
100
AcDbEntity
  8
0
  6
CONTINUOUS
 62
     7
100
AcDbLine
 10
65.621514
 20
41.078918
 30
0.0
 11
65.629785
 21
41.06012
 31
0.0
  0
LINE
  5
1BE
330
19B
100
AcDbEntity
  8
0
  6
CONTINUOUS
 62
     7
100
AcDbLine
 10
65.629785
 20
41.06012
 30
0.0
 11
65.637869
 21
41.041285
 31
0.0
  0
LINE
  5
1BF
330
19B
100
AcDbEntity
  8
0
  6
CONTINUOUS
 62
     7
100
AcDbLine
 10
65.637869
 20
41.041285
 30
0.0
 11
65.645761
 21
41.022409
 31
0.0
  0
LINE
  5
1C0
330
19B
100
AcDbEntity
  8
0
  6
CONTINUOUS
 62
     7
100
AcDbLine
 10
65.645761
 20
41.022409
 30
0.0
 11
65.653455
 21
41.003494
 31
0.0
  0
LINE
  5
1C1
330
19B
100
AcDbEntity
  8
0
  6
CONTINUOUS
 62
     7
100
AcDbLine
 10
65.653455
 20
41.003494
 30
0.0
 11
65.660947
 21
40.984536
 31
0.0
  0
LINE
  5
1C2
330
19B
100
AcDbEntity
  8
0
  6
CONTINUOUS
 62
     7
100
AcDbLine
 10
65.660947
 20
40.984536
 30
0.0
 11
65.66823
 21
40.965536
 31
0.0
  0
LINE
  5
1C3
330
19B
100
AcDbEntity
  8
0
  6
CONTINUOUS
 62
     7
100
AcDbLine
 10
65.66823
 20
40.965536
 30
0.0
 11
65.675299
 21
40.946491
 31
0.0
  0
LINE
  5
1C4
330
19B
100
AcDbEntity
  8
0
  6
CONTINUOUS
 62
     7
100
AcDbLine
 10
65.675299
 20
40.946491
 30
0.0
 11
65.682149
 21
40.927402
 31
0.0
  0
LINE
  5
1C5
330
19B
100
AcDbEntity
  8
0
  6
CONTINUOUS
 62
     7
100
AcDbLine
 10
65.682149
 20
40.927402
 30
0.0
 11
65.688775
 21
40.908267
 31
0.0
  0
LINE
  5
1C6
330
19B
100
AcDbEntity
  8
0
  6
CONTINUOUS
 62
     7
100
AcDbLine
 10
65.688775
 20
40.908267
 30
0.0
 11
65.695172
 21
40.889084
 31
0.0
  0
LINE
  5
1C7
330
19B
100
AcDbEntity
  8
0
  6
CONTINUOUS
 62
     7
100
AcDbLine
 10
65.695172
 20
40.889084
 30
0.0
 11
65.701333
 21
40.869853
 31
0.0
  0
LINE
  5
1C8
330
19B
100
AcDbEntity
  8
0
  6
CONTINUOUS
 62
     7
100
AcDbLine
 10
65.701333
 20
40.869853
 30
0.0
 11
65.707254
 21
40.850572
 31
0.0
  0
LINE
  5
1C9
330
19B
100
AcDbEntity
  8
0
  6
CONTINUOUS
 62
     7
100
AcDbLine
 10
65.707254
 20
40.850572
 30
0.0
 11
65.712929
 21
40.831242
 31
0.0
  0
LINE
  5
1CA
330
19B
100
AcDbEntity
  8
0
  6
CONTINUOUS
 62
     7
100
AcDbLine
 10
65.712929
 20
40.831242
 30
0.0
 11
65.718354
 21
40.811859
 31
0.0
  0
LINE
  5
1CB
330
19B
100
AcDbEntity
  8
0
  6
CONTINUOUS
 62
     7
100
AcDbLine
 10
65.718354
 20
40.811859
 30
0.0
 11
65.723521
 21
40.792424
 31
0.0
  0
LINE
  5
1CC
330
19B
100
AcDbEntity
  8
0
  6
CONTINUOUS
 62
     7
100
AcDbLine
 10
65.723521
 20
40.792424
 30
0.0
 11
65.728427
 21
40.772935
 31
0.0
  0
LINE
  5
1CD
330
19B
100
AcDbEntity
  8
0
  6
CONTINUOUS
 62
     7
100
AcDbLine
 10
65.728427
 20
40.772935
 30
0.0
 11
65.733067
 21
40.753391
 31
0.0
  0
LINE
  5
1CE
330
19B
100
AcDbEntity
  8
0
  6
CONTINUOUS
 62
     7
100
AcDbLine
 10
65.733067
 20
40.753391
 30
0.0
 11
65.737433
 21
40.733791
 31
0.0
  0
LINE
  5
1CF
330
19B
100
AcDbEntity
  8
0
  6
CONTINUOUS
 62
     7
100
AcDbLine
 10
65.737433
 20
40.733791
 30
0.0
 11
65.741522
 21
40.714133
 31
0.0
  0
LINE
  5
1D0
330
19B
100
AcDbEntity
  8
0
  6
CONTINUOUS
 62
     7
100
AcDbLine
 10
65.741522
 20
40.714133
 30
0.0
 11
65.745328
 21
40.694418
 31
0.0
  0
LINE
  5
1D1
330
19B
100
AcDbEntity
  8
0
  6
CONTINUOUS
 62
     7
100
AcDbLine
 10
65.745328
 20
40.694418
 30
0.0
 11
65.748845
 21
40.674643
 31
0.0
  0
LINE
  5
1D2
330
19B
100
AcDbEntity
  8
0
  6
CONTINUOUS
 62
     7
100
AcDbLine
 10
65.748845
 20
40.674643
 30
0.0
 11
65.752069
 21
40.654808
 31
0.0
  0
LINE
  5
1D3
330
19B
100
AcDbEntity
  8
0
  6
CONTINUOUS
 62
     7
100
AcDbLine
 10
65.752069
 20
40.654808
 30
0.0
 11
65.754993
 21
40.634912
 31
0.0
  0
LINE
  5
1D4
330
19B
100
AcDbEntity
  8
0
  6
CONTINUOUS
 62
     7
100
AcDbLine
 10
65.754993
 20
40.634912
 30
0.0
 11
65.757613
 21
40.614953
 31
0.0
  0
LINE
  5
1D5
330
19B
100
AcDbEntity
  8
0
  6
CONTINUOUS
 62
     7
100
AcDbLine
 10
65.757613
 20
40.614953
 30
0.0
 11
65.759924
 21
40.59493
 31
0.0
  0
LINE
  5
1D6
330
19B
100
AcDbEntity
  8
0
  6
CONTINUOUS
 62
     7
100
AcDbLine
 10
65.759924
 20
40.59493
 30
0.0
 11
65.760961
 21
40.584894
 31
0.0
  0
LINE
  5
1D7
330
19B
100
AcDbEntity
  8
0
  6
CONTINUOUS
 62
     7
100
AcDbLine
 10
65.760961
 20
40.584894
 30
0.0
 11
65.761919
 21
40.574842
 31
0.0
  0
LINE
  5
1D8
330
19B
100
AcDbEntity
  8
0
  6
CONTINUOUS
 62
     7
100
AcDbLine
 10
65.761919
 20
40.574842
 30
0.0
 11
65.762796
 21
40.564774
 31
0.0
  0
LINE
  5
1D9
330
19B
100
AcDbEntity
  8
0
  6
CONTINUOUS
 62
     7
100
AcDbLine
 10
65.762796
 20
40.564774
 30
0.0
 11
65.763593
 21
40.554689
 31
0.0
  0
LINE
  5
1DA
330
19B
100
AcDbEntity
  8
0
  6
CONTINUOUS
 62
     7
100
AcDbLine
 10
65.763593
 20
40.554689
 30
0.0
 11
65.764309
 21
40.544587
 31
0.0
  0
LINE
  5
1DB
330
19B
100
AcDbEntity
  8
0
  6
CONTINUOUS
 62
     7
100
AcDbLine
 10
65.764309
 20
40.544587
 30
0.0
 11
65.764942
 21
40.534468
 31
0.0
  0
LINE
  5
1DC
330
19B
100
AcDbEntity
  8
0
  6
CONTINUOUS
 62
     7
100
AcDbLine
 10
65.764942
 20
40.534468
 30
0.0
 11
65.765493
 21
40.524332
 31
0.0
  0
LINE
  5
1DD
330
19B
100
AcDbEntity
  8
0
  6
CONTINUOUS
 62
     7
100
AcDbLine
 10
65.765493
 20
40.524332
 30
0.0
 11
65.76596
 21
40.51418
 31
0.0
  0
LINE
  5
1DE
330
19B
100
AcDbEntity
  8
0
  6
CONTINUOUS
 62
     7
100
AcDbLine
 10
65.76596
 20
40.51418
 30
0.0
 11
65.766343
 21
40.504009
 31
0.0
  0
LINE
  5
1DF
330
19B
100
AcDbEntity
  8
0
  6
CONTINUOUS
 62
     7
100
AcDbLine
 10
65.766343
 20
40.504009
 30
0.0
 11
65.766641
 21
40.493822
 31
0.0
  0
LINE
  5
1E0
330
19B
100
AcDbEntity
  8
0
  6
CONTINUOUS
 62
     7
100
AcDbLine
 10
65.766641
 20
40.493822
 30
0.0
 11
65.767009
 21
40.473425
 31
0.0
  0
LINE
  5
1E1
330
19B
100
AcDbEntity
  8
0
  6
CONTINUOUS
 62
     7
100
AcDbLine
 10
65.767009
 20
40.473425
 30
0.0
 11
65.767207
 21
40.452993
 31
0.0
  0
ENDBLK
  5
19D
330
19B
100
AcDbEntity
  8
0
100
AcDbBlockEnd
  0
BLOCK
  5
1EC
330
1EB
100
AcDbEntity
  8
0
100
AcDbBlockBegin
  2
BLKF014
 70
     0
 71
     0
 10
0.0
 20
0.0
 30
0.0
  3
BLKF014
  1

  0
LINE
  5
1EF
330
1EB
100
AcDbEntity
  8
0
  6
CONTINUOUS
 62
     7
100
AcDbLine
 10
65.267199
 20
48.149146
 30
0.0
 11
65.286339
 21
48.098219
 31
0.0
  0
LINE
  5
1F0
330
1EB
100
AcDbEntity
  8
0
  6
CONTINUOUS
 62
     7
100
AcDbLine
 10
65.286339
 20
48.098219
 30
0.0
 11
65.305397
 21
48.047253
 31
0.0
  0
LINE
  5
1F1
330
1EB
100
AcDbEntity
  8
0
  6
CONTINUOUS
 62
     7
100
AcDbLine
 10
65.305397
 20
48.047253
 30
0.0
 11
65.324292
 21
47.996205
 31
0.0
  0
LINE
  5
1F2
330
1EB
100
AcDbEntity
  8
0
  6
CONTINUOUS
 62
     7
100
AcDbLine
 10
65.324292
 20
47.996205
 30
0.0
 11
65.342941
 21
47.945035
 31
0.0
  0
LINE
  5
1F3
330
1EB
100
AcDbEntity
  8
0
  6
CONTINUOUS
 62
     7
100
AcDbLine
 10
65.342941
 20
47.945035
 30
0.0
 11
65.354267
 21
47.913459
 31
0.0
  0
LINE
  5
1F4
330
1EB
100
AcDbEntity
  8
0
  6
CONTINUOUS
 62
     7
100
AcDbLine
 10
65.354267
 20
47.913459
 30
0.0
 11
65.365469
 21
47.881822
 31
0.0
  0
LINE
  5
1F5
330
1EB
100
AcDbEntity
  8
0
  6
CONTINUOUS
 62
     7
100
AcDbLine
 10
65.365469
 20
47.881822
 30
0.0
 11
65.376543
 21
47.850125
 31
0.0
  0
LINE
  5
1F6
330
1EB
100
AcDbEntity
  8
0
  6
CONTINUOUS
 62
     7
100
AcDbLine
 10
65.376543
 20
47.850125
 30
0.0
 11
65.38749
 21
47.818371
 31
0.0
  0
LINE
  5
1F7
330
1EB
100
AcDbEntity
  8
0
  6
CONTINUOUS
 62
     7
100
AcDbLine
 10
65.38749
 20
47.818371
 30
0.0
 11
65.398309
 21
47.786558
 31
0.0
  0
LINE
  5
1F8
330
1EB
100
AcDbEntity
  8
0
  6
CONTINUOUS
 62
     7
100
AcDbLine
 10
65.398309
 20
47.786558
 30
0.0
 11
65.408997
 21
47.754689
 31
0.0
  0
LINE
  5
1F9
330
1EB
100
AcDbEntity
  8
0
  6
CONTINUOUS
 62
     7
100
AcDbLine
 10
65.408997
 20
47.754689
 30
0.0
 11
65.419554
 21
47.722764
 31
0.0
  0
LINE
  5
1FA
330
1EB
100
AcDbEntity
  8
0
  6
CONTINUOUS
 62
     7
100
AcDbLine
 10
65.419554
 20
47.722764
 30
0.0
 11
65.429978
 21
47.690784
 31
0.0
  0
LINE
  5
1FB
330
1EB
100
AcDbEntity
  8
0
  6
CONTINUOUS
 62
     7
100
AcDbLine
 10
65.429978
 20
47.690784
 30
0.0
 11
65.440268
 21
47.658751
 31
0.0
  0
LINE
  5
1FC
330
1EB
100
AcDbEntity
  8
0
  6
CONTINUOUS
 62
     7
100
AcDbLine
 10
65.440268
 20
47.658751
 30
0.0
 11
65.450424
 21
47.626665
 31
0.0
  0
LINE
  5
1FD
330
1EB
100
AcDbEntity
  8
0
  6
CONTINUOUS
 62
     7
100
AcDbLine
 10
65.450424
 20
47.626665
 30
0.0
 11
65.460443
 21
47.594527
 31
0.0
  0
LINE
  5
1FE
330
1EB
100
AcDbEntity
  8
0
  6
CONTINUOUS
 62
     7
100
AcDbLine
 10
65.460443
 20
47.594527
 30
0.0
 11
65.470325
 21
47.562339
 31
0.0
  0
LINE
  5
1FF
330
1EB
100
AcDbEntity
  8
0
  6
CONTINUOUS
 62
     7
100
AcDbLine
 10
65.470325
 20
47.562339
 30
0.0
 11
65.480068
 21
47.5301
 31
0.0
  0
LINE
  5
200
330
1EB
100
AcDbEntity
  8
0
  6
CONTINUOUS
 62
     7
100
AcDbLine
 10
65.480068
 20
47.5301
 30
0.0
 11
65.489671
 21
47.497813
 31
0.0
  0
LINE
  5
201
330
1EB
100
AcDbEntity
  8
0
  6
CONTINUOUS
 62
     7
100
AcDbLine
 10
65.489671
 20
47.497813
 30
0.0
 11
65.499133
 21
47.465478
 31
0.0
  0
LINE
  5
202
330
1EB
100
AcDbEntity
  8
0
  6
CONTINUOUS
 62
     7
100
AcDbLine
 10
65.499133
 20
47.465478
 30
0.0
 11
65.508452
 21
47.433095
 31
0.0
  0
LINE
  5
203
330
1EB
100
AcDbEntity
  8
0
  6
CONTINUOUS
 62
     7
100
AcDbLine
 10
65.508452
 20
47.433095
 30
0.0
 11
65.517628
 21
47.400667
 31
0.0
  0
LINE
  5
204
330
1EB
100
AcDbEntity
  8
0
  6
CONTINUOUS
 62
     7
100
AcDbLine
 10
65.517628
 20
47.400667
 30
0.0
 11
65.526659
 21
47.368194
 31
0.0
  0
LINE
  5
205
330
1EB
100
AcDbEntity
  8
0
  6
CONTINUOUS
 62
     7
100
AcDbLine
 10
65.526659
 20
47.368194
 30
0.0
 11
65.535543
 21
47.335676
 31
0.0
  0
LINE
  5
206
330
1EB
100
AcDbEntity
  8
0
  6
CONTINUOUS
 62
     7
100
AcDbLine
 10
65.535543
 20
47.335676
 30
0.0
 11
65.544281
 21
47.303116
 31
0.0
  0
LINE
  5
207
330
1EB
100
AcDbEntity
  8
0
  6
CONTINUOUS
 62
     7
100
AcDbLine
 10
65.544281
 20
47.303116
 30
0.0
 11
65.552869
 21
47.270513
 31
0.0
  0
LINE
  5
208
330
1EB
100
AcDbEntity
  8
0
  6
CONTINUOUS
 62
     7
100
AcDbLine
 10
65.552869
 20
47.270513
 30
0.0
 11
65.561308
 21
47.237869
 31
0.0
  0
LINE
  5
209
330
1EB
100
AcDbEntity
  8
0
  6
CONTINUOUS
 62
     7
100
AcDbLine
 10
65.561308
 20
47.237869
 30
0.0
 11
65.569596
 21
47.205185
 31
0.0
  0
LINE
  5
20A
330
1EB
100
AcDbEntity
  8
0
  6
CONTINUOUS
 62
     7
100
AcDbLine
 10
65.569596
 20
47.205185
 30
0.0
 11
65.577731
 21
47.172462
 31
0.0
  0
LINE
  5
20B
330
1EB
100
AcDbEntity
  8
0
  6
CONTINUOUS
 62
     7
100
AcDbLine
 10
65.577731
 20
47.172462
 30
0.0
 11
65.585713
 21
47.1397
 31
0.0
  0
LINE
  5
20C
330
1EB
100
AcDbEntity
  8
0
  6
CONTINUOUS
 62
     7
100
AcDbLine
 10
65.585713
 20
47.1397
 30
0.0
 11
65.593541
 21
47.106901
 31
0.0
  0
LINE
  5
20D
330
1EB
100
AcDbEntity
  8
0
  6
CONTINUOUS
 62
     7
100
AcDbLine
 10
65.593541
 20
47.106901
 30
0.0
 11
65.601212
 21
47.074066
 31
0.0
  0
LINE
  5
20E
330
1EB
100
AcDbEntity
  8
0
  6
CONTINUOUS
 62
     7
100
AcDbLine
 10
65.601212
 20
47.074066
 30
0.0
 11
65.608726
 21
47.041196
 31
0.0
  0
LINE
  5
20F
330
1EB
100
AcDbEntity
  8
0
  6
CONTINUOUS
 62
     7
100
AcDbLine
 10
65.608726
 20
47.041196
 30
0.0
 11
65.616081
 21
47.00829
 31
0.0
  0
LINE
  5
210
330
1EB
100
AcDbEntity
  8
0
  6
CONTINUOUS
 62
     7
100
AcDbLine
 10
65.616081
 20
47.00829
 30
0.0
 11
65.623277
 21
46.975352
 31
0.0
  0
LINE
  5
211
330
1EB
100
AcDbEntity
  8
0
  6
CONTINUOUS
 62
     7
100
AcDbLine
 10
65.623277
 20
46.975352
 30
0.0
 11
65.630312
 21
46.942381
 31
0.0
  0
LINE
  5
212
330
1EB
100
AcDbEntity
  8
0
  6
CONTINUOUS
 62
     7
100
AcDbLine
 10
65.630312
 20
46.942381
 30
0.0
 11
65.637184
 21
46.909378
 31
0.0
  0
LINE
  5
213
330
1EB
100
AcDbEntity
  8
0
  6
CONTINUOUS
 62
     7
100
AcDbLine
 10
65.637184
 20
46.909378
 30
0.0
 11
65.643894
 21
46.876345
 31
0.0
  0
LINE
  5
214
330
1EB
100
AcDbEntity
  8
0
  6
CONTINUOUS
 62
     7
100
AcDbLine
 10
65.643894
 20
46.876345
 30
0.0
 11
65.650438
 21
46.843282
 31
0.0
  0
LINE
  5
215
330
1EB
100
AcDbEntity
  8
0
  6
CONTINUOUS
 62
     7
100
AcDbLine
 10
65.650438
 20
46.843282
 30
0.0
 11
65.656817
 21
46.810191
 31
0.0
  0
LINE
  5
216
330
1EB
100
AcDbEntity
  8
0
  6
CONTINUOUS
 62
     7
100
AcDbLine
 10
65.656817
 20
46.810191
 30
0.0
 11
65.663028
 21
46.777072
 31
0.0
  0
LINE
  5
217
330
1EB
100
AcDbEntity
  8
0
  6
CONTINUOUS
 62
     7
100
AcDbLine
 10
65.663028
 20
46.777072
 30
0.0
 11
65.669072
 21
46.743926
 31
0.0
  0
LINE
  5
218
330
1EB
100
AcDbEntity
  8
0
  6
CONTINUOUS
 62
     7
100
AcDbLine
 10
65.669072
 20
46.743926
 30
0.0
 11
65.674945
 21
46.710755
 31
0.0
  0
LINE
  5
219
330
1EB
100
AcDbEntity
  8
0
  6
CONTINUOUS
 62
     7
100
AcDbLine
 10
65.674945
 20
46.710755
 30
0.0
 11
65.680648
 21
46.677558
 31
0.0
  0
LINE
  5
21A
330
1EB
100
AcDbEntity
  8
0
  6
CONTINUOUS
 62
     7
100
AcDbLine
 10
65.680648
 20
46.677558
 30
0.0
 11
65.686179
 21
46.644338
 31
0.0
  0
LINE
  5
21B
330
1EB
100
AcDbEntity
  8
0
  6
CONTINUOUS
 62
     7
100
AcDbLine
 10
65.686179
 20
46.644338
 30
0.0
 11
65.691536
 21
46.611095
 31
0.0
  0
LINE
  5
21C
330
1EB
100
AcDbEntity
  8
0
  6
CONTINUOUS
 62
     7
100
AcDbLine
 10
65.691536
 20
46.611095
 30
0.0
 11
65.696719
 21
46.577831
 31
0.0
  0
LINE
  5
21D
330
1EB
100
AcDbEntity
  8
0
  6
CONTINUOUS
 62
     7
100
AcDbLine
 10
65.696719
 20
46.577831
 30
0.0
 11
65.701726
 21
46.544545
 31
0.0
  0
LINE
  5
21E
330
1EB
100
AcDbEntity
  8
0
  6
CONTINUOUS
 62
     7
100
AcDbLine
 10
65.701726
 20
46.544545
 30
0.0
 11
65.706557
 21
46.511239
 31
0.0
  0
LINE
  5
21F
330
1EB
100
AcDbEntity
  8
0
  6
CONTINUOUS
 62
     7
100
AcDbLine
 10
65.706557
 20
46.511239
 30
0.0
 11
65.711209
 21
46.477914
 31
0.0
  0
LINE
  5
220
330
1EB
100
AcDbEntity
  8
0
  6
CONTINUOUS
 62
     7
100
AcDbLine
 10
65.711209
 20
46.477914
 30
0.0
 11
65.715681
 21
46.444572
 31
0.0
  0
LINE
  5
221
330
1EB
100
AcDbEntity
  8
0
  6
CONTINUOUS
 62
     7
100
AcDbLine
 10
65.715681
 20
46.444572
 30
0.0
 11
65.719973
 21
46.411212
 31
0.0
  0
LINE
  5
222
330
1EB
100
AcDbEntity
  8
0
  6
CONTINUOUS
 62
     7
100
AcDbLine
 10
65.719973
 20
46.411212
 30
0.0
 11
65.724083
 21
46.377836
 31
0.0
  0
LINE
  5
223
330
1EB
100
AcDbEntity
  8
0
  6
CONTINUOUS
 62
     7
100
AcDbLine
 10
65.724083
 20
46.377836
 30
0.0
 11
65.72801
 21
46.344445
 31
0.0
  0
LINE
  5
224
330
1EB
100
AcDbEntity
  8
0
  6
CONTINUOUS
 62
     7
100
AcDbLine
 10
65.72801
 20
46.344445
 30
0.0
 11
65.731752
 21
46.31104
 31
0.0
  0
LINE
  5
225
330
1EB
100
AcDbEntity
  8
0
  6
CONTINUOUS
 62
     7
100
AcDbLine
 10
65.731752
 20
46.31104
 30
0.0
 11
65.735309
 21
46.277622
 31
0.0
  0
LINE
  5
226
330
1EB
100
AcDbEntity
  8
0
  6
CONTINUOUS
 62
     7
100
AcDbLine
 10
65.735309
 20
46.277622
 30
0.0
 11
65.738679
 21
46.244191
 31
0.0
  0
LINE
  5
227
330
1EB
100
AcDbEntity
  8
0
  6
CONTINUOUS
 62
     7
100
AcDbLine
 10
65.738679
 20
46.244191
 30
0.0
 11
65.74186
 21
46.210749
 31
0.0
  0
LINE
  5
228
330
1EB
100
AcDbEntity
  8
0
  6
CONTINUOUS
 62
     7
100
AcDbLine
 10
65.74186
 20
46.210749
 30
0.0
 11
65.744853
 21
46.177297
 31
0.0
  0
LINE
  5
229
330
1EB
100
AcDbEntity
  8
0
  6
CONTINUOUS
 62
     7
100
AcDbLine
 10
65.744853
 20
46.177297
 30
0.0
 11
65.747655
 21
46.143835
 31
0.0
  0
LINE
  5
22A
330
1EB
100
AcDbEntity
  8
0
  6
CONTINUOUS
 62
     7
100
AcDbLine
 10
65.747655
 20
46.143835
 30
0.0
 11
65.750265
 21
46.110366
 31
0.0
  0
LINE
  5
22B
330
1EB
100
AcDbEntity
  8
0
  6
CONTINUOUS
 62
     7
100
AcDbLine
 10
65.750265
 20
46.110366
 30
0.0
 11
65.752682
 21
46.076888
 31
0.0
  0
LINE
  5
22C
330
1EB
100
AcDbEntity
  8
0
  6
CONTINUOUS
 62
     7
100
AcDbLine
 10
65.752682
 20
46.076888
 30
0.0
 11
65.754905
 21
46.043405
 31
0.0
  0
LINE
  5
22D
330
1EB
100
AcDbEntity
  8
0
  6
CONTINUOUS
 62
     7
100
AcDbLine
 10
65.754905
 20
46.043405
 30
0.0
 11
65.756932
 21
46.009915
 31
0.0
  0
LINE
  5
22E
330
1EB
100
AcDbEntity
  8
0
  6
CONTINUOUS
 62
     7
100
AcDbLine
 10
65.756932
 20
46.009915
 30
0.0
 11
65.758762
 21
45.976422
 31
0.0
  0
LINE
  5
22F
330
1EB
100
AcDbEntity
  8
0
  6
CONTINUOUS
 62
     7
100
AcDbLine
 10
65.758762
 20
45.976422
 30
0.0
 11
65.760395
 21
45.942924
 31
0.0
  0
LINE
  5
230
330
1EB
100
AcDbEntity
  8
0
  6
CONTINUOUS
 62
     7
100
AcDbLine
 10
65.760395
 20
45.942924
 30
0.0
 11
65.761828
 21
45.909424
 31
0.0
  0
LINE
  5
231
330
1EB
100
AcDbEntity
  8
0
  6
CONTINUOUS
 62
     7
100
AcDbLine
 10
65.761828
 20
45.909424
 30
0.0
 11
65.763061
 21
45.875923
 31
0.0
  0
LINE
  5
232
330
1EB
100
AcDbEntity
  8
0
  6
CONTINUOUS
 62
     7
100
AcDbLine
 10
65.763061
 20
45.875923
 30
0.0
 11
65.764093
 21
45.842421
 31
0.0
  0
LINE
  5
233
330
1EB
100
AcDbEntity
  8
0
  6
CONTINUOUS
 62
     7
100
AcDbLine
 10
65.764093
 20
45.842421
 30
0.0
 11
65.765241
 21
45.794101
 31
0.0
  0
LINE
  5
234
330
1EB
100
AcDbEntity
  8
0
  6
CONTINUOUS
 62
     7
100
AcDbLine
 10
65.765241
 20
45.794101
 30
0.0
 11
65.766072
 21
45.745782
 31
0.0
  0
LINE
  5
235
330
1EB
100
AcDbEntity
  8
0
  6
CONTINUOUS
 62
     7
100
AcDbLine
 10
65.766072
 20
45.745782
 30
0.0
 11
65.766692
 21
45.697463
 31
0.0
  0
LINE
  5
236
330
1EB
100
AcDbEntity
  8
0
  6
CONTINUOUS
 62
     7
100
AcDbLine
 10
65.766692
 20
45.697463
 30
0.0
 11
65.767207
 21
45.649145
 31
0.0
  0
ENDBLK
  5
1ED
330
1EB
100
AcDbEntity
  8
0
100
AcDbBlockEnd
  0
BLOCK
  5
23D
330
23C
100
AcDbEntity
  8
0
100
AcDbBlockBegin
  2
BLKF015
 70
     0
 71
     0
 10
0.0
 20
0.0
 30
0.0
  3
BLKF015
  1

  0
LINE
  5
240
330
23C
100
AcDbEntity
  8
0
  6
CONTINUOUS
 62
     7
100
AcDbLine
 10
61.967202
 20
49.595299
 30
0.0
 11
61.936056
 21
49.636971
 31
0.0
  0
LINE
  5
241
330
23C
100
AcDbEntity
  8
0
  6
CONTINUOUS
 62
     7
100
AcDbLine
 10
61.936056
 20
49.636971
 30
0.0
 11
61.920564
 21
49.657862
 31
0.0
  0
LINE
  5
242
330
23C
100
AcDbEntity
  8
0
  6
CONTINUOUS
 62
     7
100
AcDbLine
 10
61.920564
 20
49.657862
 30
0.0
 11
61.905169
 21
49.67882
 31
0.0
  0
LINE
  5
243
330
23C
100
AcDbEntity
  8
0
  6
CONTINUOUS
 62
     7
100
AcDbLine
 10
61.905169
 20
49.67882
 30
0.0
 11
61.889904
 21
49.699866
 31
0.0
  0
LINE
  5
244
330
23C
100
AcDbEntity
  8
0
  6
CONTINUOUS
 62
     7
100
AcDbLine
 10
61.889904
 20
49.699866
 30
0.0
 11
61.8748
 21
49.721023
 31
0.0
  0
LINE
  5
245
330
23C
100
AcDbEntity
  8
0
  6
CONTINUOUS
 62
     7
100
AcDbLine
 10
61.8748
 20
49.721023
 30
0.0
 11
61.85989
 21
49.742312
 31
0.0
  0
LINE
  5
246
330
23C
100
AcDbEntity
  8
0
  6
CONTINUOUS
 62
     7
100
AcDbLine
 10
61.85989
 20
49.742312
 30
0.0
 11
61.845206
 21
49.763756
 31
0.0
  0
LINE
  5
247
330
23C
100
AcDbEntity
  8
0
  6
CONTINUOUS
 62
     7
100
AcDbLine
 10
61.845206
 20
49.763756
 30
0.0
 11
61.82527
 21
49.793728
 31
0.0
  0
LINE
  5
248
330
23C
100
AcDbEntity
  8
0
  6
CONTINUOUS
 62
     7
100
AcDbLine
 10
61.82527
 20
49.793728
 30
0.0
 11
61.805706
 21
49.823954
 31
0.0
  0
LINE
  5
249
330
23C
100
AcDbEntity
  8
0
  6
CONTINUOUS
 62
     7
100
AcDbLine
 10
61.805706
 20
49.823954
 30
0.0
 11
61.786391
 21
49.85435
 31
0.0
  0
LINE
  5
24A
330
23C
100
AcDbEntity
  8
0
  6
CONTINUOUS
 62
     7
100
AcDbLine
 10
61.786391
 20
49.85435
 30
0.0
 11
61.767199
 21
49.88483
 31
0.0
  0
ENDBLK
  5
23E
330
23C
100
AcDbEntity
  8
0
100
AcDbBlockEnd
  0
BLOCK
  5
24E
330
24D
100
AcDbEntity
  8
0
100
AcDbBlockBegin
  2
BLKF016
 70
     0
 71
     0
 10
0.0
 20
0.0
 30
0.0
  3
BLKF016
  1

  0
LINE
  5
251
330
24D
100
AcDbEntity
  8
0
  6
CONTINUOUS
 62
     7
100
AcDbLine
 10
61.967202
 20
39.202994
 30
0.0
 11
61.95443
 21
39.21971
 31
0.0
  0
LINE
  5
252
330
24D
100
AcDbEntity
  8
0
  6
CONTINUOUS
 62
     7
100
AcDbLine
 10
61.95443
 20
39.21971
 30
0.0
 11
61.941736
 21
39.236484
 31
0.0
  0
LINE
  5
253
330
24D
100
AcDbEntity
  8
0
  6
CONTINUOUS
 62
     7
100
AcDbLine
 10
61.941736
 20
39.236484
 30
0.0
 11
61.930177
 21
39.252018
 31
0.0
  0
LINE
  5
254
330
24D
100
AcDbEntity
  8
0
  6
CONTINUOUS
 62
     7
100
AcDbLine
 10
61.930177
 20
39.252018
 30
0.0
 11
61.918743
 21
39.267642
 31
0.0
  0
LINE
  5
255
330
24D
100
AcDbEntity
  8
0
  6
CONTINUOUS
 62
     7
100
AcDbLine
 10
61.918743
 20
39.267642
 30
0.0
 11
61.907427
 21
39.283352
 31
0.0
  0
LINE
  5
256
330
24D
100
AcDbEntity
  8
0
  6
CONTINUOUS
 62
     7
100
AcDbLine
 10
61.907427
 20
39.283352
 30
0.0
 11
61.896221
 21
39.299139
 31
0.0
  0
LINE
  5
257
330
24D
100
AcDbEntity
  8
0
  6
CONTINUOUS
 62
     7
100
AcDbLine
 10
61.896221
 20
39.299139
 30
0.0
 11
61.885115
 21
39.315
 31
0.0
  0
LINE
  5
258
330
24D
100
AcDbEntity
  8
0
  6
CONTINUOUS
 62
     7
100
AcDbLine
 10
61.885115
 20
39.315
 30
0.0
 11
61.874101
 21
39.330927
 31
0.0
  0
LINE
  5
259
330
24D
100
AcDbEntity
  8
0
  6
CONTINUOUS
 62
     7
100
AcDbLine
 10
61.874101
 20
39.330927
 30
0.0
 11
61.863172
 21
39.346914
 31
0.0
  0
LINE
  5
25A
330
24D
100
AcDbEntity
  8
0
  6
CONTINUOUS
 62
     7
100
AcDbLine
 10
61.863172
 20
39.346914
 30
0.0
 11
61.852318
 21
39.362956
 31
0.0
  0
LINE
  5
25B
330
24D
100
AcDbEntity
  8
0
  6
CONTINUOUS
 62
     7
100
AcDbLine
 10
61.852318
 20
39.362956
 30
0.0
 11
61.841531
 21
39.379046
 31
0.0
  0
LINE
  5
25C
330
24D
100
AcDbEntity
  8
0
  6
CONTINUOUS
 62
     7
100
AcDbLine
 10
61.841531
 20
39.379046
 30
0.0
 11
61.830803
 21
39.395179
 31
0.0
  0
LINE
  5
25D
330
24D
100
AcDbEntity
  8
0
  6
CONTINUOUS
 62
     7
100
AcDbLine
 10
61.830803
 20
39.395179
 30
0.0
 11
61.820125
 21
39.411348
 31
0.0
  0
LINE
  5
25E
330
24D
100
AcDbEntity
  8
0
  6
CONTINUOUS
 62
     7
100
AcDbLine
 10
61.820125
 20
39.411348
 30
0.0
 11
61.809489
 21
39.427547
 31
0.0
  0
LINE
  5
25F
330
24D
100
AcDbEntity
  8
0
  6
CONTINUOUS
 62
     7
100
AcDbLine
 10
61.809489
 20
39.427547
 30
0.0
 11
61.788311
 21
39.460012
 31
0.0
  0
LINE
  5
260
330
24D
100
AcDbEntity
  8
0
  6
CONTINUOUS
 62
     7
100
AcDbLine
 10
61.788311
 20
39.460012
 30
0.0
 11
61.767199
 21
39.492525
 31
0.0
  0
ENDBLK
  5
24F
330
24D
100
AcDbEntity
  8
0
100
AcDbBlockEnd
  0
BLOCK
  5
267
330
266
100
AcDbEntity
  8
0
100
AcDbBlockBegin
  2
BLKF017
 70
     0
 71
     0
 10
0.0
 20
0.0
 30
0.0
  3
BLKF017
  1

  0
LINE
  5
26A
330
266
100
AcDbEntity
  8
0
  6
CONTINUOUS
 62
     7
100
AcDbLine
 10
65.267199
 20
52.095298
 30
0.0
 11
65.290092
 21
52.05901
 31
0.0
  0
LINE
  5
26B
330
266
100
AcDbEntity
  8
0
  6
CONTINUOUS
 62
     7
100
AcDbLine
 10
65.290092
 20
52.05901
 30
0.0
 11
65.312942
 21
52.022712
 31
0.0
  0
LINE
  5
26C
330
266
100
AcDbEntity
  8
0
  6
CONTINUOUS
 62
     7
100
AcDbLine
 10
65.312942
 20
52.022712
 30
0.0
 11
65.335707
 21
51.986397
 31
0.0
  0
LINE
  5
26D
330
266
100
AcDbEntity
  8
0
  6
CONTINUOUS
 62
     7
100
AcDbLine
 10
65.335707
 20
51.986397
 30
0.0
 11
65.358344
 21
51.950056
 31
0.0
  0
LINE
  5
26E
330
266
100
AcDbEntity
  8
0
  6
CONTINUOUS
 62
     7
100
AcDbLine
 10
65.358344
 20
51.950056
 30
0.0
 11
65.369601
 21
51.931873
 31
0.0
  0
LINE
  5
26F
330
266
100
AcDbEntity
  8
0
  6
CONTINUOUS
 62
     7
100
AcDbLine
 10
65.369601
 20
51.931873
 30
0.0
 11
65.38081
 21
51.91368
 31
0.0
  0
LINE
  5
270
330
266
100
AcDbEntity
  8
0
  6
CONTINUOUS
 62
     7
100
AcDbLine
 10
65.38081
 20
51.91368
 30
0.0
 11
65.391965
 21
51.895475
 31
0.0
  0
LINE
  5
271
330
266
100
AcDbEntity
  8
0
  6
CONTINUOUS
 62
     7
100
AcDbLine
 10
65.391965
 20
51.895475
 30
0.0
 11
65.403062
 21
51.877259
 31
0.0
  0
LINE
  5
272
330
266
100
AcDbEntity
  8
0
  6
CONTINUOUS
 62
     7
100
AcDbLine
 10
65.403062
 20
51.877259
 30
0.0
 11
65.414094
 21
51.85903
 31
0.0
  0
LINE
  5
273
330
266
100
AcDbEntity
  8
0
  6
CONTINUOUS
 62
     7
100
AcDbLine
 10
65.414094
 20
51.85903
 30
0.0
 11
65.425058
 21
51.840786
 31
0.0
  0
LINE
  5
274
330
266
100
AcDbEntity
  8
0
  6
CONTINUOUS
 62
     7
100
AcDbLine
 10
65.425058
 20
51.840786
 30
0.0
 11
65.435946
 21
51.822527
 31
0.0
  0
LINE
  5
275
330
266
100
AcDbEntity
  8
0
  6
CONTINUOUS
 62
     7
100
AcDbLine
 10
65.435946
 20
51.822527
 30
0.0
 11
65.446754
 21
51.804251
 31
0.0
  0
LINE
  5
276
330
266
100
AcDbEntity
  8
0
  6
CONTINUOUS
 62
     7
100
AcDbLine
 10
65.446754
 20
51.804251
 30
0.0
 11
65.457477
 21
51.785958
 31
0.0
  0
LINE
  5
277
330
266
100
AcDbEntity
  8
0
  6
CONTINUOUS
 62
     7
100
AcDbLine
 10
65.457477
 20
51.785958
 30
0.0
 11
65.468109
 21
51.767647
 31
0.0
  0
LINE
  5
278
330
266
100
AcDbEntity
  8
0
  6
CONTINUOUS
 62
     7
100
AcDbLine
 10
65.468109
 20
51.767647
 30
0.0
 11
65.478645
 21
51.749315
 31
0.0
  0
LINE
  5
279
330
266
100
AcDbEntity
  8
0
  6
CONTINUOUS
 62
     7
100
AcDbLine
 10
65.478645
 20
51.749315
 30
0.0
 11
65.489079
 21
51.730963
 31
0.0
  0
LINE
  5
27A
330
266
100
AcDbEntity
  8
0
  6
CONTINUOUS
 62
     7
100
AcDbLine
 10
65.489079
 20
51.730963
 30
0.0
 11
65.499407
 21
51.712588
 31
0.0
  0
LINE
  5
27B
330
266
100
AcDbEntity
  8
0
  6
CONTINUOUS
 62
     7
100
AcDbLine
 10
65.499407
 20
51.712588
 30
0.0
 11
65.509622
 21
51.694191
 31
0.0
  0
LINE
  5
27C
330
266
100
AcDbEntity
  8
0
  6
CONTINUOUS
 62
     7
100
AcDbLine
 10
65.509622
 20
51.694191
 30
0.0
 11
65.51972
 21
51.675769
 31
0.0
  0
LINE
  5
27D
330
266
100
AcDbEntity
  8
0
  6
CONTINUOUS
 62
     7
100
AcDbLine
 10
65.51972
 20
51.675769
 30
0.0
 11
65.529695
 21
51.657322
 31
0.0
  0
LINE
  5
27E
330
266
100
AcDbEntity
  8
0
  6
CONTINUOUS
 62
     7
100
AcDbLine
 10
65.529695
 20
51.657322
 30
0.0
 11
65.539542
 21
51.638849
 31
0.0
  0
LINE
  5
27F
330
266
100
AcDbEntity
  8
0
  6
CONTINUOUS
 62
     7
100
AcDbLine
 10
65.539542
 20
51.638849
 30
0.0
 11
65.549255
 21
51.620349
 31
0.0
  0
LINE
  5
280
330
266
100
AcDbEntity
  8
0
  6
CONTINUOUS
 62
     7
100
AcDbLine
 10
65.549255
 20
51.620349
 30
0.0
 11
65.55883
 21
51.601819
 31
0.0
  0
LINE
  5
281
330
266
100
AcDbEntity
  8
0
  6
CONTINUOUS
 62
     7
100
AcDbLine
 10
65.55883
 20
51.601819
 30
0.0
 11
65.56826
 21
51.58326
 31
0.0
  0
LINE
  5
282
330
266
100
AcDbEntity
  8
0
  6
CONTINUOUS
 62
     7
100
AcDbLine
 10
65.56826
 20
51.58326
 30
0.0
 11
65.577541
 21
51.564671
 31
0.0
  0
LINE
  5
283
330
266
100
AcDbEntity
  8
0
  6
CONTINUOUS
 62
     7
100
AcDbLine
 10
65.577541
 20
51.564671
 30
0.0
 11
65.586667
 21
51.546049
 31
0.0
  0
LINE
  5
284
330
266
100
AcDbEntity
  8
0
  6
CONTINUOUS
 62
     7
100
AcDbLine
 10
65.586667
 20
51.546049
 30
0.0
 11
65.595632
 21
51.527395
 31
0.0
  0
LINE
  5
285
330
266
100
AcDbEntity
  8
0
  6
CONTINUOUS
 62
     7
100
AcDbLine
 10
65.595632
 20
51.527395
 30
0.0
 11
65.604432
 21
51.508706
 31
0.0
  0
LINE
  5
286
330
266
100
AcDbEntity
  8
0
  6
CONTINUOUS
 62
     7
100
AcDbLine
 10
65.604432
 20
51.508706
 30
0.0
 11
65.613061
 21
51.489983
 31
0.0
  0
LINE
  5
287
330
266
100
AcDbEntity
  8
0
  6
CONTINUOUS
 62
     7
100
AcDbLine
 10
65.613061
 20
51.489983
 30
0.0
 11
65.621514
 21
51.471223
 31
0.0
  0
LINE
  5
288
330
266
100
AcDbEntity
  8
0
  6
CONTINUOUS
 62
     7
100
AcDbLine
 10
65.621514
 20
51.471223
 30
0.0
 11
65.629785
 21
51.452426
 31
0.0
  0
LINE
  5
289
330
266
100
AcDbEntity
  8
0
  6
CONTINUOUS
 62
     7
100
AcDbLine
 10
65.629785
 20
51.452426
 30
0.0
 11
65.637869
 21
51.43359
 31
0.0
  0
LINE
  5
28A
330
266
100
AcDbEntity
  8
0
  6
CONTINUOUS
 62
     7
100
AcDbLine
 10
65.637869
 20
51.43359
 30
0.0
 11
65.645761
 21
51.414715
 31
0.0
  0
LINE
  5
28B
330
266
100
AcDbEntity
  8
0
  6
CONTINUOUS
 62
     7
100
AcDbLine
 10
65.645761
 20
51.414715
 30
0.0
 11
65.653455
 21
51.395799
 31
0.0
  0
LINE
  5
28C
330
266
100
AcDbEntity
  8
0
  6
CONTINUOUS
 62
     7
100
AcDbLine
 10
65.653455
 20
51.395799
 30
0.0
 11
65.660947
 21
51.376842
 31
0.0
  0
LINE
  5
28D
330
266
100
AcDbEntity
  8
0
  6
CONTINUOUS
 62
     7
100
AcDbLine
 10
65.660947
 20
51.376842
 30
0.0
 11
65.66823
 21
51.357841
 31
0.0
  0
LINE
  5
28E
330
266
100
AcDbEntity
  8
0
  6
CONTINUOUS
 62
     7
100
AcDbLine
 10
65.66823
 20
51.357841
 30
0.0
 11
65.675299
 21
51.338797
 31
0.0
  0
LINE
  5
28F
330
266
100
AcDbEntity
  8
0
  6
CONTINUOUS
 62
     7
100
AcDbLine
 10
65.675299
 20
51.338797
 30
0.0
 11
65.682149
 21
51.319708
 31
0.0
  0
LINE
  5
290
330
266
100
AcDbEntity
  8
0
  6
CONTINUOUS
 62
     7
100
AcDbLine
 10
65.682149
 20
51.319708
 30
0.0
 11
65.688775
 21
51.300572
 31
0.0
  0
LINE
  5
291
330
266
100
AcDbEntity
  8
0
  6
CONTINUOUS
 62
     7
100
AcDbLine
 10
65.688775
 20
51.300572
 30
0.0
 11
65.695172
 21
51.28139
 31
0.0
  0
LINE
  5
292
330
266
100
AcDbEntity
  8
0
  6
CONTINUOUS
 62
     7
100
AcDbLine
 10
65.695172
 20
51.28139
 30
0.0
 11
65.701333
 21
51.262159
 31
0.0
  0
LINE
  5
293
330
266
100
AcDbEntity
  8
0
  6
CONTINUOUS
 62
     7
100
AcDbLine
 10
65.701333
 20
51.262159
 30
0.0
 11
65.707254
 21
51.242878
 31
0.0
  0
LINE
  5
294
330
266
100
AcDbEntity
  8
0
  6
CONTINUOUS
 62
     7
100
AcDbLine
 10
65.707254
 20
51.242878
 30
0.0
 11
65.712929
 21
51.223547
 31
0.0
  0
LINE
  5
295
330
266
100
AcDbEntity
  8
0
  6
CONTINUOUS
 62
     7
100
AcDbLine
 10
65.712929
 20
51.223547
 30
0.0
 11
65.718354
 21
51.204165
 31
0.0
  0
LINE
  5
296
330
266
100
AcDbEntity
  8
0
  6
CONTINUOUS
 62
     7
100
AcDbLine
 10
65.718354
 20
51.204165
 30
0.0
 11
65.723521
 21
51.184729
 31
0.0
  0
LINE
  5
297
330
266
100
AcDbEntity
  8
0
  6
CONTINUOUS
 62
     7
100
AcDbLine
 10
65.723521
 20
51.184729
 30
0.0
 11
65.728427
 21
51.16524
 31
0.0
  0
LINE
  5
298
330
266
100
AcDbEntity
  8
0
  6
CONTINUOUS
 62
     7
100
AcDbLine
 10
65.728427
 20
51.16524
 30
0.0
 11
65.733067
 21
51.145696
 31
0.0
  0
LINE
  5
299
330
266
100
AcDbEntity
  8
0
  6
CONTINUOUS
 62
     7
100
AcDbLine
 10
65.733067
 20
51.145696
 30
0.0
 11
65.737433
 21
51.126096
 31
0.0
  0
LINE
  5
29A
330
266
100
AcDbEntity
  8
0
  6
CONTINUOUS
 62
     7
100
AcDbLine
 10
65.737433
 20
51.126096
 30
0.0
 11
65.741522
 21
51.106439
 31
0.0
  0
LINE
  5
29B
330
266
100
AcDbEntity
  8
0
  6
CONTINUOUS
 62
     7
100
AcDbLine
 10
65.741522
 20
51.106439
 30
0.0
 11
65.745328
 21
51.086724
 31
0.0
  0
LINE
  5
29C
330
266
100
AcDbEntity
  8
0
  6
CONTINUOUS
 62
     7
100
AcDbLine
 10
65.745328
 20
51.086724
 30
0.0
 11
65.748845
 21
51.066949
 31
0.0
  0
LINE
  5
29D
330
266
100
AcDbEntity
  8
0
  6
CONTINUOUS
 62
     7
100
AcDbLine
 10
65.748845
 20
51.066949
 30
0.0
 11
65.752069
 21
51.047114
 31
0.0
  0
LINE
  5
29E
330
266
100
AcDbEntity
  8
0
  6
CONTINUOUS
 62
     7
100
AcDbLine
 10
65.752069
 20
51.047114
 30
0.0
 11
65.754993
 21
51.027218
 31
0.0
  0
LINE
  5
29F
330
266
100
AcDbEntity
  8
0
  6
CONTINUOUS
 62
     7
100
AcDbLine
 10
65.754993
 20
51.027218
 30
0.0
 11
65.757613
 21
51.007259
 31
0.0
  0
LINE
  5
2A0
330
266
100
AcDbEntity
  8
0
  6
CONTINUOUS
 62
     7
100
AcDbLine
 10
65.757613
 20
51.007259
 30
0.0
 11
65.759924
 21
50.987236
 31
0.0
  0
LINE
  5
2A1
330
266
100
AcDbEntity
  8
0
  6
CONTINUOUS
 62
     7
100
AcDbLine
 10
65.759924
 20
50.987236
 30
0.0
 11
65.760961
 21
50.9772
 31
0.0
  0
LINE
  5
2A2
330
266
100
AcDbEntity
  8
0
  6
CONTINUOUS
 62
     7
100
AcDbLine
 10
65.760961
 20
50.9772
 30
0.0
 11
65.761919
 21
50.967148
 31
0.0
  0
LINE
  5
2A3
330
266
100
AcDbEntity
  8
0
  6
CONTINUOUS
 62
     7
100
AcDbLine
 10
65.761919
 20
50.967148
 30
0.0
 11
65.762796
 21
50.95708
 31
0.0
  0
LINE
  5
2A4
330
266
100
AcDbEntity
  8
0
  6
CONTINUOUS
 62
     7
100
AcDbLine
 10
65.762796
 20
50.95708
 30
0.0
 11
65.763593
 21
50.946995
 31
0.0
  0
LINE
  5
2A5
330
266
100
AcDbEntity
  8
0
  6
CONTINUOUS
 62
     7
100
AcDbLine
 10
65.763593
 20
50.946995
 30
0.0
 11
65.764309
 21
50.936893
 31
0.0
  0
LINE
  5
2A6
330
266
100
AcDbEntity
  8
0
  6
CONTINUOUS
 62
     7
100
AcDbLine
 10
65.764309
 20
50.936893
 30
0.0
 11
65.764942
 21
50.926774
 31
0.0
  0
LINE
  5
2A7
330
266
100
AcDbEntity
  8
0
  6
CONTINUOUS
 62
     7
100
AcDbLine
 10
65.764942
 20
50.926774
 30
0.0
 11
65.765493
 21
50.916638
 31
0.0
  0
LINE
  5
2A8
330
266
100
AcDbEntity
  8
0
  6
CONTINUOUS
 62
     7
100
AcDbLine
 10
65.765493
 20
50.916638
 30
0.0
 11
65.76596
 21
50.906485
 31
0.0
  0
LINE
  5
2A9
330
266
100
AcDbEntity
  8
0
  6
CONTINUOUS
 62
     7
100
AcDbLine
 10
65.76596
 20
50.906485
 30
0.0
 11
65.766343
 21
50.896315
 31
0.0
  0
LINE
  5
2AA
330
266
100
AcDbEntity
  8
0
  6
CONTINUOUS
 62
     7
100
AcDbLine
 10
65.766343
 20
50.896315
 30
0.0
 11
65.766641
 21
50.886128
 31
0.0
  0
LINE
  5
2AB
330
266
100
AcDbEntity
  8
0
  6
CONTINUOUS
 62
     7
100
AcDbLine
 10
65.766641
 20
50.886128
 30
0.0
 11
65.767009
 21
50.865731
 31
0.0
  0
LINE
  5
2AC
330
266
100
AcDbEntity
  8
0
  6
CONTINUOUS
 62
     7
100
AcDbLine
 10
65.767009
 20
50.865731
 30
0.0
 11
65.767207
 21
50.845299
 31
0.0
  0
ENDBLK
  5
268
330
266
100
AcDbEntity
  8
0
100
AcDbBlockEnd
  0
BLOCK
  5
2B8
330
2B7
100
AcDbEntity
  8
0
100
AcDbBlockBegin
  2
BLKF018
 70
     0
 71
     0
 10
0.0
 20
0.0
 30
0.0
  3
BLKF018
  1

  0
LINE
  5
2BB
330
2B7
100
AcDbEntity
  8
0
  6
CONTINUOUS
 62
     7
100
AcDbLine
 10
61.267205
 20
43.149145
 30
0.0
 11
61.299965
 21
43.236595
 31
0.0
  0
LINE
  5
2BC
330
2B7
100
AcDbEntity
  8
0
  6
CONTINUOUS
 62
     7
100
AcDbLine
 10
61.299965
 20
43.236595
 30
0.0
 11
61.316211
 21
43.280355
 31
0.0
  0
LINE
  5
2BD
330
2B7
100
AcDbEntity
  8
0
  6
CONTINUOUS
 62
     7
100
AcDbLine
 10
61.316211
 20
43.280355
 30
0.0
 11
61.332295
 21
43.324158
 31
0.0
  0
LINE
  5
2BE
330
2B7
100
AcDbEntity
  8
0
  6
CONTINUOUS
 62
     7
100
AcDbLine
 10
61.332295
 20
43.324158
 30
0.0
 11
61.348164
 21
43.368018
 31
0.0
  0
LINE
  5
2BF
330
2B7
100
AcDbEntity
  8
0
  6
CONTINUOUS
 62
     7
100
AcDbLine
 10
61.348164
 20
43.368018
 30
0.0
 11
61.363763
 21
43.41195
 31
0.0
  0
LINE
  5
2C0
330
2B7
100
AcDbEntity
  8
0
  6
CONTINUOUS
 62
     7
100
AcDbLine
 10
61.363763
 20
43.41195
 30
0.0
 11
61.37904
 21
43.455967
 31
0.0
  0
LINE
  5
2C1
330
2B7
100
AcDbEntity
  8
0
  6
CONTINUOUS
 62
     7
100
AcDbLine
 10
61.37904
 20
43.455967
 30
0.0
 11
61.39394
 21
43.500085
 31
0.0
  0
LINE
  5
2C2
330
2B7
100
AcDbEntity
  8
0
  6
CONTINUOUS
 62
     7
100
AcDbLine
 10
61.39394
 20
43.500085
 30
0.0
 11
61.404562
 21
43.532393
 31
0.0
  0
LINE
  5
2C3
330
2B7
100
AcDbEntity
  8
0
  6
CONTINUOUS
 62
     7
100
AcDbLine
 10
61.404562
 20
43.532393
 30
0.0
 11
61.414959
 21
43.564761
 31
0.0
  0
LINE
  5
2C4
330
2B7
100
AcDbEntity
  8
0
  6
CONTINUOUS
 62
     7
100
AcDbLine
 10
61.414959
 20
43.564761
 30
0.0
 11
61.425133
 21
43.597189
 31
0.0
  0
LINE
  5
2C5
330
2B7
100
AcDbEntity
  8
0
  6
CONTINUOUS
 62
     7
100
AcDbLine
 10
61.425133
 20
43.597189
 30
0.0
 11
61.435087
 21
43.629675
 31
0.0
  0
LINE
  5
2C6
330
2B7
100
AcDbEntity
  8
0
  6
CONTINUOUS
 62
     7
100
AcDbLine
 10
61.435087
 20
43.629675
 30
0.0
 11
61.444826
 21
43.662217
 31
0.0
  0
LINE
  5
2C7
330
2B7
100
AcDbEntity
  8
0
  6
CONTINUOUS
 62
     7
100
AcDbLine
 10
61.444826
 20
43.662217
 30
0.0
 11
61.454353
 21
43.694817
 31
0.0
  0
LINE
  5
2C8
330
2B7
100
AcDbEntity
  8
0
  6
CONTINUOUS
 62
     7
100
AcDbLine
 10
61.454353
 20
43.694817
 30
0.0
 11
61.472786
 21
43.76018
 31
0.0
  0
LINE
  5
2C9
330
2B7
100
AcDbEntity
  8
0
  6
CONTINUOUS
 62
     7
100
AcDbLine
 10
61.472786
 20
43.76018
 30
0.0
 11
61.490414
 21
43.825756
 31
0.0
  0
LINE
  5
2CA
330
2B7
100
AcDbEntity
  8
0
  6
CONTINUOUS
 62
     7
100
AcDbLine
 10
61.490414
 20
43.825756
 30
0.0
 11
61.507266
 21
43.891538
 31
0.0
  0
LINE
  5
2CB
330
2B7
100
AcDbEntity
  8
0
  6
CONTINUOUS
 62
     7
100
AcDbLine
 10
61.507266
 20
43.891538
 30
0.0
 11
61.523371
 21
43.957519
 31
0.0
  0
LINE
  5
2CC
330
2B7
100
AcDbEntity
  8
0
  6
CONTINUOUS
 62
     7
100
AcDbLine
 10
61.523371
 20
43.957519
 30
0.0
 11
61.538757
 21
44.02369
 31
0.0
  0
LINE
  5
2CD
330
2B7
100
AcDbEntity
  8
0
  6
CONTINUOUS
 62
     7
100
AcDbLine
 10
61.538757
 20
44.02369
 30
0.0
 11
61.553453
 21
44.090043
 31
0.0
  0
LINE
  5
2CE
330
2B7
100
AcDbEntity
  8
0
  6
CONTINUOUS
 62
     7
100
AcDbLine
 10
61.553453
 20
44.090043
 30
0.0
 11
61.567489
 21
44.156573
 31
0.0
  0
LINE
  5
2CF
330
2B7
100
AcDbEntity
  8
0
  6
CONTINUOUS
 62
     7
100
AcDbLine
 10
61.567489
 20
44.156573
 30
0.0
 11
61.580892
 21
44.22327
 31
0.0
  0
LINE
  5
2D0
330
2B7
100
AcDbEntity
  8
0
  6
CONTINUOUS
 62
     7
100
AcDbLine
 10
61.580892
 20
44.22327
 30
0.0
 11
61.593691
 21
44.290127
 31
0.0
  0
LINE
  5
2D1
330
2B7
100
AcDbEntity
  8
0
  6
CONTINUOUS
 62
     7
100
AcDbLine
 10
61.593691
 20
44.290127
 30
0.0
 11
61.605916
 21
44.357136
 31
0.0
  0
LINE
  5
2D2
330
2B7
100
AcDbEntity
  8
0
  6
CONTINUOUS
 62
     7
100
AcDbLine
 10
61.605916
 20
44.357136
 30
0.0
 11
61.617595
 21
44.424291
 31
0.0
  0
LINE
  5
2D3
330
2B7
100
AcDbEntity
  8
0
  6
CONTINUOUS
 62
     7
100
AcDbLine
 10
61.617595
 20
44.424291
 30
0.0
 11
61.628756
 21
44.491582
 31
0.0
  0
LINE
  5
2D4
330
2B7
100
AcDbEntity
  8
0
  6
CONTINUOUS
 62
     7
100
AcDbLine
 10
61.628756
 20
44.491582
 30
0.0
 11
61.639429
 21
44.559003
 31
0.0
  0
LINE
  5
2D5
330
2B7
100
AcDbEntity
  8
0
  6
CONTINUOUS
 62
     7
100
AcDbLine
 10
61.639429
 20
44.559003
 30
0.0
 11
61.649642
 21
44.626546
 31
0.0
  0
LINE
  5
2D6
330
2B7
100
AcDbEntity
  8
0
  6
CONTINUOUS
 62
     7
100
AcDbLine
 10
61.649642
 20
44.626546
 30
0.0
 11
61.659424
 21
44.694204
 31
0.0
  0
LINE
  5
2D7
330
2B7
100
AcDbEntity
  8
0
  6
CONTINUOUS
 62
     7
100
AcDbLine
 10
61.659424
 20
44.694204
 30
0.0
 11
61.668803
 21
44.761968
 31
0.0
  0
LINE
  5
2D8
330
2B7
100
AcDbEntity
  8
0
  6
CONTINUOUS
 62
     7
100
AcDbLine
 10
61.668803
 20
44.761968
 30
0.0
 11
61.677809
 21
44.829831
 31
0.0
  0
LINE
  5
2D9
330
2B7
100
AcDbEntity
  8
0
  6
CONTINUOUS
 62
     7
100
AcDbLine
 10
61.677809
 20
44.829831
 30
0.0
 11
61.68647
 21
44.897786
 31
0.0
  0
LINE
  5
2DA
330
2B7
100
AcDbEntity
  8
0
  6
CONTINUOUS
 62
     7
100
AcDbLine
 10
61.68647
 20
44.897786
 30
0.0
 11
61.694815
 21
44.965824
 31
0.0
  0
LINE
  5
2DB
330
2B7
100
AcDbEntity
  8
0
  6
CONTINUOUS
 62
     7
100
AcDbLine
 10
61.694815
 20
44.965824
 30
0.0
 11
61.702873
 21
45.033939
 31
0.0
  0
LINE
  5
2DC
330
2B7
100
AcDbEntity
  8
0
  6
CONTINUOUS
 62
     7
100
AcDbLine
 10
61.702873
 20
45.033939
 30
0.0
 11
61.710671
 21
45.102123
 31
0.0
  0
LINE
  5
2DD
330
2B7
100
AcDbEntity
  8
0
  6
CONTINUOUS
 62
     7
100
AcDbLine
 10
61.710671
 20
45.102123
 30
0.0
 11
61.71824
 21
45.170367
 31
0.0
  0
LINE
  5
2DE
330
2B7
100
AcDbEntity
  8
0
  6
CONTINUOUS
 62
     7
100
AcDbLine
 10
61.71824
 20
45.170367
 30
0.0
 11
61.725608
 21
45.238665
 31
0.0
  0
LINE
  5
2DF
330
2B7
100
AcDbEntity
  8
0
  6
CONTINUOUS
 62
     7
100
AcDbLine
 10
61.725608
 20
45.238665
 30
0.0
 11
61.732803
 21
45.307008
 31
0.0
  0
LINE
  5
2E0
330
2B7
100
AcDbEntity
  8
0
  6
CONTINUOUS
 62
     7
100
AcDbLine
 10
61.732803
 20
45.307008
 30
0.0
 11
61.739855
 21
45.37539
 31
0.0
  0
LINE
  5
2E1
330
2B7
100
AcDbEntity
  8
0
  6
CONTINUOUS
 62
     7
100
AcDbLine
 10
61.739855
 20
45.37539
 30
0.0
 11
61.753642
 21
45.512237
 31
0.0
  0
LINE
  5
2E2
330
2B7
100
AcDbEntity
  8
0
  6
CONTINUOUS
 62
     7
100
AcDbLine
 10
61.753642
 20
45.512237
 30
0.0
 11
61.767199
 21
45.649145
 31
0.0
  0
ENDBLK
  5
2B9
330
2B7
100
AcDbEntity
  8
0
100
AcDbBlockEnd
  0
BLOCK
  5
2E4
330
2E3
100
AcDbEntity
  8
0
100
AcDbBlockBegin
  2
BLKF019
 70
     0
 71
     0
 10
0.0
 20
0.0
 30
0.0
  3
BLKF019
  1

  0
LINE
  5
2E7
330
2E3
100
AcDbEntity
  8
0
  6
CONTINUOUS
 62
     7
100
AcDbLine
 10
61.267205
 20
41.702993
 30
0.0
 11
61.290106
 21
41.666705
 31
0.0
  0
LINE
  5
2E8
330
2E3
100
AcDbEntity
  8
0
  6
CONTINUOUS
 62
     7
100
AcDbLine
 10
61.290106
 20
41.666705
 30
0.0
 11
61.312963
 21
41.630407
 31
0.0
  0
LINE
  5
2E9
330
2E3
100
AcDbEntity
  8
0
  6
CONTINUOUS
 62
     7
100
AcDbLine
 10
61.312963
 20
41.630407
 30
0.0
 11
61.335735
 21
41.594093
 31
0.0
  0
LINE
  5
2EA
330
2E3
100
AcDbEntity
  8
0
  6
CONTINUOUS
 62
     7
100
AcDbLine
 10
61.335735
 20
41.594093
 30
0.0
 11
61.358379
 21
41.557751
 31
0.0
  0
LINE
  5
2EB
330
2E3
100
AcDbEntity
  8
0
  6
CONTINUOUS
 62
     7
100
AcDbLine
 10
61.358379
 20
41.557751
 30
0.0
 11
61.369639
 21
41.539568
 31
0.0
  0
LINE
  5
2EC
330
2E3
100
AcDbEntity
  8
0
  6
CONTINUOUS
 62
     7
100
AcDbLine
 10
61.369639
 20
41.539568
 30
0.0
 11
61.380852
 21
41.521375
 31
0.0
  0
LINE
  5
2ED
330
2E3
100
AcDbEntity
  8
0
  6
CONTINUOUS
 62
     7
100
AcDbLine
 10
61.380852
 20
41.521375
 30
0.0
 11
61.392011
 21
41.503171
 31
0.0
  0
LINE
  5
2EE
330
2E3
100
AcDbEntity
  8
0
  6
CONTINUOUS
 62
     7
100
AcDbLine
 10
61.392011
 20
41.503171
 30
0.0
 11
61.40311
 21
41.484955
 31
0.0
  0
LINE
  5
2EF
330
2E3
100
AcDbEntity
  8
0
  6
CONTINUOUS
 62
     7
100
AcDbLine
 10
61.40311
 20
41.484955
 30
0.0
 11
61.414146
 21
41.466725
 31
0.0
  0
LINE
  5
2F0
330
2E3
100
AcDbEntity
  8
0
  6
CONTINUOUS
 62
     7
100
AcDbLine
 10
61.414146
 20
41.466725
 30
0.0
 11
61.425113
 21
41.448482
 31
0.0
  0
LINE
  5
2F1
330
2E3
100
AcDbEntity
  8
0
  6
CONTINUOUS
 62
     7
100
AcDbLine
 10
61.425113
 20
41.448482
 30
0.0
 11
61.436004
 21
41.430223
 31
0.0
  0
LINE
  5
2F2
330
2E3
100
AcDbEntity
  8
0
  6
CONTINUOUS
 62
     7
100
AcDbLine
 10
61.436004
 20
41.430223
 30
0.0
 11
61.446815
 21
41.411947
 31
0.0
  0
LINE
  5
2F3
330
2E3
100
AcDbEntity
  8
0
  6
CONTINUOUS
 62
     7
100
AcDbLine
 10
61.446815
 20
41.411947
 30
0.0
 11
61.457541
 21
41.393654
 31
0.0
  0
LINE
  5
2F4
330
2E3
100
AcDbEntity
  8
0
  6
CONTINUOUS
 62
     7
100
AcDbLine
 10
61.457541
 20
41.393654
 30
0.0
 11
61.468176
 21
41.375342
 31
0.0
  0
LINE
  5
2F5
330
2E3
100
AcDbEntity
  8
0
  6
CONTINUOUS
 62
     7
100
AcDbLine
 10
61.468176
 20
41.375342
 30
0.0
 11
61.478714
 21
41.357011
 31
0.0
  0
LINE
  5
2F6
330
2E3
100
AcDbEntity
  8
0
  6
CONTINUOUS
 62
     7
100
AcDbLine
 10
61.478714
 20
41.357011
 30
0.0
 11
61.489151
 21
41.338658
 31
0.0
  0
LINE
  5
2F7
330
2E3
100
AcDbEntity
  8
0
  6
CONTINUOUS
 62
     7
100
AcDbLine
 10
61.489151
 20
41.338658
 30
0.0
 11
61.499482
 21
41.320284
 31
0.0
  0
LINE
  5
2F8
330
2E3
100
AcDbEntity
  8
0
  6
CONTINUOUS
 62
     7
100
AcDbLine
 10
61.499482
 20
41.320284
 30
0.0
 11
61.509699
 21
41.301887
 31
0.0
  0
LINE
  5
2F9
330
2E3
100
AcDbEntity
  8
0
  6
CONTINUOUS
 62
     7
100
AcDbLine
 10
61.509699
 20
41.301887
 30
0.0
 11
61.519799
 21
41.283465
 31
0.0
  0
LINE
  5
2FA
330
2E3
100
AcDbEntity
  8
0
  6
CONTINUOUS
 62
     7
100
AcDbLine
 10
61.519799
 20
41.283465
 30
0.0
 11
61.529777
 21
41.265018
 31
0.0
  0
LINE
  5
2FB
330
2E3
100
AcDbEntity
  8
0
  6
CONTINUOUS
 62
     7
100
AcDbLine
 10
61.529777
 20
41.265018
 30
0.0
 11
61.539626
 21
41.246545
 31
0.0
  0
LINE
  5
2FC
330
2E3
100
AcDbEntity
  8
0
  6
CONTINUOUS
 62
     7
100
AcDbLine
 10
61.539626
 20
41.246545
 30
0.0
 11
61.549341
 21
41.228044
 31
0.0
  0
LINE
  5
2FD
330
2E3
100
AcDbEntity
  8
0
  6
CONTINUOUS
 62
     7
100
AcDbLine
 10
61.549341
 20
41.228044
 30
0.0
 11
61.558917
 21
41.209515
 31
0.0
  0
LINE
  5
2FE
330
2E3
100
AcDbEntity
  8
0
  6
CONTINUOUS
 62
     7
100
AcDbLine
 10
61.558917
 20
41.209515
 30
0.0
 11
61.568349
 21
41.190956
 31
0.0
  0
LINE
  5
2FF
330
2E3
100
AcDbEntity
  8
0
  6
CONTINUOUS
 62
     7
100
AcDbLine
 10
61.568349
 20
41.190956
 30
0.0
 11
61.577631
 21
41.172367
 31
0.0
  0
LINE
  5
300
330
2E3
100
AcDbEntity
  8
0
  6
CONTINUOUS
 62
     7
100
AcDbLine
 10
61.577631
 20
41.172367
 30
0.0
 11
61.586758
 21
41.153745
 31
0.0
  0
LINE
  5
301
330
2E3
100
AcDbEntity
  8
0
  6
CONTINUOUS
 62
     7
100
AcDbLine
 10
61.586758
 20
41.153745
 30
0.0
 11
61.595725
 21
41.135091
 31
0.0
  0
LINE
  5
302
330
2E3
100
AcDbEntity
  8
0
  6
CONTINUOUS
 62
     7
100
AcDbLine
 10
61.595725
 20
41.135091
 30
0.0
 11
61.604526
 21
41.116402
 31
0.0
  0
LINE
  5
303
330
2E3
100
AcDbEntity
  8
0
  6
CONTINUOUS
 62
     7
100
AcDbLine
 10
61.604526
 20
41.116402
 30
0.0
 11
61.613155
 21
41.097679
 31
0.0
  0
LINE
  5
304
330
2E3
100
AcDbEntity
  8
0
  6
CONTINUOUS
 62
     7
100
AcDbLine
 10
61.613155
 20
41.097679
 30
0.0
 11
61.621609
 21
41.078919
 31
0.0
  0
LINE
  5
305
330
2E3
100
AcDbEntity
  8
0
  6
CONTINUOUS
 62
     7
100
AcDbLine
 10
61.621609
 20
41.078919
 30
0.0
 11
61.62988
 21
41.060122
 31
0.0
  0
LINE
  5
306
330
2E3
100
AcDbEntity
  8
0
  6
CONTINUOUS
 62
     7
100
AcDbLine
 10
61.62988
 20
41.060122
 30
0.0
 11
61.637965
 21
41.041286
 31
0.0
  0
LINE
  5
307
330
2E3
100
AcDbEntity
  8
0
  6
CONTINUOUS
 62
     7
100
AcDbLine
 10
61.637965
 20
41.041286
 30
0.0
 11
61.645857
 21
41.022411
 31
0.0
  0
LINE
  5
308
330
2E3
100
AcDbEntity
  8
0
  6
CONTINUOUS
 62
     7
100
AcDbLine
 10
61.645857
 20
41.022411
 30
0.0
 11
61.653551
 21
41.003495
 31
0.0
  0
LINE
  5
309
330
2E3
100
AcDbEntity
  8
0
  6
CONTINUOUS
 62
     7
100
AcDbLine
 10
61.653551
 20
41.003495
 30
0.0
 11
61.661042
 21
40.984537
 31
0.0
  0
LINE
  5
30A
330
2E3
100
AcDbEntity
  8
0
  6
CONTINUOUS
 62
     7
100
AcDbLine
 10
61.661042
 20
40.984537
 30
0.0
 11
61.668325
 21
40.965537
 31
0.0
  0
LINE
  5
30B
330
2E3
100
AcDbEntity
  8
0
  6
CONTINUOUS
 62
     7
100
AcDbLine
 10
61.668325
 20
40.965537
 30
0.0
 11
61.675393
 21
40.946493
 31
0.0
  0
LINE
  5
30C
330
2E3
100
AcDbEntity
  8
0
  6
CONTINUOUS
 62
     7
100
AcDbLine
 10
61.675393
 20
40.946493
 30
0.0
 11
61.682243
 21
40.927403
 31
0.0
  0
LINE
  5
30D
330
2E3
100
AcDbEntity
  8
0
  6
CONTINUOUS
 62
     7
100
AcDbLine
 10
61.682243
 20
40.927403
 30
0.0
 11
61.688868
 21
40.908268
 31
0.0
  0
LINE
  5
30E
330
2E3
100
AcDbEntity
  8
0
  6
CONTINUOUS
 62
     7
100
AcDbLine
 10
61.688868
 20
40.908268
 30
0.0
 11
61.695262
 21
40.889085
 31
0.0
  0
LINE
  5
30F
330
2E3
100
AcDbEntity
  8
0
  6
CONTINUOUS
 62
     7
100
AcDbLine
 10
61.695262
 20
40.889085
 30
0.0
 11
61.701422
 21
40.869854
 31
0.0
  0
LINE
  5
310
330
2E3
100
AcDbEntity
  8
0
  6
CONTINUOUS
 62
     7
100
AcDbLine
 10
61.701422
 20
40.869854
 30
0.0
 11
61.707341
 21
40.850574
 31
0.0
  0
LINE
  5
311
330
2E3
100
AcDbEntity
  8
0
  6
CONTINUOUS
 62
     7
100
AcDbLine
 10
61.707341
 20
40.850574
 30
0.0
 11
61.713014
 21
40.831243
 31
0.0
  0
LINE
  5
312
330
2E3
100
AcDbEntity
  8
0
  6
CONTINUOUS
 62
     7
100
AcDbLine
 10
61.713014
 20
40.831243
 30
0.0
 11
61.718436
 21
40.81186
 31
0.0
  0
LINE
  5
313
330
2E3
100
AcDbEntity
  8
0
  6
CONTINUOUS
 62
     7
100
AcDbLine
 10
61.718436
 20
40.81186
 30
0.0
 11
61.723601
 21
40.792425
 31
0.0
  0
LINE
  5
314
330
2E3
100
AcDbEntity
  8
0
  6
CONTINUOUS
 62
     7
100
AcDbLine
 10
61.723601
 20
40.792425
 30
0.0
 11
61.728505
 21
40.772936
 31
0.0
  0
LINE
  5
315
330
2E3
100
AcDbEntity
  8
0
  6
CONTINUOUS
 62
     7
100
AcDbLine
 10
61.728505
 20
40.772936
 30
0.0
 11
61.733141
 21
40.753391
 31
0.0
  0
LINE
  5
316
330
2E3
100
AcDbEntity
  8
0
  6
CONTINUOUS
 62
     7
100
AcDbLine
 10
61.733141
 20
40.753391
 30
0.0
 11
61.737504
 21
40.733791
 31
0.0
  0
LINE
  5
317
330
2E3
100
AcDbEntity
  8
0
  6
CONTINUOUS
 62
     7
100
AcDbLine
 10
61.737504
 20
40.733791
 30
0.0
 11
61.741589
 21
40.714134
 31
0.0
  0
LINE
  5
318
330
2E3
100
AcDbEntity
  8
0
  6
CONTINUOUS
 62
     7
100
AcDbLine
 10
61.741589
 20
40.714134
 30
0.0
 11
61.745391
 21
40.694419
 31
0.0
  0
LINE
  5
319
330
2E3
100
AcDbEntity
  8
0
  6
CONTINUOUS
 62
     7
100
AcDbLine
 10
61.745391
 20
40.694419
 30
0.0
 11
61.748904
 21
40.674644
 31
0.0
  0
LINE
  5
31A
330
2E3
100
AcDbEntity
  8
0
  6
CONTINUOUS
 62
     7
100
AcDbLine
 10
61.748904
 20
40.674644
 30
0.0
 11
61.752123
 21
40.654809
 31
0.0
  0
LINE
  5
31B
330
2E3
100
AcDbEntity
  8
0
  6
CONTINUOUS
 62
     7
100
AcDbLine
 10
61.752123
 20
40.654809
 30
0.0
 11
61.755043
 21
40.634912
 31
0.0
  0
LINE
  5
31C
330
2E3
100
AcDbEntity
  8
0
  6
CONTINUOUS
 62
     7
100
AcDbLine
 10
61.755043
 20
40.634912
 30
0.0
 11
61.757658
 21
40.614953
 31
0.0
  0
LINE
  5
31D
330
2E3
100
AcDbEntity
  8
0
  6
CONTINUOUS
 62
     7
100
AcDbLine
 10
61.757658
 20
40.614953
 30
0.0
 11
61.759962
 21
40.59493
 31
0.0
  0
LINE
  5
31E
330
2E3
100
AcDbEntity
  8
0
  6
CONTINUOUS
 62
     7
100
AcDbLine
 10
61.759962
 20
40.59493
 30
0.0
 11
61.760997
 21
40.584895
 31
0.0
  0
LINE
  5
31F
330
2E3
100
AcDbEntity
  8
0
  6
CONTINUOUS
 62
     7
100
AcDbLine
 10
61.760997
 20
40.584895
 30
0.0
 11
61.761952
 21
40.574843
 31
0.0
  0
LINE
  5
320
330
2E3
100
AcDbEntity
  8
0
  6
CONTINUOUS
 62
     7
100
AcDbLine
 10
61.761952
 20
40.574843
 30
0.0
 11
61.762826
 21
40.564774
 31
0.0
  0
LINE
  5
321
330
2E3
100
AcDbEntity
  8
0
  6
CONTINUOUS
 62
     7
100
AcDbLine
 10
61.762826
 20
40.564774
 30
0.0
 11
61.76362
 21
40.554689
 31
0.0
  0
LINE
  5
322
330
2E3
100
AcDbEntity
  8
0
  6
CONTINUOUS
 62
     7
100
AcDbLine
 10
61.76362
 20
40.554689
 30
0.0
 11
61.764332
 21
40.544587
 31
0.0
  0
LINE
  5
323
330
2E3
100
AcDbEntity
  8
0
  6
CONTINUOUS
 62
     7
100
AcDbLine
 10
61.764332
 20
40.544587
 30
0.0
 11
61.764963
 21
40.534468
 31
0.0
  0
LINE
  5
324
330
2E3
100
AcDbEntity
  8
0
  6
CONTINUOUS
 62
     7
100
AcDbLine
 10
61.764963
 20
40.534468
 30
0.0
 11
61.76551
 21
40.524333
 31
0.0
  0
LINE
  5
325
330
2E3
100
AcDbEntity
  8
0
  6
CONTINUOUS
 62
     7
100
AcDbLine
 10
61.76551
 20
40.524333
 30
0.0
 11
61.765973
 21
40.51418
 31
0.0
  0
LINE
  5
326
330
2E3
100
AcDbEntity
  8
0
  6
CONTINUOUS
 62
     7
100
AcDbLine
 10
61.765973
 20
40.51418
 30
0.0
 11
61.766353
 21
40.504009
 31
0.0
  0
LINE
  5
327
330
2E3
100
AcDbEntity
  8
0
  6
CONTINUOUS
 62
     7
100
AcDbLine
 10
61.766353
 20
40.504009
 30
0.0
 11
61.766648
 21
40.493822
 31
0.0
  0
LINE
  5
328
330
2E3
100
AcDbEntity
  8
0
  6
CONTINUOUS
 62
     7
100
AcDbLine
 10
61.766648
 20
40.493822
 30
0.0
 11
61.767009
 21
40.473425
 31
0.0
  0
LINE
  5
329
330
2E3
100
AcDbEntity
  8
0
  6
CONTINUOUS
 62
     7
100
AcDbLine
 10
61.767009
 20
40.473425
 30
0.0
 11
61.767199
 21
40.452993
 31
0.0
  0
ENDBLK
  5
2E5
330
2E3
100
AcDbEntity
  8
0
100
AcDbBlockEnd
  0
BLOCK
  5
32E
330
32D
100
AcDbEntity
  8
0
100
AcDbBlockBegin
  2
BLKF020
 70
     0
 71
     0
 10
0.0
 20
0.0
 30
0.0
  3
BLKF020
  1

  0
LINE
  5
331
330
32D
100
AcDbEntity
  8
0
  6
CONTINUOUS
 62
     7
100
AcDbLine
 10
61.267205
 20
48.149146
 30
0.0
 11
61.305941
 21
48.041607
 31
0.0
  0
LINE
  5
332
330
32D
100
AcDbEntity
  8
0
  6
CONTINUOUS
 62
     7
100
AcDbLine
 10
61.305941
 20
48.041607
 30
0.0
 11
61.344341
 21
47.933993
 31
0.0
  0
LINE
  5
333
330
32D
100
AcDbEntity
  8
0
  6
CONTINUOUS
 62
     7
100
AcDbLine
 10
61.344341
 20
47.933993
 30
0.0
 11
61.382069
 21
47.826225
 31
0.0
  0
LINE
  5
334
330
32D
100
AcDbEntity
  8
0
  6
CONTINUOUS
 62
     7
100
AcDbLine
 10
61.382069
 20
47.826225
 30
0.0
 11
61.418789
 21
47.718229
 31
0.0
  0
LINE
  5
335
330
32D
100
AcDbEntity
  8
0
  6
CONTINUOUS
 62
     7
100
AcDbLine
 10
61.418789
 20
47.718229
 30
0.0
 11
61.436667
 21
47.664121
 31
0.0
  0
LINE
  5
336
330
32D
100
AcDbEntity
  8
0
  6
CONTINUOUS
 62
     7
100
AcDbLine
 10
61.436667
 20
47.664121
 30
0.0
 11
61.454167
 21
47.609927
 31
0.0
  0
LINE
  5
337
330
32D
100
AcDbEntity
  8
0
  6
CONTINUOUS
 62
     7
100
AcDbLine
 10
61.454167
 20
47.609927
 30
0.0
 11
61.471247
 21
47.555637
 31
0.0
  0
LINE
  5
338
330
32D
100
AcDbEntity
  8
0
  6
CONTINUOUS
 62
     7
100
AcDbLine
 10
61.471247
 20
47.555637
 30
0.0
 11
61.487865
 21
47.501243
 31
0.0
  0
LINE
  5
339
330
32D
100
AcDbEntity
  8
0
  6
CONTINUOUS
 62
     7
100
AcDbLine
 10
61.487865
 20
47.501243
 30
0.0
 11
61.50398
 21
47.446734
 31
0.0
  0
LINE
  5
33A
330
32D
100
AcDbEntity
  8
0
  6
CONTINUOUS
 62
     7
100
AcDbLine
 10
61.50398
 20
47.446734
 30
0.0
 11
61.519549
 21
47.392101
 31
0.0
  0
LINE
  5
33B
330
32D
100
AcDbEntity
  8
0
  6
CONTINUOUS
 62
     7
100
AcDbLine
 10
61.519549
 20
47.392101
 30
0.0
 11
61.53453
 21
47.337335
 31
0.0
  0
LINE
  5
33C
330
32D
100
AcDbEntity
  8
0
  6
CONTINUOUS
 62
     7
100
AcDbLine
 10
61.53453
 20
47.337335
 30
0.0
 11
61.548882
 21
47.282425
 31
0.0
  0
LINE
  5
33D
330
32D
100
AcDbEntity
  8
0
  6
CONTINUOUS
 62
     7
100
AcDbLine
 10
61.548882
 20
47.282425
 30
0.0
 11
61.561288
 21
47.232655
 31
0.0
  0
LINE
  5
33E
330
32D
100
AcDbEntity
  8
0
  6
CONTINUOUS
 62
     7
100
AcDbLine
 10
61.561288
 20
47.232655
 30
0.0
 11
61.573162
 21
47.182763
 31
0.0
  0
LINE
  5
33F
330
32D
100
AcDbEntity
  8
0
  6
CONTINUOUS
 62
     7
100
AcDbLine
 10
61.573162
 20
47.182763
 30
0.0
 11
61.584521
 21
47.132755
 31
0.0
  0
LINE
  5
340
330
32D
100
AcDbEntity
  8
0
  6
CONTINUOUS
 62
     7
100
AcDbLine
 10
61.584521
 20
47.132755
 30
0.0
 11
61.595383
 21
47.082633
 31
0.0
  0
LINE
  5
341
330
32D
100
AcDbEntity
  8
0
  6
CONTINUOUS
 62
     7
100
AcDbLine
 10
61.595383
 20
47.082633
 30
0.0
 11
61.605765
 21
47.032402
 31
0.0
  0
LINE
  5
342
330
32D
100
AcDbEntity
  8
0
  6
CONTINUOUS
 62
     7
100
AcDbLine
 10
61.605765
 20
47.032402
 30
0.0
 11
61.615684
 21
46.982066
 31
0.0
  0
LINE
  5
343
330
32D
100
AcDbEntity
  8
0
  6
CONTINUOUS
 62
     7
100
AcDbLine
 10
61.615684
 20
46.982066
 30
0.0
 11
61.625156
 21
46.931629
 31
0.0
  0
LINE
  5
344
330
32D
100
AcDbEntity
  8
0
  6
CONTINUOUS
 62
     7
100
AcDbLine
 10
61.625156
 20
46.931629
 30
0.0
 11
61.6342
 21
46.881094
 31
0.0
  0
LINE
  5
345
330
32D
100
AcDbEntity
  8
0
  6
CONTINUOUS
 62
     7
100
AcDbLine
 10
61.6342
 20
46.881094
 30
0.0
 11
61.642832
 21
46.830465
 31
0.0
  0
LINE
  5
346
330
32D
100
AcDbEntity
  8
0
  6
CONTINUOUS
 62
     7
100
AcDbLine
 10
61.642832
 20
46.830465
 30
0.0
 11
61.65107
 21
46.779747
 31
0.0
  0
LINE
  5
347
330
32D
100
AcDbEntity
  8
0
  6
CONTINUOUS
 62
     7
100
AcDbLine
 10
61.65107
 20
46.779747
 30
0.0
 11
61.65893
 21
46.728943
 31
0.0
  0
LINE
  5
348
330
32D
100
AcDbEntity
  8
0
  6
CONTINUOUS
 62
     7
100
AcDbLine
 10
61.65893
 20
46.728943
 30
0.0
 11
61.66643
 21
46.678057
 31
0.0
  0
LINE
  5
349
330
32D
100
AcDbEntity
  8
0
  6
CONTINUOUS
 62
     7
100
AcDbLine
 10
61.66643
 20
46.678057
 30
0.0
 11
61.680418
 21
46.576055
 31
0.0
  0
LINE
  5
34A
330
32D
100
AcDbEntity
  8
0
  6
CONTINUOUS
 62
     7
100
AcDbLine
 10
61.680418
 20
46.576055
 30
0.0
 11
61.693171
 21
46.473772
 31
0.0
  0
LINE
  5
34B
330
32D
100
AcDbEntity
  8
0
  6
CONTINUOUS
 62
     7
100
AcDbLine
 10
61.693171
 20
46.473772
 30
0.0
 11
61.704826
 21
46.37124
 31
0.0
  0
LINE
  5
34C
330
32D
100
AcDbEntity
  8
0
  6
CONTINUOUS
 62
     7
100
AcDbLine
 10
61.704826
 20
46.37124
 30
0.0
 11
61.71552
 21
46.268489
 31
0.0
  0
LINE
  5
34D
330
32D
100
AcDbEntity
  8
0
  6
CONTINUOUS
 62
     7
100
AcDbLine
 10
61.71552
 20
46.268489
 30
0.0
 11
61.725391
 21
46.165551
 31
0.0
  0
LINE
  5
34E
330
32D
100
AcDbEntity
  8
0
  6
CONTINUOUS
 62
     7
100
AcDbLine
 10
61.725391
 20
46.165551
 30
0.0
 11
61.734576
 21
46.062457
 31
0.0
  0
LINE
  5
34F
330
32D
100
AcDbEntity
  8
0
  6
CONTINUOUS
 62
     7
100
AcDbLine
 10
61.734576
 20
46.062457
 30
0.0
 11
61.743212
 21
45.959238
 31
0.0
  0
LINE
  5
350
330
32D
100
AcDbEntity
  8
0
  6
CONTINUOUS
 62
     7
100
AcDbLine
 10
61.743212
 20
45.959238
 30
0.0
 11
61.751436
 21
45.855926
 31
0.0
  0
LINE
  5
351
330
32D
100
AcDbEntity
  8
0
  6
CONTINUOUS
 62
     7
100
AcDbLine
 10
61.751436
 20
45.855926
 30
0.0
 11
61.767199
 21
45.649145
 31
0.0
  0
ENDBLK
  5
32F
330
32D
100
AcDbEntity
  8
0
100
AcDbBlockEnd
  0
BLOCK
  5
359
330
358
100
AcDbEntity
  8
0
100
AcDbBlockBegin
  2
BLKF021
 70
     0
 71
     0
 10
0.0
 20
0.0
 30
0.0
  3
BLKF021
  1

  0
LINE
  5
35C
330
358
100
AcDbEntity
  8
0
  6
CONTINUOUS
 62
     7
100
AcDbLine
 10
61.267205
 20
52.095298
 30
0.0
 11
61.290106
 21
52.05901
 31
0.0
  0
LINE
  5
35D
330
358
100
AcDbEntity
  8
0
  6
CONTINUOUS
 62
     7
100
AcDbLine
 10
61.290106
 20
52.05901
 30
0.0
 11
61.312963
 21
52.022712
 31
0.0
  0
LINE
  5
35E
330
358
100
AcDbEntity
  8
0
  6
CONTINUOUS
 62
     7
100
AcDbLine
 10
61.312963
 20
52.022712
 30
0.0
 11
61.335735
 21
51.986398
 31
0.0
  0
LINE
  5
35F
330
358
100
AcDbEntity
  8
0
  6
CONTINUOUS
 62
     7
100
AcDbLine
 10
61.335735
 20
51.986398
 30
0.0
 11
61.358379
 21
51.950056
 31
0.0
  0
LINE
  5
360
330
358
100
AcDbEntity
  8
0
  6
CONTINUOUS
 62
     7
100
AcDbLine
 10
61.358379
 20
51.950056
 30
0.0
 11
61.369639
 21
51.931873
 31
0.0
  0
LINE
  5
361
330
358
100
AcDbEntity
  8
0
  6
CONTINUOUS
 62
     7
100
AcDbLine
 10
61.369639
 20
51.931873
 30
0.0
 11
61.380852
 21
51.91368
 31
0.0
  0
LINE
  5
362
330
358
100
AcDbEntity
  8
0
  6
CONTINUOUS
 62
     7
100
AcDbLine
 10
61.380852
 20
51.91368
 30
0.0
 11
61.392011
 21
51.895476
 31
0.0
  0
LINE
  5
363
330
358
100
AcDbEntity
  8
0
  6
CONTINUOUS
 62
     7
100
AcDbLine
 10
61.392011
 20
51.895476
 30
0.0
 11
61.40311
 21
51.87726
 31
0.0
  0
LINE
  5
364
330
358
100
AcDbEntity
  8
0
  6
CONTINUOUS
 62
     7
100
AcDbLine
 10
61.40311
 20
51.87726
 30
0.0
 11
61.414146
 21
51.85903
 31
0.0
  0
LINE
  5
365
330
358
100
AcDbEntity
  8
0
  6
CONTINUOUS
 62
     7
100
AcDbLine
 10
61.414146
 20
51.85903
 30
0.0
 11
61.425113
 21
51.840787
 31
0.0
  0
LINE
  5
366
330
358
100
AcDbEntity
  8
0
  6
CONTINUOUS
 62
     7
100
AcDbLine
 10
61.425113
 20
51.840787
 30
0.0
 11
61.436004
 21
51.822528
 31
0.0
  0
LINE
  5
367
330
358
100
AcDbEntity
  8
0
  6
CONTINUOUS
 62
     7
100
AcDbLine
 10
61.436004
 20
51.822528
 30
0.0
 11
61.446815
 21
51.804252
 31
0.0
  0
LINE
  5
368
330
358
100
AcDbEntity
  8
0
  6
CONTINUOUS
 62
     7
100
AcDbLine
 10
61.446815
 20
51.804252
 30
0.0
 11
61.457541
 21
51.785959
 31
0.0
  0
LINE
  5
369
330
358
100
AcDbEntity
  8
0
  6
CONTINUOUS
 62
     7
100
AcDbLine
 10
61.457541
 20
51.785959
 30
0.0
 11
61.468176
 21
51.767647
 31
0.0
  0
LINE
  5
36A
330
358
100
AcDbEntity
  8
0
  6
CONTINUOUS
 62
     7
100
AcDbLine
 10
61.468176
 20
51.767647
 30
0.0
 11
61.478714
 21
51.749316
 31
0.0
  0
LINE
  5
36B
330
358
100
AcDbEntity
  8
0
  6
CONTINUOUS
 62
     7
100
AcDbLine
 10
61.478714
 20
51.749316
 30
0.0
 11
61.489151
 21
51.730964
 31
0.0
  0
LINE
  5
36C
330
358
100
AcDbEntity
  8
0
  6
CONTINUOUS
 62
     7
100
AcDbLine
 10
61.489151
 20
51.730964
 30
0.0
 11
61.499482
 21
51.712589
 31
0.0
  0
LINE
  5
36D
330
358
100
AcDbEntity
  8
0
  6
CONTINUOUS
 62
     7
100
AcDbLine
 10
61.499482
 20
51.712589
 30
0.0
 11
61.509699
 21
51.694192
 31
0.0
  0
LINE
  5
36E
330
358
100
AcDbEntity
  8
0
  6
CONTINUOUS
 62
     7
100
AcDbLine
 10
61.509699
 20
51.694192
 30
0.0
 11
61.519799
 21
51.67577
 31
0.0
  0
LINE
  5
36F
330
358
100
AcDbEntity
  8
0
  6
CONTINUOUS
 62
     7
100
AcDbLine
 10
61.519799
 20
51.67577
 30
0.0
 11
61.529777
 21
51.657323
 31
0.0
  0
LINE
  5
370
330
358
100
AcDbEntity
  8
0
  6
CONTINUOUS
 62
     7
100
AcDbLine
 10
61.529777
 20
51.657323
 30
0.0
 11
61.539626
 21
51.63885
 31
0.0
  0
LINE
  5
371
330
358
100
AcDbEntity
  8
0
  6
CONTINUOUS
 62
     7
100
AcDbLine
 10
61.539626
 20
51.63885
 30
0.0
 11
61.549341
 21
51.62035
 31
0.0
  0
LINE
  5
372
330
358
100
AcDbEntity
  8
0
  6
CONTINUOUS
 62
     7
100
AcDbLine
 10
61.549341
 20
51.62035
 30
0.0
 11
61.558917
 21
51.60182
 31
0.0
  0
LINE
  5
373
330
358
100
AcDbEntity
  8
0
  6
CONTINUOUS
 62
     7
100
AcDbLine
 10
61.558917
 20
51.60182
 30
0.0
 11
61.568349
 21
51.583262
 31
0.0
  0
LINE
  5
374
330
358
100
AcDbEntity
  8
0
  6
CONTINUOUS
 62
     7
100
AcDbLine
 10
61.568349
 20
51.583262
 30
0.0
 11
61.577631
 21
51.564672
 31
0.0
  0
LINE
  5
375
330
358
100
AcDbEntity
  8
0
  6
CONTINUOUS
 62
     7
100
AcDbLine
 10
61.577631
 20
51.564672
 30
0.0
 11
61.586758
 21
51.54605
 31
0.0
  0
LINE
  5
376
330
358
100
AcDbEntity
  8
0
  6
CONTINUOUS
 62
     7
100
AcDbLine
 10
61.586758
 20
51.54605
 30
0.0
 11
61.595725
 21
51.527396
 31
0.0
  0
LINE
  5
377
330
358
100
AcDbEntity
  8
0
  6
CONTINUOUS
 62
     7
100
AcDbLine
 10
61.595725
 20
51.527396
 30
0.0
 11
61.604526
 21
51.508708
 31
0.0
  0
LINE
  5
378
330
358
100
AcDbEntity
  8
0
  6
CONTINUOUS
 62
     7
100
AcDbLine
 10
61.604526
 20
51.508708
 30
0.0
 11
61.613155
 21
51.489984
 31
0.0
  0
LINE
  5
379
330
358
100
AcDbEntity
  8
0
  6
CONTINUOUS
 62
     7
100
AcDbLine
 10
61.613155
 20
51.489984
 30
0.0
 11
61.621609
 21
51.471224
 31
0.0
  0
LINE
  5
37A
330
358
100
AcDbEntity
  8
0
  6
CONTINUOUS
 62
     7
100
AcDbLine
 10
61.621609
 20
51.471224
 30
0.0
 11
61.62988
 21
51.452427
 31
0.0
  0
LINE
  5
37B
330
358
100
AcDbEntity
  8
0
  6
CONTINUOUS
 62
     7
100
AcDbLine
 10
61.62988
 20
51.452427
 30
0.0
 11
61.637965
 21
51.433591
 31
0.0
  0
LINE
  5
37C
330
358
100
AcDbEntity
  8
0
  6
CONTINUOUS
 62
     7
100
AcDbLine
 10
61.637965
 20
51.433591
 30
0.0
 11
61.645857
 21
51.414716
 31
0.0
  0
LINE
  5
37D
330
358
100
AcDbEntity
  8
0
  6
CONTINUOUS
 62
     7
100
AcDbLine
 10
61.645857
 20
51.414716
 30
0.0
 11
61.653551
 21
51.3958
 31
0.0
  0
LINE
  5
37E
330
358
100
AcDbEntity
  8
0
  6
CONTINUOUS
 62
     7
100
AcDbLine
 10
61.653551
 20
51.3958
 30
0.0
 11
61.661042
 21
51.376843
 31
0.0
  0
LINE
  5
37F
330
358
100
AcDbEntity
  8
0
  6
CONTINUOUS
 62
     7
100
AcDbLine
 10
61.661042
 20
51.376843
 30
0.0
 11
61.668325
 21
51.357842
 31
0.0
  0
LINE
  5
380
330
358
100
AcDbEntity
  8
0
  6
CONTINUOUS
 62
     7
100
AcDbLine
 10
61.668325
 20
51.357842
 30
0.0
 11
61.675393
 21
51.338798
 31
0.0
  0
LINE
  5
381
330
358
100
AcDbEntity
  8
0
  6
CONTINUOUS
 62
     7
100
AcDbLine
 10
61.675393
 20
51.338798
 30
0.0
 11
61.682243
 21
51.319709
 31
0.0
  0
LINE
  5
382
330
358
100
AcDbEntity
  8
0
  6
CONTINUOUS
 62
     7
100
AcDbLine
 10
61.682243
 20
51.319709
 30
0.0
 11
61.688868
 21
51.300573
 31
0.0
  0
LINE
  5
383
330
358
100
AcDbEntity
  8
0
  6
CONTINUOUS
 62
     7
100
AcDbLine
 10
61.688868
 20
51.300573
 30
0.0
 11
61.695262
 21
51.281391
 31
0.0
  0
LINE
  5
384
330
358
100
AcDbEntity
  8
0
  6
CONTINUOUS
 62
     7
100
AcDbLine
 10
61.695262
 20
51.281391
 30
0.0
 11
61.701422
 21
51.26216
 31
0.0
  0
LINE
  5
385
330
358
100
AcDbEntity
  8
0
  6
CONTINUOUS
 62
     7
100
AcDbLine
 10
61.701422
 20
51.26216
 30
0.0
 11
61.707341
 21
51.242879
 31
0.0
  0
LINE
  5
386
330
358
100
AcDbEntity
  8
0
  6
CONTINUOUS
 62
     7
100
AcDbLine
 10
61.707341
 20
51.242879
 30
0.0
 11
61.713014
 21
51.223548
 31
0.0
  0
LINE
  5
387
330
358
100
AcDbEntity
  8
0
  6
CONTINUOUS
 62
     7
100
AcDbLine
 10
61.713014
 20
51.223548
 30
0.0
 11
61.718436
 21
51.204166
 31
0.0
  0
LINE
  5
388
330
358
100
AcDbEntity
  8
0
  6
CONTINUOUS
 62
     7
100
AcDbLine
 10
61.718436
 20
51.204166
 30
0.0
 11
61.723601
 21
51.18473
 31
0.0
  0
LINE
  5
389
330
358
100
AcDbEntity
  8
0
  6
CONTINUOUS
 62
     7
100
AcDbLine
 10
61.723601
 20
51.18473
 30
0.0
 11
61.728505
 21
51.165241
 31
0.0
  0
LINE
  5
38A
330
358
100
AcDbEntity
  8
0
  6
CONTINUOUS
 62
     7
100
AcDbLine
 10
61.728505
 20
51.165241
 30
0.0
 11
61.733141
 21
51.145697
 31
0.0
  0
LINE
  5
38B
330
358
100
AcDbEntity
  8
0
  6
CONTINUOUS
 62
     7
100
AcDbLine
 10
61.733141
 20
51.145697
 30
0.0
 11
61.737504
 21
51.126097
 31
0.0
  0
LINE
  5
38C
330
358
100
AcDbEntity
  8
0
  6
CONTINUOUS
 62
     7
100
AcDbLine
 10
61.737504
 20
51.126097
 30
0.0
 11
61.741589
 21
51.10644
 31
0.0
  0
LINE
  5
38D
330
358
100
AcDbEntity
  8
0
  6
CONTINUOUS
 62
     7
100
AcDbLine
 10
61.741589
 20
51.10644
 30
0.0
 11
61.745391
 21
51.086725
 31
0.0
  0
LINE
  5
38E
330
358
100
AcDbEntity
  8
0
  6
CONTINUOUS
 62
     7
100
AcDbLine
 10
61.745391
 20
51.086725
 30
0.0
 11
61.748904
 21
51.06695
 31
0.0
  0
LINE
  5
38F
330
358
100
AcDbEntity
  8
0
  6
CONTINUOUS
 62
     7
100
AcDbLine
 10
61.748904
 20
51.06695
 30
0.0
 11
61.752123
 21
51.047115
 31
0.0
  0
LINE
  5
390
330
358
100
AcDbEntity
  8
0
  6
CONTINUOUS
 62
     7
100
AcDbLine
 10
61.752123
 20
51.047115
 30
0.0
 11
61.755043
 21
51.027218
 31
0.0
  0
LINE
  5
391
330
358
100
AcDbEntity
  8
0
  6
CONTINUOUS
 62
     7
100
AcDbLine
 10
61.755043
 20
51.027218
 30
0.0
 11
61.757658
 21
51.007259
 31
0.0
  0
LINE
  5
392
330
358
100
AcDbEntity
  8
0
  6
CONTINUOUS
 62
     7
100
AcDbLine
 10
61.757658
 20
51.007259
 30
0.0
 11
61.759962
 21
50.987236
 31
0.0
  0
LINE
  5
393
330
358
100
AcDbEntity
  8
0
  6
CONTINUOUS
 62
     7
100
AcDbLine
 10
61.759962
 20
50.987236
 30
0.0
 11
61.760997
 21
50.9772
 31
0.0
  0
LINE
  5
394
330
358
100
AcDbEntity
  8
0
  6
CONTINUOUS
 62
     7
100
AcDbLine
 10
61.760997
 20
50.9772
 30
0.0
 11
61.761952
 21
50.967148
 31
0.0
  0
LINE
  5
395
330
358
100
AcDbEntity
  8
0
  6
CONTINUOUS
 62
     7
100
AcDbLine
 10
61.761952
 20
50.967148
 30
0.0
 11
61.762826
 21
50.95708
 31
0.0
  0
LINE
  5
396
330
358
100
AcDbEntity
  8
0
  6
CONTINUOUS
 62
     7
100
AcDbLine
 10
61.762826
 20
50.95708
 30
0.0
 11
61.76362
 21
50.946995
 31
0.0
  0
LINE
  5
397
330
358
100
AcDbEntity
  8
0
  6
CONTINUOUS
 62
     7
100
AcDbLine
 10
61.76362
 20
50.946995
 30
0.0
 11
61.764332
 21
50.936893
 31
0.0
  0
LINE
  5
398
330
358
100
AcDbEntity
  8
0
  6
CONTINUOUS
 62
     7
100
AcDbLine
 10
61.764332
 20
50.936893
 30
0.0
 11
61.764963
 21
50.926774
 31
0.0
  0
LINE
  5
399
330
358
100
AcDbEntity
  8
0
  6
CONTINUOUS
 62
     7
100
AcDbLine
 10
61.764963
 20
50.926774
 30
0.0
 11
61.76551
 21
50.916639
 31
0.0
  0
LINE
  5
39A
330
358
100
AcDbEntity
  8
0
  6
CONTINUOUS
 62
     7
100
AcDbLine
 10
61.76551
 20
50.916639
 30
0.0
 11
61.765973
 21
50.906486
 31
0.0
  0
LINE
  5
39B
330
358
100
AcDbEntity
  8
0
  6
CONTINUOUS
 62
     7
100
AcDbLine
 10
61.765973
 20
50.906486
 30
0.0
 11
61.766353
 21
50.896315
 31
0.0
  0
LINE
  5
39C
330
358
100
AcDbEntity
  8
0
  6
CONTINUOUS
 62
     7
100
AcDbLine
 10
61.766353
 20
50.896315
 30
0.0
 11
61.766648
 21
50.886128
 31
0.0
  0
LINE
  5
39D
330
358
100
AcDbEntity
  8
0
  6
CONTINUOUS
 62
     7
100
AcDbLine
 10
61.766648
 20
50.886128
 30
0.0
 11
61.767009
 21
50.865731
 31
0.0
  0
LINE
  5
39E
330
358
100
AcDbEntity
  8
0
  6
CONTINUOUS
 62
     7
100
AcDbLine
 10
61.767009
 20
50.865731
 30
0.0
 11
61.767199
 21
50.845299
 31
0.0
  0
ENDBLK
  5
35A
330
358
100
AcDbEntity
  8
0
100
AcDbBlockEnd
  0
BLOCK
  5
3B0
330
3AF
100
AcDbEntity
  8
0
100
AcDbBlockBegin
  2
BLKF022
 70
     0
 71
     0
 10
0.0
 20
0.0
 30
0.0
  3
BLKF022
  1

  0
LINE
  5
3B3
330
3AF
100
AcDbEntity
  8
CSLAYER2
  6
CONTINUOUS
 62
     3
100
AcDbLine
 10
23.331305
 20
68.349146
 30
0.0
 11
23.867203
 21
70.349146
 31
0.0
  0
LINE
  5
3B4
330
3AF
100
AcDbEntity
  8
CSLAYER2
  6
CONTINUOUS
 62
     3
100
AcDbLine
 10
23.867203
 20
70.349146
 30
0.0
 11
24.403101
 21
68.349146
 31
0.0
  0
LINE
  5
3B5
330
3AF
100
AcDbEntity
  8
CSLAYER2
  6
CONTINUOUS
 62
     3
100
AcDbLine
 10
23.867203
 20
70.349146
 30
0.0
 11
23.867203
 21
68.349146
 31
0.0
  0
LINE
  5
3B6
330
3AF
100
AcDbEntity
  8
CSLAYER2
  6
CONTINUOUS
 62
     3
100
AcDbLine
 10
24.403101
 20
40.149146
 30
0.0
 11
23.867203
 21
38.149146
 31
0.0
  0
LINE
  5
3B7
330
3AF
100
AcDbEntity
  8
CSLAYER2
  6
CONTINUOUS
 62
     3
100
AcDbLine
 10
23.867203
 20
38.149146
 30
0.0
 11
23.331305
 21
40.149146
 31
0.0
  0
LINE
  5
3B8
330
3AF
100
AcDbEntity
  8
CSLAYER2
  6
CONTINUOUS
 62
     3
100
AcDbLine
 10
23.867203
 20
38.149146
 30
0.0
 11
23.867203
 21
40.149146
 31
0.0
  0
LINE
  5
3B9
330
3AF
100
AcDbEntity
  8
CSLAYER2
  6
CONTINUOUS
 62
     3
100
AcDbLine
 10
31.107203
 20
70.349146
 30
0.0
 11
23.067203
 21
70.349146
 31
0.0
  0
LINE
  5
3BA
330
3AF
100
AcDbEntity
  8
CSLAYER2
  6
CONTINUOUS
 62
     3
100
AcDbLine
 10
31.807203
 20
38.149146
 30
0.0
 11
23.067203
 21
38.149146
 31
0.0
  0
LINE
  5
3BB
330
3AF
100
AcDbEntity
  8
CSLAYER2
  6
CONTINUOUS
 62
     3
100
AcDbLine
 10
23.867203
 20
70.349146
 30
0.0
 11
23.867203
 21
38.149146
 31
0.0
  0
TEXT
  5
3BC
330
3AF
100
AcDbEntity
  8
CSLAYER2
 62
     3
100
AcDbText
 10
23.0
 20
47.94854
 30
0.0
 40
3.0
  1
(32.2)
 50
90.0
 41
0.938298
  7
ED_VECTOR
 72
     5
 11
23.0
 21
60.548539
 31
0.0
100
AcDbText
  0
ENDBLK
  5
3B1
330
3AF
100
AcDbEntity
  8
0
100
AcDbBlockEnd
  0
BLOCK
  5
3BE
330
3BD
100
AcDbEntity
  8
0
100
AcDbBlockBegin
  2
BLKF023
 70
     0
 71
     0
 10
0.0
 20
0.0
 30
0.0
  3
BLKF023
  1

  0
LINE
  5
3C1
330
3BD
100
AcDbEntity
  8
CSLAYER2
  6
CONTINUOUS
 62
     3
100
AcDbLine
 10
246.855037
 20
21.335898
 30
0.0
 11
248.855037
 21
20.8
 31
0.0
  0
LINE
  5
3C2
330
3BD
100
AcDbEntity
  8
CSLAYER2
  6
CONTINUOUS
 62
     3
100
AcDbLine
 10
248.855037
 20
20.8
 30
0.0
 11
246.855037
 21
20.264102
 31
0.0
  0
LINE
  5
3C3
330
3BD
100
AcDbEntity
  8
CSLAYER2
  6
CONTINUOUS
 62
     3
100
AcDbLine
 10
248.855037
 20
20.8
 30
0.0
 11
246.855037
 21
20.8
 31
0.0
  0
LINE
  5
3C4
330
3BD
100
AcDbEntity
  8
CSLAYER2
  6
CONTINUOUS
 62
     3
100
AcDbLine
 10
32.867203
 20
20.264102
 30
0.0
 11
30.867203
 21
20.8
 31
0.0
  0
LINE
  5
3C5
330
3BD
100
AcDbEntity
  8
CSLAYER2
  6
CONTINUOUS
 62
     3
100
AcDbLine
 10
30.867203
 20
20.8
 30
0.0
 11
32.867203
 21
21.335898
 31
0.0
  0
LINE
  5
3C6
330
3BD
100
AcDbEntity
  8
CSLAYER2
  6
CONTINUOUS
 62
     3
100
AcDbLine
 10
30.867203
 20
20.8
 30
0.0
 11
32.867203
 21
20.8
 31
0.0
  0
LINE
  5
3C7
330
3BD
100
AcDbEntity
  8
CSLAYER2
  6
CONTINUOUS
 62
     3
100
AcDbLine
 10
248.855037
 20
38.789146
 30
0.0
 11
248.855037
 21
20.0
 31
0.0
  0
LINE
  5
3C8
330
3BD
100
AcDbEntity
  8
CSLAYER2
  6
CONTINUOUS
 62
     3
100
AcDbLine
 10
30.867203
 20
38.439146
 30
0.0
 11
30.867203
 21
20.0
 31
0.0
  0
LINE
  5
3C9
330
3BD
100
AcDbEntity
  8
CSLAYER2
  6
CONTINUOUS
 62
     3
100
AcDbLine
 10
248.855037
 20
20.8
 30
0.0
 11
30.867203
 21
20.8
 31
0.0
  0
TEXT
  5
3CA
330
3BD
100
AcDbEntity
  8
CSLAYER2
 62
     3
100
AcDbText
 10
124.498802
 20
21.667204
 30
0.0
 40
3.0
  1
4m、6m、8m
 41
0.646154
  7
ED_VECTOR
 72
     5
 11
141.298801
 21
21.667204
 31
0.0
100
AcDbText
  0
ENDBLK
  5
3BF
330
3BD
100
AcDbEntity
  8
0
100
AcDbBlockEnd
  0
BLOCK
  5
3CC
330
3CB
100
AcDbEntity
  8
0
100
AcDbBlockBegin
  2
BLKF024
 70
     0
 71
     0
 10
0.0
 20
0.0
 30
0.0
  3
BLKF024
  1

  0
LINE
  5
3CF
330
3CB
100
AcDbEntity
  8
CSLAYER2
  6
CONTINUOUS
 62
     3
100
AcDbLine
 10
32.867203
 20
29.063248
 30
0.0
 11
30.867203
 21
29.599146
 31
0.0
  0
LINE
  5
3D0
330
3CB
100
AcDbEntity
  8
CSLAYER2
  6
CONTINUOUS
 62
     3
100
AcDbLine
 10
30.867203
 20
29.599146
 30
0.0
 11
32.867203
 21
30.135044
 31
0.0
  0
LINE
  5
3D1
330
3CB
100
AcDbEntity
  8
CSLAYER2
  6
CONTINUOUS
 62
     3
100
AcDbLine
 10
30.867203
 20
29.599146
 30
0.0
 11
32.867203
 21
29.599146
 31
0.0
  0
LINE
  5
3D2
330
3CB
100
AcDbEntity
  8
CSLAYER2
  6
CONTINUOUS
 62
     3
100
AcDbLine
 10
63.767203
 20
30.135044
 30
0.0
 11
65.767203
 21
29.599146
 31
0.0
  0
LINE
  5
3D3
330
3CB
100
AcDbEntity
  8
CSLAYER2
  6
CONTINUOUS
 62
     3
100
AcDbLine
 10
65.767203
 20
29.599146
 30
0.0
 11
63.767203
 21
29.063248
 31
0.0
  0
LINE
  5
3D4
330
3CB
100
AcDbEntity
  8
CSLAYER2
  6
CONTINUOUS
 62
     3
100
AcDbLine
 10
65.767203
 20
29.599146
 30
0.0
 11
63.767203
 21
29.599146
 31
0.0
  0
LINE
  5
3D5
330
3CB
100
AcDbEntity
  8
CSLAYER2
  6
CONTINUOUS
 62
     3
100
AcDbLine
 10
30.867203
 20
38.439146
 30
0.0
 11
30.867203
 21
28.799146
 31
0.0
  0
LINE
  5
3D6
330
3CB
100
AcDbEntity
  8
CSLAYER2
  6
CONTINUOUS
 62
     3
100
AcDbLine
 10
65.767203
 20
39.639146
 30
0.0
 11
65.767203
 21
28.799146
 31
0.0
  0
LINE
  5
3D7
330
3CB
100
AcDbEntity
  8
CSLAYER2
  6
CONTINUOUS
 62
     3
100
AcDbLine
 10
30.867203
 20
29.599146
 30
0.0
 11
65.767203
 21
29.599146
 31
0.0
  0
TEXT
  5
3D8
330
3CB
100
AcDbEntity
  8
CSLAYER2
 62
     3
100
AcDbText
 10
42.656521
 20
30.466349
 30
0.0
 40
3.0
  1
(34.9)
 41
0.938298
  7
ED_VECTOR
 72
     5
 11
55.25652
 21
30.466349
 31
0.0
100
AcDbText
  0
ENDBLK
  5
3CD
330
3CB
100
AcDbEntity
  8
0
100
AcDbBlockEnd
  0
BLOCK
  5
3DE
330
3DD
100
AcDbEntity
  8
0
100
AcDbBlockBegin
  2
BLKF025
 70
     0
 71
     0
 10
0.0
 20
0.0
 30
0.0
  3
BLKF025
  1

  0
LINE
  5
3E1
330
3DD
100
AcDbEntity
  8
0
  6
CONTINUOUS
 62
     7
100
AcDbLine
 10
227.155033
 20
112.484454
 30
0.0
 11
231.35503
 21
112.484454
 31
0.0
  0
LINE
  5
3E2
330
3DD
100
AcDbEntity
  8
0
  6
CONTINUOUS
 62
     7
100
AcDbLine
 10
227.155033
 20
112.484454
 30
0.0
 11
227.155033
 21
94.384454
 31
0.0
  0
LINE
  5
3E3
330
3DD
100
AcDbEntity
  8
0
  6
CONTINUOUS
 62
     7
100
AcDbLine
 10
227.155033
 20
94.384454
 30
0.0
 11
231.35503
 21
94.384454
 31
0.0
  0
LINE
  5
3E4
330
3DD
100
AcDbEntity
  8
0
  6
CONTINUOUS
 62
     7
100
AcDbLine
 10
231.35503
 20
112.484454
 30
0.0
 11
231.35503
 21
94.384454
 31
0.0
  0
LINE
  5
3E5
330
3DD
100
AcDbEntity
  8
0
  6
CONTINUOUS
 62
     7
100
AcDbLine
 10
233.855042
 20
112.484454
 30
0.0
 11
238.855037
 21
112.484454
 31
0.0
  0
LINE
  5
3E6
330
3DD
100
AcDbEntity
  8
0
  6
CONTINUOUS
 62
     7
100
AcDbLine
 10
233.855042
 20
112.484454
 30
0.0
 11
233.855042
 21
94.384454
 31
0.0
  0
LINE
  5
3E7
330
3DD
100
AcDbEntity
  8
0
  6
CONTINUOUS
 62
     7
100
AcDbLine
 10
233.855042
 20
94.384454
 30
0.0
 11
238.855037
 21
94.384454
 31
0.0
  0
LINE
  5
3E8
330
3DD
100
AcDbEntity
  8
0
  6
CONTINUOUS
 62
     7
100
AcDbLine
 10
238.855037
 20
112.484454
 30
0.0
 11
238.855037
 21
94.384454
 31
0.0
  0
LINE
  5
3E9
330
3DD
100
AcDbEntity
  8
0
  6
CONTINUOUS
 62
     7
100
AcDbLine
 10
227.155033
 20
111.847633
 30
0.0
 11
227.791864
 21
112.484454
 31
0.0
  0
LINE
  5
3EA
330
3DD
100
AcDbEntity
  8
0
  6
CONTINUOUS
 62
     7
100
AcDbLine
 10
227.155033
 20
110.7251
 30
0.0
 11
228.914398
 21
112.484454
 31
0.0
  0
LINE
  5
3EB
330
3DD
100
AcDbEntity
  8
0
  6
CONTINUOUS
 62
     7
100
AcDbLine
 10
227.155033
 20
109.602568
 30
0.0
 11
230.036918
 21
112.484454
 31
0.0
  0
LINE
  5
3EC
330
3DD
100
AcDbEntity
  8
0
  6
CONTINUOUS
 62
     7
100
AcDbLine
 10
227.155033
 20
108.480037
 30
0.0
 11
231.159452
 21
112.484454
 31
0.0
  0
LINE
  5
3ED
330
3DD
100
AcDbEntity
  8
0
  6
CONTINUOUS
 62
     7
100
AcDbLine
 10
227.155033
 20
107.357505
 30
0.0
 11
231.35503
 21
111.557504
 31
0.0
  0
LINE
  5
3EE
330
3DD
100
AcDbEntity
  8
0
  6
CONTINUOUS
 62
     7
100
AcDbLine
 10
227.155033
 20
106.234973
 30
0.0
 11
231.35503
 21
110.434972
 31
0.0
  0
LINE
  5
3EF
330
3DD
100
AcDbEntity
  8
0
  6
CONTINUOUS
 62
     7
100
AcDbLine
 10
227.155033
 20
105.112441
 30
0.0
 11
231.35503
 21
109.312441
 31
0.0
  0
LINE
  5
3F0
330
3DD
100
AcDbEntity
  8
0
  6
CONTINUOUS
 62
     7
100
AcDbLine
 10
227.155033
 20
103.989909
 30
0.0
 11
231.35503
 21
108.189909
 31
0.0
  0
LINE
  5
3F1
330
3DD
100
AcDbEntity
  8
0
  6
CONTINUOUS
 62
     7
100
AcDbLine
 10
227.155033
 20
102.867376
 30
0.0
 11
231.35503
 21
107.067376
 31
0.0
  0
LINE
  5
3F2
330
3DD
100
AcDbEntity
  8
0
  6
CONTINUOUS
 62
     7
100
AcDbLine
 10
227.155033
 20
101.744844
 30
0.0
 11
231.35503
 21
105.944844
 31
0.0
  0
LINE
  5
3F3
330
3DD
100
AcDbEntity
  8
0
  6
CONTINUOUS
 62
     7
100
AcDbLine
 10
227.155033
 20
100.622312
 30
0.0
 11
231.35503
 21
104.822312
 31
0.0
  0
LINE
  5
3F4
330
3DD
100
AcDbEntity
  8
0
  6
CONTINUOUS
 62
     7
100
AcDbLine
 10
227.155033
 20
99.49978
 30
0.0
 11
231.35503
 21
103.69978
 31
0.0
  0
LINE
  5
3F5
330
3DD
100
AcDbEntity
  8
0
  6
CONTINUOUS
 62
     7
100
AcDbLine
 10
227.155033
 20
98.377249
 30
0.0
 11
231.35503
 21
102.577248
 31
0.0
  0
LINE
  5
3F6
330
3DD
100
AcDbEntity
  8
0
  6
CONTINUOUS
 62
     7
100
AcDbLine
 10
227.155033
 20
97.254717
 30
0.0
 11
231.35503
 21
101.454716
 31
0.0
  0
LINE
  5
3F7
330
3DD
100
AcDbEntity
  8
0
  6
CONTINUOUS
 62
     7
100
AcDbLine
 10
227.155033
 20
96.132185
 30
0.0
 11
231.35503
 21
100.332184
 31
0.0
  0
LINE
  5
3F8
330
3DD
100
AcDbEntity
  8
0
  6
CONTINUOUS
 62
     7
100
AcDbLine
 10
227.155033
 20
95.009652
 30
0.0
 11
231.35503
 21
99.209653
 31
0.0
  0
LINE
  5
3F9
330
3DD
100
AcDbEntity
  8
0
  6
CONTINUOUS
 62
     7
100
AcDbLine
 10
227.652374
 20
94.384454
 30
0.0
 11
231.35503
 21
98.087121
 31
0.0
  0
LINE
  5
3FA
330
3DD
100
AcDbEntity
  8
0
  6
CONTINUOUS
 62
     7
100
AcDbLine
 10
228.774908
 20
94.384454
 30
0.0
 11
231.35503
 21
96.964588
 31
0.0
  0
LINE
  5
3FB
330
3DD
100
AcDbEntity
  8
0
  6
CONTINUOUS
 62
     7
100
AcDbLine
 10
229.897428
 20
94.384454
 30
0.0
 11
231.35503
 21
95.842056
 31
0.0
  0
LINE
  5
3FC
330
3DD
100
AcDbEntity
  8
0
  6
CONTINUOUS
 62
     7
100
AcDbLine
 10
231.019962
 20
94.384454
 30
0.0
 11
231.35503
 21
94.719525
 31
0.0
  0
LINE
  5
3FD
330
3DD
100
AcDbEntity
  8
0
  6
CONTINUOUS
 62
     7
100
AcDbLine
 10
228.046793
 20
94.384454
 30
0.0
 11
227.155033
 21
95.276213
 31
0.0
  0
LINE
  5
3FE
330
3DD
100
AcDbEntity
  8
0
  6
CONTINUOUS
 62
     7
100
AcDbLine
 10
229.169327
 20
94.384454
 30
0.0
 11
227.155033
 21
96.398745
 31
0.0
  0
LINE
  5
3FF
330
3DD
100
AcDbEntity
  8
0
  6
CONTINUOUS
 62
     7
100
AcDbLine
 10
230.291862
 20
94.384454
 30
0.0
 11
227.155033
 21
97.521276
 31
0.0
  0
LINE
  5
400
330
3DD
100
AcDbEntity
  8
0
  6
CONTINUOUS
 62
     7
100
AcDbLine
 10
231.35503
 20
94.443809
 30
0.0
 11
227.155033
 21
98.643809
 31
0.0
  0
LINE
  5
401
330
3DD
100
AcDbEntity
  8
0
  6
CONTINUOUS
 62
     7
100
AcDbLine
 10
231.35503
 20
95.566341
 30
0.0
 11
227.155033
 21
99.766341
 31
0.0
  0
LINE
  5
402
330
3DD
100
AcDbEntity
  8
0
  6
CONTINUOUS
 62
     7
100
AcDbLine
 10
231.35503
 20
96.688872
 30
0.0
 11
227.155033
 21
100.888873
 31
0.0
  0
LINE
  5
403
330
3DD
100
AcDbEntity
  8
0
  6
CONTINUOUS
 62
     7
100
AcDbLine
 10
231.35503
 20
97.811405
 30
0.0
 11
227.155033
 21
102.011405
 31
0.0
  0
LINE
  5
404
330
3DD
100
AcDbEntity
  8
0
  6
CONTINUOUS
 62
     7
100
AcDbLine
 10
231.35503
 20
98.933937
 30
0.0
 11
227.155033
 21
103.133937
 31
0.0
  0
LINE
  5
405
330
3DD
100
AcDbEntity
  8
0
  6
CONTINUOUS
 62
     7
100
AcDbLine
 10
231.35503
 20
100.056469
 30
0.0
 11
227.155033
 21
104.256469
 31
0.0
  0
LINE
  5
406
330
3DD
100
AcDbEntity
  8
0
  6
CONTINUOUS
 62
     7
100
AcDbLine
 10
231.35503
 20
101.179001
 30
0.0
 11
227.155033
 21
105.379001
 31
0.0
  0
LINE
  5
407
330
3DD
100
AcDbEntity
  8
0
  6
CONTINUOUS
 62
     7
100
AcDbLine
 10
231.35503
 20
102.301533
 30
0.0
 11
227.155033
 21
106.501533
 31
0.0
  0
LINE
  5
408
330
3DD
100
AcDbEntity
  8
0
  6
CONTINUOUS
 62
     7
100
AcDbLine
 10
231.35503
 20
103.424065
 30
0.0
 11
227.155033
 21
107.624065
 31
0.0
  0
LINE
  5
409
330
3DD
100
AcDbEntity
  8
0
  6
CONTINUOUS
 62
     7
100
AcDbLine
 10
231.35503
 20
104.546597
 30
0.0
 11
227.155033
 21
108.746597
 31
0.0
  0
LINE
  5
40A
330
3DD
100
AcDbEntity
  8
0
  6
CONTINUOUS
 62
     7
100
AcDbLine
 10
231.35503
 20
105.669129
 30
0.0
 11
227.155033
 21
109.869129
 31
0.0
  0
LINE
  5
40B
330
3DD
100
AcDbEntity
  8
0
  6
CONTINUOUS
 62
     7
100
AcDbLine
 10
231.35503
 20
106.791661
 30
0.0
 11
227.155033
 21
110.991661
 31
0.0
  0
LINE
  5
40C
330
3DD
100
AcDbEntity
  8
0
  6
CONTINUOUS
 62
     7
100
AcDbLine
 10
231.35503
 20
107.914193
 30
0.0
 11
227.155033
 21
112.114193
 31
0.0
  0
LINE
  5
40D
330
3DD
100
AcDbEntity
  8
0
  6
CONTINUOUS
 62
     7
100
AcDbLine
 10
231.35503
 20
109.036725
 30
0.0
 11
227.907303
 21
112.484454
 31
0.0
  0
LINE
  5
40E
330
3DD
100
AcDbEntity
  8
0
  6
CONTINUOUS
 62
     7
100
AcDbLine
 10
231.35503
 20
110.159257
 30
0.0
 11
229.029837
 21
112.484454
 31
0.0
  0
LINE
  5
40F
330
3DD
100
AcDbEntity
  8
0
  6
CONTINUOUS
 62
     7
100
AcDbLine
 10
231.35503
 20
111.281789
 30
0.0
 11
230.152372
 21
112.484454
 31
0.0
  0
LINE
  5
410
330
3DD
100
AcDbEntity
  8
0
  6
CONTINUOUS
 62
     7
100
AcDbLine
 10
231.35503
 20
112.404321
 30
0.0
 11
231.274906
 21
112.484454
 31
0.0
  0
LINE
  5
411
330
3DD
100
AcDbEntity
  8
0
  6
CONTINUOUS
 62
     7
100
AcDbLine
 10
233.855042
 20
111.81244
 30
0.0
 11
234.527055
 21
112.484454
 31
0.0
  0
LINE
  5
412
330
3DD
100
AcDbEntity
  8
0
  6
CONTINUOUS
 62
     7
100
AcDbLine
 10
233.855042
 20
110.689909
 30
0.0
 11
235.649589
 21
112.484454
 31
0.0
  0
LINE
  5
413
330
3DD
100
AcDbEntity
  8
0
  6
CONTINUOUS
 62
     7
100
AcDbLine
 10
233.855042
 20
109.567377
 30
0.0
 11
236.772108
 21
112.484454
 31
0.0
  0
LINE
  5
414
330
3DD
100
AcDbEntity
  8
0
  6
CONTINUOUS
 62
     7
100
AcDbLine
 10
233.855042
 20
108.444844
 30
0.0
 11
237.894643
 21
112.484454
 31
0.0
  0
LINE
  5
415
330
3DD
100
AcDbEntity
  8
0
  6
CONTINUOUS
 62
     7
100
AcDbLine
 10
233.855042
 20
107.322312
 30
0.0
 11
238.855037
 21
112.322313
 31
0.0
  0
LINE
  5
416
330
3DD
100
AcDbEntity
  8
0
  6
CONTINUOUS
 62
     7
100
AcDbLine
 10
233.855042
 20
106.19978
 30
0.0
 11
238.855037
 21
111.199781
 31
0.0
  0
LINE
  5
417
330
3DD
100
AcDbEntity
  8
0
  6
CONTINUOUS
 62
     7
100
AcDbLine
 10
233.855042
 20
105.077248
 30
0.0
 11
238.855037
 21
110.077248
 31
0.0
  0
LINE
  5
418
330
3DD
100
AcDbEntity
  8
0
  6
CONTINUOUS
 62
     7
100
AcDbLine
 10
233.855042
 20
103.954716
 30
0.0
 11
238.855037
 21
108.954716
 31
0.0
  0
LINE
  5
419
330
3DD
100
AcDbEntity
  8
0
  6
CONTINUOUS
 62
     7
100
AcDbLine
 10
233.855042
 20
102.832184
 30
0.0
 11
238.855037
 21
107.832184
 31
0.0
  0
LINE
  5
41A
330
3DD
100
AcDbEntity
  8
0
  6
CONTINUOUS
 62
     7
100
AcDbLine
 10
233.855042
 20
101.709652
 30
0.0
 11
238.855037
 21
106.709652
 31
0.0
  0
LINE
  5
41B
330
3DD
100
AcDbEntity
  8
0
  6
CONTINUOUS
 62
     7
100
AcDbLine
 10
233.855042
 20
100.587121
 30
0.0
 11
238.855037
 21
105.58712
 31
0.0
  0
LINE
  5
41C
330
3DD
100
AcDbEntity
  8
0
  6
CONTINUOUS
 62
     7
100
AcDbLine
 10
233.855042
 20
99.464588
 30
0.0
 11
238.855037
 21
104.464588
 31
0.0
  0
LINE
  5
41D
330
3DD
100
AcDbEntity
  8
0
  6
CONTINUOUS
 62
     7
100
AcDbLine
 10
233.855042
 20
98.342056
 30
0.0
 11
238.855037
 21
103.342056
 31
0.0
  0
LINE
  5
41E
330
3DD
100
AcDbEntity
  8
0
  6
CONTINUOUS
 62
     7
100
AcDbLine
 10
233.855042
 20
97.219524
 30
0.0
 11
238.855037
 21
102.219524
 31
0.0
  0
LINE
  5
41F
330
3DD
100
AcDbEntity
  8
0
  6
CONTINUOUS
 62
     7
100
AcDbLine
 10
233.855042
 20
96.096993
 30
0.0
 11
238.855037
 21
101.096992
 31
0.0
  0
LINE
  5
420
330
3DD
100
AcDbEntity
  8
0
  6
CONTINUOUS
 62
     7
100
AcDbLine
 10
233.855042
 20
94.97446
 30
0.0
 11
238.855037
 21
99.97446
 31
0.0
  0
LINE
  5
421
330
3DD
100
AcDbEntity
  8
0
  6
CONTINUOUS
 62
     7
100
AcDbLine
 10
234.387565
 20
94.384454
 30
0.0
 11
238.855037
 21
98.851928
 31
0.0
  0
LINE
  5
422
330
3DD
100
AcDbEntity
  8
0
  6
CONTINUOUS
 62
     7
100
AcDbLine
 10
235.510099
 20
94.384454
 30
0.0
 11
238.855037
 21
97.729396
 31
0.0
  0
LINE
  5
423
330
3DD
100
AcDbEntity
  8
0
  6
CONTINUOUS
 62
     7
100
AcDbLine
 10
236.632633
 20
94.384454
 30
0.0
 11
238.855037
 21
96.606864
 31
0.0
  0
LINE
  5
424
330
3DD
100
AcDbEntity
  8
0
  6
CONTINUOUS
 62
     7
100
AcDbLine
 10
237.755153
 20
94.384454
 30
0.0
 11
238.855037
 21
95.484332
 31
0.0
  0
LINE
  5
425
330
3DD
100
AcDbEntity
  8
0
  6
CONTINUOUS
 62
     7
100
AcDbLine
 10
234.781984
 20
94.384454
 30
0.0
 11
233.855042
 21
95.311404
 31
0.0
  0
LINE
  5
426
330
3DD
100
AcDbEntity
  8
0
  6
CONTINUOUS
 62
     7
100
AcDbLine
 10
235.904518
 20
94.384454
 30
0.0
 11
233.855042
 21
96.433937
 31
0.0
  0
LINE
  5
427
330
3DD
100
AcDbEntity
  8
0
  6
CONTINUOUS
 62
     7
100
AcDbLine
 10
237.027052
 20
94.384454
 30
0.0
 11
233.855042
 21
97.556469
 31
0.0
  0
LINE
  5
428
330
3DD
100
AcDbEntity
  8
0
  6
CONTINUOUS
 62
     7
100
AcDbLine
 10
238.149587
 20
94.384454
 30
0.0
 11
233.855042
 21
98.679001
 31
0.0
  0
LINE
  5
429
330
3DD
100
AcDbEntity
  8
0
  6
CONTINUOUS
 62
     7
100
AcDbLine
 10
238.855037
 20
94.801532
 30
0.0
 11
233.855042
 21
99.801533
 31
0.0
  0
LINE
  5
42A
330
3DD
100
AcDbEntity
  8
0
  6
CONTINUOUS
 62
     7
100
AcDbLine
 10
238.855037
 20
95.924065
 30
0.0
 11
233.855042
 21
100.924065
 31
0.0
  0
LINE
  5
42B
330
3DD
100
AcDbEntity
  8
0
  6
CONTINUOUS
 62
     7
100
AcDbLine
 10
238.855037
 20
97.046597
 30
0.0
 11
233.855042
 21
102.046597
 31
0.0
  0
LINE
  5
42C
330
3DD
100
AcDbEntity
  8
0
  6
CONTINUOUS
 62
     7
100
AcDbLine
 10
238.855037
 20
98.169129
 30
0.0
 11
233.855042
 21
103.169129
 31
0.0
  0
LINE
  5
42D
330
3DD
100
AcDbEntity
  8
0
  6
CONTINUOUS
 62
     7
100
AcDbLine
 10
238.855037
 20
99.291661
 30
0.0
 11
233.855042
 21
104.291661
 31
0.0
  0
LINE
  5
42E
330
3DD
100
AcDbEntity
  8
0
  6
CONTINUOUS
 62
     7
100
AcDbLine
 10
238.855037
 20
100.414193
 30
0.0
 11
233.855042
 21
105.414193
 31
0.0
  0
LINE
  5
42F
330
3DD
100
AcDbEntity
  8
0
  6
CONTINUOUS
 62
     7
100
AcDbLine
 10
238.855037
 20
101.536725
 30
0.0
 11
233.855042
 21
106.536725
 31
0.0
  0
LINE
  5
430
330
3DD
100
AcDbEntity
  8
0
  6
CONTINUOUS
 62
     7
100
AcDbLine
 10
238.855037
 20
102.659257
 30
0.0
 11
233.855042
 21
107.659257
 31
0.0
  0
LINE
  5
431
330
3DD
100
AcDbEntity
  8
0
  6
CONTINUOUS
 62
     7
100
AcDbLine
 10
238.855037
 20
103.781789
 30
0.0
 11
233.855042
 21
108.781789
 31
0.0
  0
LINE
  5
432
330
3DD
100
AcDbEntity
  8
0
  6
CONTINUOUS
 62
     7
100
AcDbLine
 10
238.855037
 20
104.904321
 30
0.0
 11
233.855042
 21
109.904321
 31
0.0
  0
LINE
  5
433
330
3DD
100
AcDbEntity
  8
0
  6
CONTINUOUS
 62
     7
100
AcDbLine
 10
238.855037
 20
106.026853
 30
0.0
 11
233.855042
 21
111.026853
 31
0.0
  0
LINE
  5
434
330
3DD
100
AcDbEntity
  8
0
  6
CONTINUOUS
 62
     7
100
AcDbLine
 10
238.855037
 20
107.149385
 30
0.0
 11
233.855042
 21
112.149385
 31
0.0
  0
LINE
  5
435
330
3DD
100
AcDbEntity
  8
0
  6
CONTINUOUS
 62
     7
100
AcDbLine
 10
238.855037
 20
108.271917
 30
0.0
 11
234.642494
 21
112.484454
 31
0.0
  0
LINE
  5
436
330
3DD
100
AcDbEntity
  8
0
  6
CONTINUOUS
 62
     7
100
AcDbLine
 10
238.855037
 20
109.394449
 30
0.0
 11
235.765028
 21
112.484454
 31
0.0
  0
LINE
  5
437
330
3DD
100
AcDbEntity
  8
0
  6
CONTINUOUS
 62
     7
100
AcDbLine
 10
238.855037
 20
110.516981
 30
0.0
 11
236.887563
 21
112.484454
 31
0.0
  0
LINE
  5
438
330
3DD
100
AcDbEntity
  8
0
  6
CONTINUOUS
 62
     7
100
AcDbLine
 10
238.855037
 20
111.639513
 30
0.0
 11
238.010097
 21
112.484454
 31
0.0
  0
ENDBLK
  5
3DF
330
3DD
100
AcDbEntity
  8
0
100
AcDbBlockEnd
  0
BLOCK
  5
4B3
330
4B2
100
AcDbEntity
  8
0
100
AcDbBlockBegin
  2
BLKF026
 70
     0
 71
     0
 10
0.0
 20
0.0
 30
0.0
  3
BLKF026
  1

  0
LINE
  5
4B6
330
4B2
100
AcDbEntity
  8
0
  6
CONTINUOUS
 62
     7
100
AcDbLine
 10
65.267199
 20
102.599518
 30
0.0
 11
65.290094
 21
102.534956
 31
0.0
  0
LINE
  5
4B7
330
4B2
100
AcDbEntity
  8
0
  6
CONTINUOUS
 62
     7
100
AcDbLine
 10
65.290094
 20
102.534956
 30
0.0
 11
65.312946
 21
102.470389
 31
0.0
  0
LINE
  5
4B8
330
4B2
100
AcDbEntity
  8
0
  6
CONTINUOUS
 62
     7
100
AcDbLine
 10
65.312946
 20
102.470389
 30
0.0
 11
65.335713
 21
102.405812
 31
0.0
  0
LINE
  5
4B9
330
4B2
100
AcDbEntity
  8
0
  6
CONTINUOUS
 62
     7
100
AcDbLine
 10
65.335713
 20
102.405812
 30
0.0
 11
65.358352
 21
102.341219
 31
0.0
  0
LINE
  5
4BA
330
4B2
100
AcDbEntity
  8
0
  6
CONTINUOUS
 62
     7
100
AcDbLine
 10
65.358352
 20
102.341219
 30
0.0
 11
65.36961
 21
102.308915
 31
0.0
  0
LINE
  5
4BB
330
4B2
100
AcDbEntity
  8
0
  6
CONTINUOUS
 62
     7
100
AcDbLine
 10
65.36961
 20
102.308915
 30
0.0
 11
65.38082
 21
102.276605
 31
0.0
  0
LINE
  5
4BC
330
4B2
100
AcDbEntity
  8
0
  6
CONTINUOUS
 62
     7
100
AcDbLine
 10
65.38082
 20
102.276605
 30
0.0
 11
65.391976
 21
102.244289
 31
0.0
  0
LINE
  5
4BD
330
4B2
100
AcDbEntity
  8
0
  6
CONTINUOUS
 62
     7
100
AcDbLine
 10
65.391976
 20
102.244289
 30
0.0
 11
65.403074
 21
102.211966
 31
0.0
  0
LINE
  5
4BE
330
4B2
100
AcDbEntity
  8
0
  6
CONTINUOUS
 62
     7
100
AcDbLine
 10
65.403074
 20
102.211966
 30
0.0
 11
65.414108
 21
102.179634
 31
0.0
  0
LINE
  5
4BF
330
4B2
100
AcDbEntity
  8
0
  6
CONTINUOUS
 62
     7
100
AcDbLine
 10
65.414108
 20
102.179634
 30
0.0
 11
65.425072
 21
102.147295
 31
0.0
  0
LINE
  5
4C0
330
4B2
100
AcDbEntity
  8
0
  6
CONTINUOUS
 62
     7
100
AcDbLine
 10
65.425072
 20
102.147295
 30
0.0
 11
65.435961
 21
102.114946
 31
0.0
  0
LINE
  5
4C1
330
4B2
100
AcDbEntity
  8
0
  6
CONTINUOUS
 62
     7
100
AcDbLine
 10
65.435961
 20
102.114946
 30
0.0
 11
65.44677
 21
102.082587
 31
0.0
  0
LINE
  5
4C2
330
4B2
100
AcDbEntity
  8
0
  6
CONTINUOUS
 62
     7
100
AcDbLine
 10
65.44677
 20
102.082587
 30
0.0
 11
65.457494
 21
102.050218
 31
0.0
  0
LINE
  5
4C3
330
4B2
100
AcDbEntity
  8
0
  6
CONTINUOUS
 62
     7
100
AcDbLine
 10
65.457494
 20
102.050218
 30
0.0
 11
65.468127
 21
102.017838
 31
0.0
  0
LINE
  5
4C4
330
4B2
100
AcDbEntity
  8
0
  6
CONTINUOUS
 62
     7
100
AcDbLine
 10
65.468127
 20
102.017838
 30
0.0
 11
65.478663
 21
101.985447
 31
0.0
  0
LINE
  5
4C5
330
4B2
100
AcDbEntity
  8
0
  6
CONTINUOUS
 62
     7
100
AcDbLine
 10
65.478663
 20
101.985447
 30
0.0
 11
65.489099
 21
101.953043
 31
0.0
  0
LINE
  5
4C6
330
4B2
100
AcDbEntity
  8
0
  6
CONTINUOUS
 62
     7
100
AcDbLine
 10
65.489099
 20
101.953043
 30
0.0
 11
65.499427
 21
101.920626
 31
0.0
  0
LINE
  5
4C7
330
4B2
100
AcDbEntity
  8
0
  6
CONTINUOUS
 62
     7
100
AcDbLine
 10
65.499427
 20
101.920626
 30
0.0
 11
65.509643
 21
101.888195
 31
0.0
  0
LINE
  5
4C8
330
4B2
100
AcDbEntity
  8
0
  6
CONTINUOUS
 62
     7
100
AcDbLine
 10
65.509643
 20
101.888195
 30
0.0
 11
65.519741
 21
101.85575
 31
0.0
  0
LINE
  5
4C9
330
4B2
100
AcDbEntity
  8
0
  6
CONTINUOUS
 62
     7
100
AcDbLine
 10
65.519741
 20
101.85575
 30
0.0
 11
65.529717
 21
101.82329
 31
0.0
  0
LINE
  5
4CA
330
4B2
100
AcDbEntity
  8
0
  6
CONTINUOUS
 62
     7
100
AcDbLine
 10
65.529717
 20
101.82329
 30
0.0
 11
65.539565
 21
101.790814
 31
0.0
  0
LINE
  5
4CB
330
4B2
100
AcDbEntity
  8
0
  6
CONTINUOUS
 62
     7
100
AcDbLine
 10
65.539565
 20
101.790814
 30
0.0
 11
65.549278
 21
101.758323
 31
0.0
  0
LINE
  5
4CC
330
4B2
100
AcDbEntity
  8
0
  6
CONTINUOUS
 62
     7
100
AcDbLine
 10
65.549278
 20
101.758323
 30
0.0
 11
65.558853
 21
101.725814
 31
0.0
  0
LINE
  5
4CD
330
4B2
100
AcDbEntity
  8
0
  6
CONTINUOUS
 62
     7
100
AcDbLine
 10
65.558853
 20
101.725814
 30
0.0
 11
65.568284
 21
101.693288
 31
0.0
  0
LINE
  5
4CE
330
4B2
100
AcDbEntity
  8
0
  6
CONTINUOUS
 62
     7
100
AcDbLine
 10
65.568284
 20
101.693288
 30
0.0
 11
65.577565
 21
101.660743
 31
0.0
  0
LINE
  5
4CF
330
4B2
100
AcDbEntity
  8
0
  6
CONTINUOUS
 62
     7
100
AcDbLine
 10
65.577565
 20
101.660743
 30
0.0
 11
65.586691
 21
101.62818
 31
0.0
  0
LINE
  5
4D0
330
4B2
100
AcDbEntity
  8
0
  6
CONTINUOUS
 62
     7
100
AcDbLine
 10
65.586691
 20
101.62818
 30
0.0
 11
65.595657
 21
101.595597
 31
0.0
  0
LINE
  5
4D1
330
4B2
100
AcDbEntity
  8
0
  6
CONTINUOUS
 62
     7
100
AcDbLine
 10
65.595657
 20
101.595597
 30
0.0
 11
65.604457
 21
101.562994
 31
0.0
  0
LINE
  5
4D2
330
4B2
100
AcDbEntity
  8
0
  6
CONTINUOUS
 62
     7
100
AcDbLine
 10
65.604457
 20
101.562994
 30
0.0
 11
65.613087
 21
101.53037
 31
0.0
  0
LINE
  5
4D3
330
4B2
100
AcDbEntity
  8
0
  6
CONTINUOUS
 62
     7
100
AcDbLine
 10
65.613087
 20
101.53037
 30
0.0
 11
65.62154
 21
101.497725
 31
0.0
  0
LINE
  5
4D4
330
4B2
100
AcDbEntity
  8
0
  6
CONTINUOUS
 62
     7
100
AcDbLine
 10
65.62154
 20
101.497725
 30
0.0
 11
65.629811
 21
101.465058
 31
0.0
  0
LINE
  5
4D5
330
4B2
100
AcDbEntity
  8
0
  6
CONTINUOUS
 62
     7
100
AcDbLine
 10
65.629811
 20
101.465058
 30
0.0
 11
65.637895
 21
101.432368
 31
0.0
  0
LINE
  5
4D6
330
4B2
100
AcDbEntity
  8
0
  6
CONTINUOUS
 62
     7
100
AcDbLine
 10
65.637895
 20
101.432368
 30
0.0
 11
65.645787
 21
101.399654
 31
0.0
  0
LINE
  5
4D7
330
4B2
100
AcDbEntity
  8
0
  6
CONTINUOUS
 62
     7
100
AcDbLine
 10
65.645787
 20
101.399654
 30
0.0
 11
65.653481
 21
101.366917
 31
0.0
  0
LINE
  5
4D8
330
4B2
100
AcDbEntity
  8
0
  6
CONTINUOUS
 62
     7
100
AcDbLine
 10
65.653481
 20
101.366917
 30
0.0
 11
65.660973
 21
101.334155
 31
0.0
  0
LINE
  5
4D9
330
4B2
100
AcDbEntity
  8
0
  6
CONTINUOUS
 62
     7
100
AcDbLine
 10
65.660973
 20
101.334155
 30
0.0
 11
65.668255
 21
101.301367
 31
0.0
  0
LINE
  5
4DA
330
4B2
100
AcDbEntity
  8
0
  6
CONTINUOUS
 62
     7
100
AcDbLine
 10
65.668255
 20
101.301367
 30
0.0
 11
65.675325
 21
101.268554
 31
0.0
  0
LINE
  5
4DB
330
4B2
100
AcDbEntity
  8
0
  6
CONTINUOUS
 62
     7
100
AcDbLine
 10
65.675325
 20
101.268554
 30
0.0
 11
65.682175
 21
101.235714
 31
0.0
  0
LINE
  5
4DC
330
4B2
100
AcDbEntity
  8
0
  6
CONTINUOUS
 62
     7
100
AcDbLine
 10
65.682175
 20
101.235714
 30
0.0
 11
65.6888
 21
101.202846
 31
0.0
  0
LINE
  5
4DD
330
4B2
100
AcDbEntity
  8
0
  6
CONTINUOUS
 62
     7
100
AcDbLine
 10
65.6888
 20
101.202846
 30
0.0
 11
65.695196
 21
101.169951
 31
0.0
  0
LINE
  5
4DE
330
4B2
100
AcDbEntity
  8
0
  6
CONTINUOUS
 62
     7
100
AcDbLine
 10
65.695196
 20
101.169951
 30
0.0
 11
65.701357
 21
101.137027
 31
0.0
  0
LINE
  5
4DF
330
4B2
100
AcDbEntity
  8
0
  6
CONTINUOUS
 62
     7
100
AcDbLine
 10
65.701357
 20
101.137027
 30
0.0
 11
65.707278
 21
101.104074
 31
0.0
  0
LINE
  5
4E0
330
4B2
100
AcDbEntity
  8
0
  6
CONTINUOUS
 62
     7
100
AcDbLine
 10
65.707278
 20
101.104074
 30
0.0
 11
65.712952
 21
101.07109
 31
0.0
  0
LINE
  5
4E1
330
4B2
100
AcDbEntity
  8
0
  6
CONTINUOUS
 62
     7
100
AcDbLine
 10
65.712952
 20
101.07109
 30
0.0
 11
65.718376
 21
101.038077
 31
0.0
  0
LINE
  5
4E2
330
4B2
100
AcDbEntity
  8
0
  6
CONTINUOUS
 62
     7
100
AcDbLine
 10
65.718376
 20
101.038077
 30
0.0
 11
65.723543
 21
101.005032
 31
0.0
  0
LINE
  5
4E3
330
4B2
100
AcDbEntity
  8
0
  6
CONTINUOUS
 62
     7
100
AcDbLine
 10
65.723543
 20
101.005032
 30
0.0
 11
65.728448
 21
100.971955
 31
0.0
  0
LINE
  5
4E4
330
4B2
100
AcDbEntity
  8
0
  6
CONTINUOUS
 62
     7
100
AcDbLine
 10
65.728448
 20
100.971955
 30
0.0
 11
65.733086
 21
100.938846
 31
0.0
  0
LINE
  5
4E5
330
4B2
100
AcDbEntity
  8
0
  6
CONTINUOUS
 62
     7
100
AcDbLine
 10
65.733086
 20
100.938846
 30
0.0
 11
65.737452
 21
100.905703
 31
0.0
  0
LINE
  5
4E6
330
4B2
100
AcDbEntity
  8
0
  6
CONTINUOUS
 62
     7
100
AcDbLine
 10
65.737452
 20
100.905703
 30
0.0
 11
65.74154
 21
100.872527
 31
0.0
  0
LINE
  5
4E7
330
4B2
100
AcDbEntity
  8
0
  6
CONTINUOUS
 62
     7
100
AcDbLine
 10
65.74154
 20
100.872527
 30
0.0
 11
65.745344
 21
100.839317
 31
0.0
  0
LINE
  5
4E8
330
4B2
100
AcDbEntity
  8
0
  6
CONTINUOUS
 62
     7
100
AcDbLine
 10
65.745344
 20
100.839317
 30
0.0
 11
65.74886
 21
100.806071
 31
0.0
  0
LINE
  5
4E9
330
4B2
100
AcDbEntity
  8
0
  6
CONTINUOUS
 62
     7
100
AcDbLine
 10
65.74886
 20
100.806071
 30
0.0
 11
65.752083
 21
100.772789
 31
0.0
  0
LINE
  5
4EA
330
4B2
100
AcDbEntity
  8
0
  6
CONTINUOUS
 62
     7
100
AcDbLine
 10
65.752083
 20
100.772789
 30
0.0
 11
65.755006
 21
100.739471
 31
0.0
  0
LINE
  5
4EB
330
4B2
100
AcDbEntity
  8
0
  6
CONTINUOUS
 62
     7
100
AcDbLine
 10
65.755006
 20
100.739471
 30
0.0
 11
65.757624
 21
100.706116
 31
0.0
  0
LINE
  5
4EC
330
4B2
100
AcDbEntity
  8
0
  6
CONTINUOUS
 62
     7
100
AcDbLine
 10
65.757624
 20
100.706116
 30
0.0
 11
65.759933
 21
100.672724
 31
0.0
  0
LINE
  5
4ED
330
4B2
100
AcDbEntity
  8
0
  6
CONTINUOUS
 62
     7
100
AcDbLine
 10
65.759933
 20
100.672724
 30
0.0
 11
65.761926
 21
100.639293
 31
0.0
  0
LINE
  5
4EE
330
4B2
100
AcDbEntity
  8
0
  6
CONTINUOUS
 62
     7
100
AcDbLine
 10
65.761926
 20
100.639293
 30
0.0
 11
65.763599
 21
100.605823
 31
0.0
  0
LINE
  5
4EF
330
4B2
100
AcDbEntity
  8
0
  6
CONTINUOUS
 62
     7
100
AcDbLine
 10
65.763599
 20
100.605823
 30
0.0
 11
65.764946
 21
100.572313
 31
0.0
  0
LINE
  5
4F0
330
4B2
100
AcDbEntity
  8
0
  6
CONTINUOUS
 62
     7
100
AcDbLine
 10
65.764946
 20
100.572313
 30
0.0
 11
65.765496
 21
100.555543
 31
0.0
  0
LINE
  5
4F1
330
4B2
100
AcDbEntity
  8
0
  6
CONTINUOUS
 62
     7
100
AcDbLine
 10
65.765496
 20
100.555543
 30
0.0
 11
65.765962
 21
100.538763
 31
0.0
  0
LINE
  5
4F2
330
4B2
100
AcDbEntity
  8
0
  6
CONTINUOUS
 62
     7
100
AcDbLine
 10
65.765962
 20
100.538763
 30
0.0
 11
65.766344
 21
100.521973
 31
0.0
  0
LINE
  5
4F3
330
4B2
100
AcDbEntity
  8
0
  6
CONTINUOUS
 62
     7
100
AcDbLine
 10
65.766344
 20
100.521973
 30
0.0
 11
65.766641
 21
100.505173
 31
0.0
  0
LINE
  5
4F4
330
4B2
100
AcDbEntity
  8
0
  6
CONTINUOUS
 62
     7
100
AcDbLine
 10
65.766641
 20
100.505173
 30
0.0
 11
65.767018
 21
100.469825
 31
0.0
  0
LINE
  5
4F5
330
4B2
100
AcDbEntity
  8
0
  6
CONTINUOUS
 62
     7
100
AcDbLine
 10
65.767018
 20
100.469825
 30
0.0
 11
65.767207
 21
100.434455
 31
0.0
  0
ENDBLK
  5
4B4
330
4B2
100
AcDbEntity
  8
0
100
AcDbBlockEnd
  0
BLOCK
  5
4FD
330
4FC
100
AcDbEntity
  8
0
100
AcDbBlockBegin
  2
BLKF027
 70
     0
 71
     0
 10
0.0
 20
0.0
 30
0.0
  3
BLKF027
  1

  0
LINE
  5
500
330
4FC
100
AcDbEntity
  8
0
  6
CONTINUOUS
 62
     7
100
AcDbLine
 10
61.967202
 20
98.269391
 30
0.0
 11
61.935898
 21
98.342018
 31
0.0
  0
LINE
  5
501
330
4FC
100
AcDbEntity
  8
0
  6
CONTINUOUS
 62
     7
100
AcDbLine
 10
61.935898
 20
98.342018
 30
0.0
 11
61.920346
 21
98.378371
 31
0.0
  0
LINE
  5
502
330
4FC
100
AcDbEntity
  8
0
  6
CONTINUOUS
 62
     7
100
AcDbLine
 10
61.920346
 20
98.378371
 30
0.0
 11
61.904916
 21
98.414771
 31
0.0
  0
LINE
  5
503
330
4FC
100
AcDbEntity
  8
0
  6
CONTINUOUS
 62
     7
100
AcDbLine
 10
61.904916
 20
98.414771
 30
0.0
 11
61.889646
 21
98.451235
 31
0.0
  0
LINE
  5
504
330
4FC
100
AcDbEntity
  8
0
  6
CONTINUOUS
 62
     7
100
AcDbLine
 10
61.889646
 20
98.451235
 30
0.0
 11
61.874578
 21
98.487779
 31
0.0
  0
LINE
  5
505
330
4FC
100
AcDbEntity
  8
0
  6
CONTINUOUS
 62
     7
100
AcDbLine
 10
61.874578
 20
98.487779
 30
0.0
 11
61.859751
 21
98.524418
 31
0.0
  0
LINE
  5
506
330
4FC
100
AcDbEntity
  8
0
  6
CONTINUOUS
 62
     7
100
AcDbLine
 10
61.859751
 20
98.524418
 30
0.0
 11
61.845206
 21
98.561169
 31
0.0
  0
LINE
  5
507
330
4FC
100
AcDbEntity
  8
0
  6
CONTINUOUS
 62
     7
100
AcDbLine
 10
61.845206
 20
98.561169
 30
0.0
 11
61.82514
 21
98.613372
 31
0.0
  0
LINE
  5
508
330
4FC
100
AcDbEntity
  8
0
  6
CONTINUOUS
 62
     7
100
AcDbLine
 10
61.82514
 20
98.613372
 30
0.0
 11
61.805558
 21
98.665767
 31
0.0
  0
LINE
  5
509
330
4FC
100
AcDbEntity
  8
0
  6
CONTINUOUS
 62
     7
100
AcDbLine
 10
61.805558
 20
98.665767
 30
0.0
 11
61.786298
 21
98.718289
 31
0.0
  0
LINE
  5
50A
330
4FC
100
AcDbEntity
  8
0
  6
CONTINUOUS
 62
     7
100
AcDbLine
 10
61.786298
 20
98.718289
 30
0.0
 11
61.767199
 21
98.770874
 31
0.0
  0
ENDBLK
  5
4FE
330
4FC
100
AcDbEntity
  8
0
100
AcDbBlockEnd
  0
BLOCK
  5
512
330
511
100
AcDbEntity
  8
0
100
AcDbBlockBegin
  2
BLKF028
 70
     0
 71
     0
 10
0.0
 20
0.0
 30
0.0
  3
BLKF028
  1

  0
LINE
  5
515
330
511
100
AcDbEntity
  8
0
  6
CONTINUOUS
 62
     7
100
AcDbLine
 10
65.267199
 20
108.599518
 30
0.0
 11
65.290094
 21
108.534956
 31
0.0
  0
LINE
  5
516
330
511
100
AcDbEntity
  8
0
  6
CONTINUOUS
 62
     7
100
AcDbLine
 10
65.290094
 20
108.534956
 30
0.0
 11
65.312946
 21
108.470389
 31
0.0
  0
LINE
  5
517
330
511
100
AcDbEntity
  8
0
  6
CONTINUOUS
 62
     7
100
AcDbLine
 10
65.312946
 20
108.470389
 30
0.0
 11
65.335713
 21
108.405812
 31
0.0
  0
LINE
  5
518
330
511
100
AcDbEntity
  8
0
  6
CONTINUOUS
 62
     7
100
AcDbLine
 10
65.335713
 20
108.405812
 30
0.0
 11
65.358352
 21
108.341219
 31
0.0
  0
LINE
  5
519
330
511
100
AcDbEntity
  8
0
  6
CONTINUOUS
 62
     7
100
AcDbLine
 10
65.358352
 20
108.341219
 30
0.0
 11
65.36961
 21
108.308915
 31
0.0
  0
LINE
  5
51A
330
511
100
AcDbEntity
  8
0
  6
CONTINUOUS
 62
     7
100
AcDbLine
 10
65.36961
 20
108.308915
 30
0.0
 11
65.38082
 21
108.276605
 31
0.0
  0
LINE
  5
51B
330
511
100
AcDbEntity
  8
0
  6
CONTINUOUS
 62
     7
100
AcDbLine
 10
65.38082
 20
108.276605
 30
0.0
 11
65.391976
 21
108.244289
 31
0.0
  0
LINE
  5
51C
330
511
100
AcDbEntity
  8
0
  6
CONTINUOUS
 62
     7
100
AcDbLine
 10
65.391976
 20
108.244289
 30
0.0
 11
65.403074
 21
108.211966
 31
0.0
  0
LINE
  5
51D
330
511
100
AcDbEntity
  8
0
  6
CONTINUOUS
 62
     7
100
AcDbLine
 10
65.403074
 20
108.211966
 30
0.0
 11
65.414108
 21
108.179634
 31
0.0
  0
LINE
  5
51E
330
511
100
AcDbEntity
  8
0
  6
CONTINUOUS
 62
     7
100
AcDbLine
 10
65.414108
 20
108.179634
 30
0.0
 11
65.425072
 21
108.147295
 31
0.0
  0
LINE
  5
51F
330
511
100
AcDbEntity
  8
0
  6
CONTINUOUS
 62
     7
100
AcDbLine
 10
65.425072
 20
108.147295
 30
0.0
 11
65.435961
 21
108.114946
 31
0.0
  0
LINE
  5
520
330
511
100
AcDbEntity
  8
0
  6
CONTINUOUS
 62
     7
100
AcDbLine
 10
65.435961
 20
108.114946
 30
0.0
 11
65.44677
 21
108.082587
 31
0.0
  0
LINE
  5
521
330
511
100
AcDbEntity
  8
0
  6
CONTINUOUS
 62
     7
100
AcDbLine
 10
65.44677
 20
108.082587
 30
0.0
 11
65.457494
 21
108.050218
 31
0.0
  0
LINE
  5
522
330
511
100
AcDbEntity
  8
0
  6
CONTINUOUS
 62
     7
100
AcDbLine
 10
65.457494
 20
108.050218
 30
0.0
 11
65.468127
 21
108.017838
 31
0.0
  0
LINE
  5
523
330
511
100
AcDbEntity
  8
0
  6
CONTINUOUS
 62
     7
100
AcDbLine
 10
65.468127
 20
108.017838
 30
0.0
 11
65.478663
 21
107.985447
 31
0.0
  0
LINE
  5
524
330
511
100
AcDbEntity
  8
0
  6
CONTINUOUS
 62
     7
100
AcDbLine
 10
65.478663
 20
107.985447
 30
0.0
 11
65.489099
 21
107.953043
 31
0.0
  0
LINE
  5
525
330
511
100
AcDbEntity
  8
0
  6
CONTINUOUS
 62
     7
100
AcDbLine
 10
65.489099
 20
107.953043
 30
0.0
 11
65.499427
 21
107.920626
 31
0.0
  0
LINE
  5
526
330
511
100
AcDbEntity
  8
0
  6
CONTINUOUS
 62
     7
100
AcDbLine
 10
65.499427
 20
107.920626
 30
0.0
 11
65.509643
 21
107.888195
 31
0.0
  0
LINE
  5
527
330
511
100
AcDbEntity
  8
0
  6
CONTINUOUS
 62
     7
100
AcDbLine
 10
65.509643
 20
107.888195
 30
0.0
 11
65.519741
 21
107.85575
 31
0.0
  0
LINE
  5
528
330
511
100
AcDbEntity
  8
0
  6
CONTINUOUS
 62
     7
100
AcDbLine
 10
65.519741
 20
107.85575
 30
0.0
 11
65.529717
 21
107.82329
 31
0.0
  0
LINE
  5
529
330
511
100
AcDbEntity
  8
0
  6
CONTINUOUS
 62
     7
100
AcDbLine
 10
65.529717
 20
107.82329
 30
0.0
 11
65.539565
 21
107.790814
 31
0.0
  0
LINE
  5
52A
330
511
100
AcDbEntity
  8
0
  6
CONTINUOUS
 62
     7
100
AcDbLine
 10
65.539565
 20
107.790814
 30
0.0
 11
65.549278
 21
107.758323
 31
0.0
  0
LINE
  5
52B
330
511
100
AcDbEntity
  8
0
  6
CONTINUOUS
 62
     7
100
AcDbLine
 10
65.549278
 20
107.758323
 30
0.0
 11
65.558853
 21
107.725814
 31
0.0
  0
LINE
  5
52C
330
511
100
AcDbEntity
  8
0
  6
CONTINUOUS
 62
     7
100
AcDbLine
 10
65.558853
 20
107.725814
 30
0.0
 11
65.568284
 21
107.693288
 31
0.0
  0
LINE
  5
52D
330
511
100
AcDbEntity
  8
0
  6
CONTINUOUS
 62
     7
100
AcDbLine
 10
65.568284
 20
107.693288
 30
0.0
 11
65.577565
 21
107.660743
 31
0.0
  0
LINE
  5
52E
330
511
100
AcDbEntity
  8
0
  6
CONTINUOUS
 62
     7
100
AcDbLine
 10
65.577565
 20
107.660743
 30
0.0
 11
65.586691
 21
107.62818
 31
0.0
  0
LINE
  5
52F
330
511
100
AcDbEntity
  8
0
  6
CONTINUOUS
 62
     7
100
AcDbLine
 10
65.586691
 20
107.62818
 30
0.0
 11
65.595657
 21
107.595597
 31
0.0
  0
LINE
  5
530
330
511
100
AcDbEntity
  8
0
  6
CONTINUOUS
 62
     7
100
AcDbLine
 10
65.595657
 20
107.595597
 30
0.0
 11
65.604457
 21
107.562994
 31
0.0
  0
LINE
  5
531
330
511
100
AcDbEntity
  8
0
  6
CONTINUOUS
 62
     7
100
AcDbLine
 10
65.604457
 20
107.562994
 30
0.0
 11
65.613087
 21
107.53037
 31
0.0
  0
LINE
  5
532
330
511
100
AcDbEntity
  8
0
  6
CONTINUOUS
 62
     7
100
AcDbLine
 10
65.613087
 20
107.53037
 30
0.0
 11
65.62154
 21
107.497725
 31
0.0
  0
LINE
  5
533
330
511
100
AcDbEntity
  8
0
  6
CONTINUOUS
 62
     7
100
AcDbLine
 10
65.62154
 20
107.497725
 30
0.0
 11
65.629811
 21
107.465058
 31
0.0
  0
LINE
  5
534
330
511
100
AcDbEntity
  8
0
  6
CONTINUOUS
 62
     7
100
AcDbLine
 10
65.629811
 20
107.465058
 30
0.0
 11
65.637895
 21
107.432368
 31
0.0
  0
LINE
  5
535
330
511
100
AcDbEntity
  8
0
  6
CONTINUOUS
 62
     7
100
AcDbLine
 10
65.637895
 20
107.432368
 30
0.0
 11
65.645787
 21
107.399655
 31
0.0
  0
LINE
  5
536
330
511
100
AcDbEntity
  8
0
  6
CONTINUOUS
 62
     7
100
AcDbLine
 10
65.645787
 20
107.399655
 30
0.0
 11
65.653481
 21
107.366917
 31
0.0
  0
LINE
  5
537
330
511
100
AcDbEntity
  8
0
  6
CONTINUOUS
 62
     7
100
AcDbLine
 10
65.653481
 20
107.366917
 30
0.0
 11
65.660973
 21
107.334155
 31
0.0
  0
LINE
  5
538
330
511
100
AcDbEntity
  8
0
  6
CONTINUOUS
 62
     7
100
AcDbLine
 10
65.660973
 20
107.334155
 30
0.0
 11
65.668255
 21
107.301367
 31
0.0
  0
LINE
  5
539
330
511
100
AcDbEntity
  8
0
  6
CONTINUOUS
 62
     7
100
AcDbLine
 10
65.668255
 20
107.301367
 30
0.0
 11
65.675325
 21
107.268554
 31
0.0
  0
LINE
  5
53A
330
511
100
AcDbEntity
  8
0
  6
CONTINUOUS
 62
     7
100
AcDbLine
 10
65.675325
 20
107.268554
 30
0.0
 11
65.682175
 21
107.235714
 31
0.0
  0
LINE
  5
53B
330
511
100
AcDbEntity
  8
0
  6
CONTINUOUS
 62
     7
100
AcDbLine
 10
65.682175
 20
107.235714
 30
0.0
 11
65.6888
 21
107.202846
 31
0.0
  0
LINE
  5
53C
330
511
100
AcDbEntity
  8
0
  6
CONTINUOUS
 62
     7
100
AcDbLine
 10
65.6888
 20
107.202846
 30
0.0
 11
65.695196
 21
107.169951
 31
0.0
  0
LINE
  5
53D
330
511
100
AcDbEntity
  8
0
  6
CONTINUOUS
 62
     7
100
AcDbLine
 10
65.695196
 20
107.169951
 30
0.0
 11
65.701357
 21
107.137027
 31
0.0
  0
LINE
  5
53E
330
511
100
AcDbEntity
  8
0
  6
CONTINUOUS
 62
     7
100
AcDbLine
 10
65.701357
 20
107.137027
 30
0.0
 11
65.707278
 21
107.104074
 31
0.0
  0
LINE
  5
53F
330
511
100
AcDbEntity
  8
0
  6
CONTINUOUS
 62
     7
100
AcDbLine
 10
65.707278
 20
107.104074
 30
0.0
 11
65.712952
 21
107.07109
 31
0.0
  0
LINE
  5
540
330
511
100
AcDbEntity
  8
0
  6
CONTINUOUS
 62
     7
100
AcDbLine
 10
65.712952
 20
107.07109
 30
0.0
 11
65.718376
 21
107.038077
 31
0.0
  0
LINE
  5
541
330
511
100
AcDbEntity
  8
0
  6
CONTINUOUS
 62
     7
100
AcDbLine
 10
65.718376
 20
107.038077
 30
0.0
 11
65.723543
 21
107.005032
 31
0.0
  0
LINE
  5
542
330
511
100
AcDbEntity
  8
0
  6
CONTINUOUS
 62
     7
100
AcDbLine
 10
65.723543
 20
107.005032
 30
0.0
 11
65.728448
 21
106.971955
 31
0.0
  0
LINE
  5
543
330
511
100
AcDbEntity
  8
0
  6
CONTINUOUS
 62
     7
100
AcDbLine
 10
65.728448
 20
106.971955
 30
0.0
 11
65.733086
 21
106.938846
 31
0.0
  0
LINE
  5
544
330
511
100
AcDbEntity
  8
0
  6
CONTINUOUS
 62
     7
100
AcDbLine
 10
65.733086
 20
106.938846
 30
0.0
 11
65.737452
 21
106.905703
 31
0.0
  0
LINE
  5
545
330
511
100
AcDbEntity
  8
0
  6
CONTINUOUS
 62
     7
100
AcDbLine
 10
65.737452
 20
106.905703
 30
0.0
 11
65.74154
 21
106.872527
 31
0.0
  0
LINE
  5
546
330
511
100
AcDbEntity
  8
0
  6
CONTINUOUS
 62
     7
100
AcDbLine
 10
65.74154
 20
106.872527
 30
0.0
 11
65.745344
 21
106.839317
 31
0.0
  0
LINE
  5
547
330
511
100
AcDbEntity
  8
0
  6
CONTINUOUS
 62
     7
100
AcDbLine
 10
65.745344
 20
106.839317
 30
0.0
 11
65.74886
 21
106.806071
 31
0.0
  0
LINE
  5
548
330
511
100
AcDbEntity
  8
0
  6
CONTINUOUS
 62
     7
100
AcDbLine
 10
65.74886
 20
106.806071
 30
0.0
 11
65.752083
 21
106.772789
 31
0.0
  0
LINE
  5
549
330
511
100
AcDbEntity
  8
0
  6
CONTINUOUS
 62
     7
100
AcDbLine
 10
65.752083
 20
106.772789
 30
0.0
 11
65.755006
 21
106.739471
 31
0.0
  0
LINE
  5
54A
330
511
100
AcDbEntity
  8
0
  6
CONTINUOUS
 62
     7
100
AcDbLine
 10
65.755006
 20
106.739471
 30
0.0
 11
65.757624
 21
106.706117
 31
0.0
  0
LINE
  5
54B
330
511
100
AcDbEntity
  8
0
  6
CONTINUOUS
 62
     7
100
AcDbLine
 10
65.757624
 20
106.706117
 30
0.0
 11
65.759933
 21
106.672724
 31
0.0
  0
LINE
  5
54C
330
511
100
AcDbEntity
  8
0
  6
CONTINUOUS
 62
     7
100
AcDbLine
 10
65.759933
 20
106.672724
 30
0.0
 11
65.761926
 21
106.639293
 31
0.0
  0
LINE
  5
54D
330
511
100
AcDbEntity
  8
0
  6
CONTINUOUS
 62
     7
100
AcDbLine
 10
65.761926
 20
106.639293
 30
0.0
 11
65.763599
 21
106.605823
 31
0.0
  0
LINE
  5
54E
330
511
100
AcDbEntity
  8
0
  6
CONTINUOUS
 62
     7
100
AcDbLine
 10
65.763599
 20
106.605823
 30
0.0
 11
65.764946
 21
106.572313
 31
0.0
  0
LINE
  5
54F
330
511
100
AcDbEntity
  8
0
  6
CONTINUOUS
 62
     7
100
AcDbLine
 10
65.764946
 20
106.572313
 30
0.0
 11
65.765496
 21
106.555543
 31
0.0
  0
LINE
  5
550
330
511
100
AcDbEntity
  8
0
  6
CONTINUOUS
 62
     7
100
AcDbLine
 10
65.765496
 20
106.555543
 30
0.0
 11
65.765962
 21
106.538763
 31
0.0
  0
LINE
  5
551
330
511
100
AcDbEntity
  8
0
  6
CONTINUOUS
 62
     7
100
AcDbLine
 10
65.765962
 20
106.538763
 30
0.0
 11
65.766344
 21
106.521973
 31
0.0
  0
LINE
  5
552
330
511
100
AcDbEntity
  8
0
  6
CONTINUOUS
 62
     7
100
AcDbLine
 10
65.766344
 20
106.521973
 30
0.0
 11
65.766641
 21
106.505173
 31
0.0
  0
LINE
  5
553
330
511
100
AcDbEntity
  8
0
  6
CONTINUOUS
 62
     7
100
AcDbLine
 10
65.766641
 20
106.505173
 30
0.0
 11
65.767018
 21
106.469825
 31
0.0
  0
LINE
  5
554
330
511
100
AcDbEntity
  8
0
  6
CONTINUOUS
 62
     7
100
AcDbLine
 10
65.767018
 20
106.469825
 30
0.0
 11
65.767207
 21
106.434455
 31
0.0
  0
ENDBLK
  5
513
330
511
100
AcDbEntity
  8
0
100
AcDbBlockEnd
  0
BLOCK
  5
564
330
563
100
AcDbEntity
  8
0
100
AcDbBlockBegin
  2
BLKF029
 70
     0
 71
     0
 10
0.0
 20
0.0
 30
0.0
  3
BLKF029
  1

  0
LINE
  5
567
330
563
100
AcDbEntity
  8
0
  6
CONTINUOUS
 62
     7
100
AcDbLine
 10
61.267205
 20
102.599518
 30
0.0
 11
61.290107
 21
102.534956
 31
0.0
  0
LINE
  5
568
330
563
100
AcDbEntity
  8
0
  6
CONTINUOUS
 62
     7
100
AcDbLine
 10
61.290107
 20
102.534956
 30
0.0
 11
61.312967
 21
102.47039
 31
0.0
  0
LINE
  5
569
330
563
100
AcDbEntity
  8
0
  6
CONTINUOUS
 62
     7
100
AcDbLine
 10
61.312967
 20
102.47039
 30
0.0
 11
61.335741
 21
102.405812
 31
0.0
  0
LINE
  5
56A
330
563
100
AcDbEntity
  8
0
  6
CONTINUOUS
 62
     7
100
AcDbLine
 10
61.335741
 20
102.405812
 30
0.0
 11
61.358386
 21
102.341219
 31
0.0
  0
LINE
  5
56B
330
563
100
AcDbEntity
  8
0
  6
CONTINUOUS
 62
     7
100
AcDbLine
 10
61.358386
 20
102.341219
 30
0.0
 11
61.369647
 21
102.308915
 31
0.0
  0
LINE
  5
56C
330
563
100
AcDbEntity
  8
0
  6
CONTINUOUS
 62
     7
100
AcDbLine
 10
61.369647
 20
102.308915
 30
0.0
 11
61.38086
 21
102.276606
 31
0.0
  0
LINE
  5
56D
330
563
100
AcDbEntity
  8
0
  6
CONTINUOUS
 62
     7
100
AcDbLine
 10
61.38086
 20
102.276606
 30
0.0
 11
61.39202
 21
102.244289
 31
0.0
  0
LINE
  5
56E
330
563
100
AcDbEntity
  8
0
  6
CONTINUOUS
 62
     7
100
AcDbLine
 10
61.39202
 20
102.244289
 30
0.0
 11
61.403121
 21
102.211966
 31
0.0
  0
LINE
  5
56F
330
563
100
AcDbEntity
  8
0
  6
CONTINUOUS
 62
     7
100
AcDbLine
 10
61.403121
 20
102.211966
 30
0.0
 11
61.414157
 21
102.179635
 31
0.0
  0
LINE
  5
570
330
563
100
AcDbEntity
  8
0
  6
CONTINUOUS
 62
     7
100
AcDbLine
 10
61.414157
 20
102.179635
 30
0.0
 11
61.425124
 21
102.147295
 31
0.0
  0
LINE
  5
571
330
563
100
AcDbEntity
  8
0
  6
CONTINUOUS
 62
     7
100
AcDbLine
 10
61.425124
 20
102.147295
 30
0.0
 11
61.436016
 21
102.114946
 31
0.0
  0
LINE
  5
572
330
563
100
AcDbEntity
  8
0
  6
CONTINUOUS
 62
     7
100
AcDbLine
 10
61.436016
 20
102.114946
 30
0.0
 11
61.446828
 21
102.082588
 31
0.0
  0
LINE
  5
573
330
563
100
AcDbEntity
  8
0
  6
CONTINUOUS
 62
     7
100
AcDbLine
 10
61.446828
 20
102.082588
 30
0.0
 11
61.457555
 21
102.050219
 31
0.0
  0
LINE
  5
574
330
563
100
AcDbEntity
  8
0
  6
CONTINUOUS
 62
     7
100
AcDbLine
 10
61.457555
 20
102.050219
 30
0.0
 11
61.46819
 21
102.017839
 31
0.0
  0
LINE
  5
575
330
563
100
AcDbEntity
  8
0
  6
CONTINUOUS
 62
     7
100
AcDbLine
 10
61.46819
 20
102.017839
 30
0.0
 11
61.47873
 21
101.985447
 31
0.0
  0
LINE
  5
576
330
563
100
AcDbEntity
  8
0
  6
CONTINUOUS
 62
     7
100
AcDbLine
 10
61.47873
 20
101.985447
 30
0.0
 11
61.489167
 21
101.953043
 31
0.0
  0
LINE
  5
577
330
563
100
AcDbEntity
  8
0
  6
CONTINUOUS
 62
     7
100
AcDbLine
 10
61.489167
 20
101.953043
 30
0.0
 11
61.499498
 21
101.920626
 31
0.0
  0
LINE
  5
578
330
563
100
AcDbEntity
  8
0
  6
CONTINUOUS
 62
     7
100
AcDbLine
 10
61.499498
 20
101.920626
 30
0.0
 11
61.509716
 21
101.888195
 31
0.0
  0
LINE
  5
579
330
563
100
AcDbEntity
  8
0
  6
CONTINUOUS
 62
     7
100
AcDbLine
 10
61.509716
 20
101.888195
 30
0.0
 11
61.519817
 21
101.85575
 31
0.0
  0
LINE
  5
57A
330
563
100
AcDbEntity
  8
0
  6
CONTINUOUS
 62
     7
100
AcDbLine
 10
61.519817
 20
101.85575
 30
0.0
 11
61.529795
 21
101.82329
 31
0.0
  0
LINE
  5
57B
330
563
100
AcDbEntity
  8
0
  6
CONTINUOUS
 62
     7
100
AcDbLine
 10
61.529795
 20
101.82329
 30
0.0
 11
61.539644
 21
101.790815
 31
0.0
  0
LINE
  5
57C
330
563
100
AcDbEntity
  8
0
  6
CONTINUOUS
 62
     7
100
AcDbLine
 10
61.539644
 20
101.790815
 30
0.0
 11
61.54936
 21
101.758323
 31
0.0
  0
LINE
  5
57D
330
563
100
AcDbEntity
  8
0
  6
CONTINUOUS
 62
     7
100
AcDbLine
 10
61.54936
 20
101.758323
 30
0.0
 11
61.558936
 21
101.725814
 31
0.0
  0
LINE
  5
57E
330
563
100
AcDbEntity
  8
0
  6
CONTINUOUS
 62
     7
100
AcDbLine
 10
61.558936
 20
101.725814
 30
0.0
 11
61.568369
 21
101.693288
 31
0.0
  0
LINE
  5
57F
330
563
100
AcDbEntity
  8
0
  6
CONTINUOUS
 62
     7
100
AcDbLine
 10
61.568369
 20
101.693288
 30
0.0
 11
61.577651
 21
101.660744
 31
0.0
  0
LINE
  5
580
330
563
100
AcDbEntity
  8
0
  6
CONTINUOUS
 62
     7
100
AcDbLine
 10
61.577651
 20
101.660744
 30
0.0
 11
61.586778
 21
101.628181
 31
0.0
  0
LINE
  5
581
330
563
100
AcDbEntity
  8
0
  6
CONTINUOUS
 62
     7
100
AcDbLine
 10
61.586778
 20
101.628181
 30
0.0
 11
61.595745
 21
101.595598
 31
0.0
  0
LINE
  5
582
330
563
100
AcDbEntity
  8
0
  6
CONTINUOUS
 62
     7
100
AcDbLine
 10
61.595745
 20
101.595598
 30
0.0
 11
61.604547
 21
101.562995
 31
0.0
  0
LINE
  5
583
330
563
100
AcDbEntity
  8
0
  6
CONTINUOUS
 62
     7
100
AcDbLine
 10
61.604547
 20
101.562995
 30
0.0
 11
61.613177
 21
101.530371
 31
0.0
  0
LINE
  5
584
330
563
100
AcDbEntity
  8
0
  6
CONTINUOUS
 62
     7
100
AcDbLine
 10
61.613177
 20
101.530371
 30
0.0
 11
61.62163
 21
101.497726
 31
0.0
  0
LINE
  5
585
330
563
100
AcDbEntity
  8
0
  6
CONTINUOUS
 62
     7
100
AcDbLine
 10
61.62163
 20
101.497726
 30
0.0
 11
61.629902
 21
101.465059
 31
0.0
  0
LINE
  5
586
330
563
100
AcDbEntity
  8
0
  6
CONTINUOUS
 62
     7
100
AcDbLine
 10
61.629902
 20
101.465059
 30
0.0
 11
61.637986
 21
101.432369
 31
0.0
  0
LINE
  5
587
330
563
100
AcDbEntity
  8
0
  6
CONTINUOUS
 62
     7
100
AcDbLine
 10
61.637986
 20
101.432369
 30
0.0
 11
61.645878
 21
101.399655
 31
0.0
  0
LINE
  5
588
330
563
100
AcDbEntity
  8
0
  6
CONTINUOUS
 62
     7
100
AcDbLine
 10
61.645878
 20
101.399655
 30
0.0
 11
61.653573
 21
101.366918
 31
0.0
  0
LINE
  5
589
330
563
100
AcDbEntity
  8
0
  6
CONTINUOUS
 62
     7
100
AcDbLine
 10
61.653573
 20
101.366918
 30
0.0
 11
61.661064
 21
101.334156
 31
0.0
  0
LINE
  5
58A
330
563
100
AcDbEntity
  8
0
  6
CONTINUOUS
 62
     7
100
AcDbLine
 10
61.661064
 20
101.334156
 30
0.0
 11
61.668346
 21
101.301368
 31
0.0
  0
LINE
  5
58B
330
563
100
AcDbEntity
  8
0
  6
CONTINUOUS
 62
     7
100
AcDbLine
 10
61.668346
 20
101.301368
 30
0.0
 11
61.675414
 21
101.268554
 31
0.0
  0
LINE
  5
58C
330
563
100
AcDbEntity
  8
0
  6
CONTINUOUS
 62
     7
100
AcDbLine
 10
61.675414
 20
101.268554
 30
0.0
 11
61.682264
 21
101.235714
 31
0.0
  0
LINE
  5
58D
330
563
100
AcDbEntity
  8
0
  6
CONTINUOUS
 62
     7
100
AcDbLine
 10
61.682264
 20
101.235714
 30
0.0
 11
61.688888
 21
101.202847
 31
0.0
  0
LINE
  5
58E
330
563
100
AcDbEntity
  8
0
  6
CONTINUOUS
 62
     7
100
AcDbLine
 10
61.688888
 20
101.202847
 30
0.0
 11
61.695283
 21
101.169951
 31
0.0
  0
LINE
  5
58F
330
563
100
AcDbEntity
  8
0
  6
CONTINUOUS
 62
     7
100
AcDbLine
 10
61.695283
 20
101.169951
 30
0.0
 11
61.701442
 21
101.137027
 31
0.0
  0
LINE
  5
590
330
563
100
AcDbEntity
  8
0
  6
CONTINUOUS
 62
     7
100
AcDbLine
 10
61.701442
 20
101.137027
 30
0.0
 11
61.707361
 21
101.104074
 31
0.0
  0
LINE
  5
591
330
563
100
AcDbEntity
  8
0
  6
CONTINUOUS
 62
     7
100
AcDbLine
 10
61.707361
 20
101.104074
 30
0.0
 11
61.713033
 21
101.071091
 31
0.0
  0
LINE
  5
592
330
563
100
AcDbEntity
  8
0
  6
CONTINUOUS
 62
     7
100
AcDbLine
 10
61.713033
 20
101.071091
 30
0.0
 11
61.718455
 21
101.038077
 31
0.0
  0
LINE
  5
593
330
563
100
AcDbEntity
  8
0
  6
CONTINUOUS
 62
     7
100
AcDbLine
 10
61.718455
 20
101.038077
 30
0.0
 11
61.723619
 21
101.005032
 31
0.0
  0
LINE
  5
594
330
563
100
AcDbEntity
  8
0
  6
CONTINUOUS
 62
     7
100
AcDbLine
 10
61.723619
 20
101.005032
 30
0.0
 11
61.728522
 21
100.971956
 31
0.0
  0
LINE
  5
595
330
563
100
AcDbEntity
  8
0
  6
CONTINUOUS
 62
     7
100
AcDbLine
 10
61.728522
 20
100.971956
 30
0.0
 11
61.733157
 21
100.938846
 31
0.0
  0
LINE
  5
596
330
563
100
AcDbEntity
  8
0
  6
CONTINUOUS
 62
     7
100
AcDbLine
 10
61.733157
 20
100.938846
 30
0.0
 11
61.737519
 21
100.905704
 31
0.0
  0
LINE
  5
597
330
563
100
AcDbEntity
  8
0
  6
CONTINUOUS
 62
     7
100
AcDbLine
 10
61.737519
 20
100.905704
 30
0.0
 11
61.741604
 21
100.872528
 31
0.0
  0
LINE
  5
598
330
563
100
AcDbEntity
  8
0
  6
CONTINUOUS
 62
     7
100
AcDbLine
 10
61.741604
 20
100.872528
 30
0.0
 11
61.745404
 21
100.839317
 31
0.0
  0
LINE
  5
599
330
563
100
AcDbEntity
  8
0
  6
CONTINUOUS
 62
     7
100
AcDbLine
 10
61.745404
 20
100.839317
 30
0.0
 11
61.748917
 21
100.806071
 31
0.0
  0
LINE
  5
59A
330
563
100
AcDbEntity
  8
0
  6
CONTINUOUS
 62
     7
100
AcDbLine
 10
61.748917
 20
100.806071
 30
0.0
 11
61.752135
 21
100.77279
 31
0.0
  0
LINE
  5
59B
330
563
100
AcDbEntity
  8
0
  6
CONTINUOUS
 62
     7
100
AcDbLine
 10
61.752135
 20
100.77279
 30
0.0
 11
61.755053
 21
100.739472
 31
0.0
  0
LINE
  5
59C
330
563
100
AcDbEntity
  8
0
  6
CONTINUOUS
 62
     7
100
AcDbLine
 10
61.755053
 20
100.739472
 30
0.0
 11
61.757667
 21
100.706117
 31
0.0
  0
LINE
  5
59D
330
563
100
AcDbEntity
  8
0
  6
CONTINUOUS
 62
     7
100
AcDbLine
 10
61.757667
 20
100.706117
 30
0.0
 11
61.75997
 21
100.672724
 31
0.0
  0
LINE
  5
59E
330
563
100
AcDbEntity
  8
0
  6
CONTINUOUS
 62
     7
100
AcDbLine
 10
61.75997
 20
100.672724
 30
0.0
 11
61.761958
 21
100.639293
 31
0.0
  0
LINE
  5
59F
330
563
100
AcDbEntity
  8
0
  6
CONTINUOUS
 62
     7
100
AcDbLine
 10
61.761958
 20
100.639293
 30
0.0
 11
61.763625
 21
100.605823
 31
0.0
  0
LINE
  5
5A0
330
563
100
AcDbEntity
  8
0
  6
CONTINUOUS
 62
     7
100
AcDbLine
 10
61.763625
 20
100.605823
 30
0.0
 11
61.764966
 21
100.572313
 31
0.0
  0
LINE
  5
5A1
330
563
100
AcDbEntity
  8
0
  6
CONTINUOUS
 62
     7
100
AcDbLine
 10
61.764966
 20
100.572313
 30
0.0
 11
61.765512
 21
100.555544
 31
0.0
  0
LINE
  5
5A2
330
563
100
AcDbEntity
  8
0
  6
CONTINUOUS
 62
     7
100
AcDbLine
 10
61.765512
 20
100.555544
 30
0.0
 11
61.765975
 21
100.538763
 31
0.0
  0
LINE
  5
5A3
330
563
100
AcDbEntity
  8
0
  6
CONTINUOUS
 62
     7
100
AcDbLine
 10
61.765975
 20
100.538763
 30
0.0
 11
61.766354
 21
100.521973
 31
0.0
  0
LINE
  5
5A4
330
563
100
AcDbEntity
  8
0
  6
CONTINUOUS
 62
     7
100
AcDbLine
 10
61.766354
 20
100.521973
 30
0.0
 11
61.766648
 21
100.505173
 31
0.0
  0
LINE
  5
5A5
330
563
100
AcDbEntity
  8
0
  6
CONTINUOUS
 62
     7
100
AcDbLine
 10
61.766648
 20
100.505173
 30
0.0
 11
61.767018
 21
100.469825
 31
0.0
  0
LINE
  5
5A6
330
563
100
AcDbEntity
  8
0
  6
CONTINUOUS
 62
     7
100
AcDbLine
 10
61.767018
 20
100.469825
 30
0.0
 11
61.767199
 21
100.434455
 31
0.0
  0
ENDBLK
  5
565
330
563
100
AcDbEntity
  8
0
100
AcDbBlockEnd
  0
BLOCK
  5
5AF
330
5AE
100
AcDbEntity
  8
0
100
AcDbBlockBegin
  2
BLKF030
 70
     0
 71
     0
 10
0.0
 20
0.0
 30
0.0
  3
BLKF030
  1

  0
LINE
  5
5B2
330
5AE
100
AcDbEntity
  8
0
  6
CONTINUOUS
 62
     7
100
AcDbLine
 10
61.267205
 20
108.599518
 30
0.0
 11
61.290107
 21
108.534957
 31
0.0
  0
LINE
  5
5B3
330
5AE
100
AcDbEntity
  8
0
  6
CONTINUOUS
 62
     7
100
AcDbLine
 10
61.290107
 20
108.534957
 30
0.0
 11
61.312967
 21
108.47039
 31
0.0
  0
LINE
  5
5B4
330
5AE
100
AcDbEntity
  8
0
  6
CONTINUOUS
 62
     7
100
AcDbLine
 10
61.312967
 20
108.47039
 30
0.0
 11
61.335741
 21
108.405812
 31
0.0
  0
LINE
  5
5B5
330
5AE
100
AcDbEntity
  8
0
  6
CONTINUOUS
 62
     7
100
AcDbLine
 10
61.335741
 20
108.405812
 30
0.0
 11
61.358386
 21
108.341219
 31
0.0
  0
LINE
  5
5B6
330
5AE
100
AcDbEntity
  8
0
  6
CONTINUOUS
 62
     7
100
AcDbLine
 10
61.358386
 20
108.341219
 30
0.0
 11
61.369647
 21
108.308915
 31
0.0
  0
LINE
  5
5B7
330
5AE
100
AcDbEntity
  8
0
  6
CONTINUOUS
 62
     7
100
AcDbLine
 10
61.369647
 20
108.308915
 30
0.0
 11
61.38086
 21
108.276606
 31
0.0
  0
LINE
  5
5B8
330
5AE
100
AcDbEntity
  8
0
  6
CONTINUOUS
 62
     7
100
AcDbLine
 10
61.38086
 20
108.276606
 30
0.0
 11
61.39202
 21
108.244289
 31
0.0
  0
LINE
  5
5B9
330
5AE
100
AcDbEntity
  8
0
  6
CONTINUOUS
 62
     7
100
AcDbLine
 10
61.39202
 20
108.244289
 30
0.0
 11
61.403121
 21
108.211966
 31
0.0
  0
LINE
  5
5BA
330
5AE
100
AcDbEntity
  8
0
  6
CONTINUOUS
 62
     7
100
AcDbLine
 10
61.403121
 20
108.211966
 30
0.0
 11
61.414157
 21
108.179635
 31
0.0
  0
LINE
  5
5BB
330
5AE
100
AcDbEntity
  8
0
  6
CONTINUOUS
 62
     7
100
AcDbLine
 10
61.414157
 20
108.179635
 30
0.0
 11
61.425124
 21
108.147295
 31
0.0
  0
LINE
  5
5BC
330
5AE
100
AcDbEntity
  8
0
  6
CONTINUOUS
 62
     7
100
AcDbLine
 10
61.425124
 20
108.147295
 30
0.0
 11
61.436016
 21
108.114946
 31
0.0
  0
LINE
  5
5BD
330
5AE
100
AcDbEntity
  8
0
  6
CONTINUOUS
 62
     7
100
AcDbLine
 10
61.436016
 20
108.114946
 30
0.0
 11
61.446828
 21
108.082588
 31
0.0
  0
LINE
  5
5BE
330
5AE
100
AcDbEntity
  8
0
  6
CONTINUOUS
 62
     7
100
AcDbLine
 10
61.446828
 20
108.082588
 30
0.0
 11
61.457555
 21
108.050219
 31
0.0
  0
LINE
  5
5BF
330
5AE
100
AcDbEntity
  8
0
  6
CONTINUOUS
 62
     7
100
AcDbLine
 10
61.457555
 20
108.050219
 30
0.0
 11
61.46819
 21
108.017839
 31
0.0
  0
LINE
  5
5C0
330
5AE
100
AcDbEntity
  8
0
  6
CONTINUOUS
 62
     7
100
AcDbLine
 10
61.46819
 20
108.017839
 30
0.0
 11
61.47873
 21
107.985447
 31
0.0
  0
LINE
  5
5C1
330
5AE
100
AcDbEntity
  8
0
  6
CONTINUOUS
 62
     7
100
AcDbLine
 10
61.47873
 20
107.985447
 30
0.0
 11
61.489167
 21
107.953043
 31
0.0
  0
LINE
  5
5C2
330
5AE
100
AcDbEntity
  8
0
  6
CONTINUOUS
 62
     7
100
AcDbLine
 10
61.489167
 20
107.953043
 30
0.0
 11
61.499498
 21
107.920626
 31
0.0
  0
LINE
  5
5C3
330
5AE
100
AcDbEntity
  8
0
  6
CONTINUOUS
 62
     7
100
AcDbLine
 10
61.499498
 20
107.920626
 30
0.0
 11
61.509716
 21
107.888195
 31
0.0
  0
LINE
  5
5C4
330
5AE
100
AcDbEntity
  8
0
  6
CONTINUOUS
 62
     7
100
AcDbLine
 10
61.509716
 20
107.888195
 30
0.0
 11
61.519817
 21
107.85575
 31
0.0
  0
LINE
  5
5C5
330
5AE
100
AcDbEntity
  8
0
  6
CONTINUOUS
 62
     7
100
AcDbLine
 10
61.519817
 20
107.85575
 30
0.0
 11
61.529795
 21
107.82329
 31
0.0
  0
LINE
  5
5C6
330
5AE
100
AcDbEntity
  8
0
  6
CONTINUOUS
 62
     7
100
AcDbLine
 10
61.529795
 20
107.82329
 30
0.0
 11
61.539644
 21
107.790815
 31
0.0
  0
LINE
  5
5C7
330
5AE
100
AcDbEntity
  8
0
  6
CONTINUOUS
 62
     7
100
AcDbLine
 10
61.539644
 20
107.790815
 30
0.0
 11
61.54936
 21
107.758323
 31
0.0
  0
LINE
  5
5C8
330
5AE
100
AcDbEntity
  8
0
  6
CONTINUOUS
 62
     7
100
AcDbLine
 10
61.54936
 20
107.758323
 30
0.0
 11
61.558936
 21
107.725814
 31
0.0
  0
LINE
  5
5C9
330
5AE
100
AcDbEntity
  8
0
  6
CONTINUOUS
 62
     7
100
AcDbLine
 10
61.558936
 20
107.725814
 30
0.0
 11
61.568369
 21
107.693288
 31
0.0
  0
LINE
  5
5CA
330
5AE
100
AcDbEntity
  8
0
  6
CONTINUOUS
 62
     7
100
AcDbLine
 10
61.568369
 20
107.693288
 30
0.0
 11
61.577651
 21
107.660744
 31
0.0
  0
LINE
  5
5CB
330
5AE
100
AcDbEntity
  8
0
  6
CONTINUOUS
 62
     7
100
AcDbLine
 10
61.577651
 20
107.660744
 30
0.0
 11
61.586778
 21
107.628181
 31
0.0
  0
LINE
  5
5CC
330
5AE
100
AcDbEntity
  8
0
  6
CONTINUOUS
 62
     7
100
AcDbLine
 10
61.586778
 20
107.628181
 30
0.0
 11
61.595745
 21
107.595598
 31
0.0
  0
LINE
  5
5CD
330
5AE
100
AcDbEntity
  8
0
  6
CONTINUOUS
 62
     7
100
AcDbLine
 10
61.595745
 20
107.595598
 30
0.0
 11
61.604547
 21
107.562995
 31
0.0
  0
LINE
  5
5CE
330
5AE
100
AcDbEntity
  8
0
  6
CONTINUOUS
 62
     7
100
AcDbLine
 10
61.604547
 20
107.562995
 30
0.0
 11
61.613177
 21
107.530371
 31
0.0
  0
LINE
  5
5CF
330
5AE
100
AcDbEntity
  8
0
  6
CONTINUOUS
 62
     7
100
AcDbLine
 10
61.613177
 20
107.530371
 30
0.0
 11
61.62163
 21
107.497726
 31
0.0
  0
LINE
  5
5D0
330
5AE
100
AcDbEntity
  8
0
  6
CONTINUOUS
 62
     7
100
AcDbLine
 10
61.62163
 20
107.497726
 30
0.0
 11
61.629902
 21
107.465059
 31
0.0
  0
LINE
  5
5D1
330
5AE
100
AcDbEntity
  8
0
  6
CONTINUOUS
 62
     7
100
AcDbLine
 10
61.629902
 20
107.465059
 30
0.0
 11
61.637986
 21
107.432369
 31
0.0
  0
LINE
  5
5D2
330
5AE
100
AcDbEntity
  8
0
  6
CONTINUOUS
 62
     7
100
AcDbLine
 10
61.637986
 20
107.432369
 30
0.0
 11
61.645878
 21
107.399655
 31
0.0
  0
LINE
  5
5D3
330
5AE
100
AcDbEntity
  8
0
  6
CONTINUOUS
 62
     7
100
AcDbLine
 10
61.645878
 20
107.399655
 30
0.0
 11
61.653573
 21
107.366918
 31
0.0
  0
LINE
  5
5D4
330
5AE
100
AcDbEntity
  8
0
  6
CONTINUOUS
 62
     7
100
AcDbLine
 10
61.653573
 20
107.366918
 30
0.0
 11
61.661064
 21
107.334156
 31
0.0
  0
LINE
  5
5D5
330
5AE
100
AcDbEntity
  8
0
  6
CONTINUOUS
 62
     7
100
AcDbLine
 10
61.661064
 20
107.334156
 30
0.0
 11
61.668346
 21
107.301368
 31
0.0
  0
LINE
  5
5D6
330
5AE
100
AcDbEntity
  8
0
  6
CONTINUOUS
 62
     7
100
AcDbLine
 10
61.668346
 20
107.301368
 30
0.0
 11
61.675414
 21
107.268555
 31
0.0
  0
LINE
  5
5D7
330
5AE
100
AcDbEntity
  8
0
  6
CONTINUOUS
 62
     7
100
AcDbLine
 10
61.675414
 20
107.268555
 30
0.0
 11
61.682264
 21
107.235714
 31
0.0
  0
LINE
  5
5D8
330
5AE
100
AcDbEntity
  8
0
  6
CONTINUOUS
 62
     7
100
AcDbLine
 10
61.682264
 20
107.235714
 30
0.0
 11
61.688888
 21
107.202847
 31
0.0
  0
LINE
  5
5D9
330
5AE
100
AcDbEntity
  8
0
  6
CONTINUOUS
 62
     7
100
AcDbLine
 10
61.688888
 20
107.202847
 30
0.0
 11
61.695283
 21
107.169951
 31
0.0
  0
LINE
  5
5DA
330
5AE
100
AcDbEntity
  8
0
  6
CONTINUOUS
 62
     7
100
AcDbLine
 10
61.695283
 20
107.169951
 30
0.0
 11
61.701442
 21
107.137027
 31
0.0
  0
LINE
  5
5DB
330
5AE
100
AcDbEntity
  8
0
  6
CONTINUOUS
 62
     7
100
AcDbLine
 10
61.701442
 20
107.137027
 30
0.0
 11
61.707361
 21
107.104074
 31
0.0
  0
LINE
  5
5DC
330
5AE
100
AcDbEntity
  8
0
  6
CONTINUOUS
 62
     7
100
AcDbLine
 10
61.707361
 20
107.104074
 30
0.0
 11
61.713033
 21
107.071091
 31
0.0
  0
LINE
  5
5DD
330
5AE
100
AcDbEntity
  8
0
  6
CONTINUOUS
 62
     7
100
AcDbLine
 10
61.713033
 20
107.071091
 30
0.0
 11
61.718455
 21
107.038077
 31
0.0
  0
LINE
  5
5DE
330
5AE
100
AcDbEntity
  8
0
  6
CONTINUOUS
 62
     7
100
AcDbLine
 10
61.718455
 20
107.038077
 30
0.0
 11
61.723619
 21
107.005032
 31
0.0
  0
LINE
  5
5DF
330
5AE
100
AcDbEntity
  8
0
  6
CONTINUOUS
 62
     7
100
AcDbLine
 10
61.723619
 20
107.005032
 30
0.0
 11
61.728522
 21
106.971956
 31
0.0
  0
LINE
  5
5E0
330
5AE
100
AcDbEntity
  8
0
  6
CONTINUOUS
 62
     7
100
AcDbLine
 10
61.728522
 20
106.971956
 30
0.0
 11
61.733157
 21
106.938846
 31
0.0
  0
LINE
  5
5E1
330
5AE
100
AcDbEntity
  8
0
  6
CONTINUOUS
 62
     7
100
AcDbLine
 10
61.733157
 20
106.938846
 30
0.0
 11
61.737519
 21
106.905704
 31
0.0
  0
LINE
  5
5E2
330
5AE
100
AcDbEntity
  8
0
  6
CONTINUOUS
 62
     7
100
AcDbLine
 10
61.737519
 20
106.905704
 30
0.0
 11
61.741604
 21
106.872528
 31
0.0
  0
LINE
  5
5E3
330
5AE
100
AcDbEntity
  8
0
  6
CONTINUOUS
 62
     7
100
AcDbLine
 10
61.741604
 20
106.872528
 30
0.0
 11
61.745404
 21
106.839317
 31
0.0
  0
LINE
  5
5E4
330
5AE
100
AcDbEntity
  8
0
  6
CONTINUOUS
 62
     7
100
AcDbLine
 10
61.745404
 20
106.839317
 30
0.0
 11
61.748917
 21
106.806071
 31
0.0
  0
LINE
  5
5E5
330
5AE
100
AcDbEntity
  8
0
  6
CONTINUOUS
 62
     7
100
AcDbLine
 10
61.748917
 20
106.806071
 30
0.0
 11
61.752135
 21
106.77279
 31
0.0
  0
LINE
  5
5E6
330
5AE
100
AcDbEntity
  8
0
  6
CONTINUOUS
 62
     7
100
AcDbLine
 10
61.752135
 20
106.77279
 30
0.0
 11
61.755053
 21
106.739472
 31
0.0
  0
LINE
  5
5E7
330
5AE
100
AcDbEntity
  8
0
  6
CONTINUOUS
 62
     7
100
AcDbLine
 10
61.755053
 20
106.739472
 30
0.0
 11
61.757667
 21
106.706117
 31
0.0
  0
LINE
  5
5E8
330
5AE
100
AcDbEntity
  8
0
  6
CONTINUOUS
 62
     7
100
AcDbLine
 10
61.757667
 20
106.706117
 30
0.0
 11
61.75997
 21
106.672724
 31
0.0
  0
LINE
  5
5E9
330
5AE
100
AcDbEntity
  8
0
  6
CONTINUOUS
 62
     7
100
AcDbLine
 10
61.75997
 20
106.672724
 30
0.0
 11
61.761958
 21
106.639293
 31
0.0
  0
LINE
  5
5EA
330
5AE
100
AcDbEntity
  8
0
  6
CONTINUOUS
 62
     7
100
AcDbLine
 10
61.761958
 20
106.639293
 30
0.0
 11
61.763625
 21
106.605823
 31
0.0
  0
LINE
  5
5EB
330
5AE
100
AcDbEntity
  8
0
  6
CONTINUOUS
 62
     7
100
AcDbLine
 10
61.763625
 20
106.605823
 30
0.0
 11
61.764966
 21
106.572313
 31
0.0
  0
LINE
  5
5EC
330
5AE
100
AcDbEntity
  8
0
  6
CONTINUOUS
 62
     7
100
AcDbLine
 10
61.764966
 20
106.572313
 30
0.0
 11
61.765512
 21
106.555544
 31
0.0
  0
LINE
  5
5ED
330
5AE
100
AcDbEntity
  8
0
  6
CONTINUOUS
 62
     7
100
AcDbLine
 10
61.765512
 20
106.555544
 30
0.0
 11
61.765975
 21
106.538764
 31
0.0
  0
LINE
  5
5EE
330
5AE
100
AcDbEntity
  8
0
  6
CONTINUOUS
 62
     7
100
AcDbLine
 10
61.765975
 20
106.538764
 30
0.0
 11
61.766354
 21
106.521973
 31
0.0
  0
LINE
  5
5EF
330
5AE
100
AcDbEntity
  8
0
  6
CONTINUOUS
 62
     7
100
AcDbLine
 10
61.766354
 20
106.521973
 30
0.0
 11
61.766648
 21
106.505173
 31
0.0
  0
LINE
  5
5F0
330
5AE
100
AcDbEntity
  8
0
  6
CONTINUOUS
 62
     7
100
AcDbLine
 10
61.766648
 20
106.505173
 30
0.0
 11
61.767018
 21
106.469825
 31
0.0
  0
LINE
  5
5F1
330
5AE
100
AcDbEntity
  8
0
  6
CONTINUOUS
 62
     7
100
AcDbLine
 10
61.767018
 20
106.469825
 30
0.0
 11
61.767199
 21
106.434455
 31
0.0
  0
ENDBLK
  5
5B0
330
5AE
100
AcDbEntity
  8
0
100
AcDbBlockEnd
  0
BLOCK
  5
605
330
604
100
AcDbEntity
  8
0
100
AcDbBlockBegin
  2
BLKF031
 70
     0
 71
     0
 10
0.0
 20
0.0
 30
0.0
  3
BLKF031
  1

  0
LINE
  5
608
330
604
100
AcDbEntity
  8
CSLAYER2
  6
CONTINUOUS
 62
     3
100
AcDbLine
 10
23.331305
 20
113.684455
 30
0.0
 11
23.867203
 21
115.684455
 31
0.0
  0
LINE
  5
609
330
604
100
AcDbEntity
  8
CSLAYER2
  6
CONTINUOUS
 62
     3
100
AcDbLine
 10
23.867203
 20
115.684455
 30
0.0
 11
24.403101
 21
113.684455
 31
0.0
  0
LINE
  5
60A
330
604
100
AcDbEntity
  8
CSLAYER2
  6
CONTINUOUS
 62
     3
100
AcDbLine
 10
23.867203
 20
115.684455
 30
0.0
 11
23.867203
 21
113.684455
 31
0.0
  0
LINE
  5
60B
330
604
100
AcDbEntity
  8
CSLAYER2
  6
CONTINUOUS
 62
     3
100
AcDbLine
 10
24.403101
 20
98.784455
 30
0.0
 11
23.867203
 21
96.784455
 31
0.0
  0
LINE
  5
60C
330
604
100
AcDbEntity
  8
CSLAYER2
  6
CONTINUOUS
 62
     3
100
AcDbLine
 10
23.867203
 20
96.784455
 30
0.0
 11
23.331305
 21
98.784455
 31
0.0
  0
LINE
  5
60D
330
604
100
AcDbEntity
  8
CSLAYER2
  6
CONTINUOUS
 62
     3
100
AcDbLine
 10
23.867203
 20
96.784455
 30
0.0
 11
23.867203
 21
98.784455
 31
0.0
  0
LINE
  5
60E
330
604
100
AcDbEntity
  8
CSLAYER2
  6
CONTINUOUS
 62
     3
100
AcDbLine
 10
40.307203
 20
115.684455
 30
0.0
 11
23.067203
 21
115.684455
 31
0.0
  0
LINE
  5
60F
330
604
100
AcDbEntity
  8
CSLAYER2
  6
CONTINUOUS
 62
     3
100
AcDbLine
 10
40.307203
 20
96.784455
 30
0.0
 11
23.067203
 21
96.784455
 31
0.0
  0
LINE
  5
610
330
604
100
AcDbEntity
  8
CSLAYER2
  6
CONTINUOUS
 62
     3
100
AcDbLine
 10
23.867203
 20
115.684455
 30
0.0
 11
23.867203
 21
96.784455
 31
0.0
  0
TEXT
  5
611
330
604
100
AcDbEntity
  8
CSLAYER2
 62
     3
100
AcDbText
 10
23.0
 20
102.21154
 30
0.0
 40
3.0
  1
18.9
 50
90.0
 41
0.890909
  7
ED_VECTOR
 72
     5
 11
23.0
 21
110.61154
 31
0.0
100
AcDbText
  0
ENDBLK
  5
606
330
604
100
AcDbEntity
  8
0
100
AcDbBlockEnd
  0
ENDSEC
  0
SECTION
  2
ENTITIES
  0
INSERT
  5
72
330
1F
100
AcDbEntity
  8
0
100
AcDbBlockReference
  2
BLKF011
 10
0.0
 20
0.0
 30
0.0
  0
LINE
  5
112
330
1F
100
AcDbEntity
  8
0
  6
CONTINUOUS
 62
     7
100
AcDbLine
 10
227.155033
 20
36.599147
 30
0.0
 11
231.355044
 21
36.599147
 31
0.0
  0
LINE
  5
113
330
1F
100
AcDbEntity
  8
0
  6
CONTINUOUS
 62
     7
100
AcDbLine
 10
231.355044
 20
54.699146
 30
0.0
 11
227.155033
 21
54.699146
 31
0.0
  0
LINE
  5
114
330
1F
100
AcDbEntity
  8
0
  6
CONTINUOUS
 62
     7
100
AcDbLine
 10
233.855042
 20
36.599147
 30
0.0
 11
238.855037
 21
36.599147
 31
0.0
  0
LINE
  5
115
330
1F
100
AcDbEntity
  8
0
  6
CONTINUOUS
 62
     7
100
AcDbLine
 10
238.855037
 20
54.699146
 30
0.0
 11
233.855042
 21
54.699146
 31
0.0
  0
LINE
  5
116
330
1F
100
AcDbEntity
  8
0
  6
CONTINUOUS
 62
     7
100
AcDbLine
 10
209.705028
 20
54.599146
 30
0.0
 11
200.905028
 21
54.149146
 31
0.0
  0
LINE
  5
117
330
1F
100
AcDbEntity
  8
0
  6
CONTINUOUS
 62
     7
100
AcDbLine
 10
200.905028
 20
37.149147
 30
0.0
 11
209.705028
 21
36.699147
 31
0.0
  0
LINE
  5
118
330
1F
100
AcDbEntity
  8
0
  6
CONTINUOUS
 62
     7
100
AcDbLine
 10
217.455033
 20
36.699147
 30
0.0
 11
222.455028
 21
36.699147
 31
0.0
  0
LINE
  5
119
330
1F
100
AcDbEntity
  8
0
  6
CONTINUOUS
 62
     7
100
AcDbLine
 10
209.705028
 20
36.699147
 30
0.0
 11
211.505029
 21
36.699147
 31
0.0
  0
LINE
  5
11A
330
1F
100
AcDbEntity
  8
0
  6
CONTINUOUS
 62
     7
100
AcDbLine
 10
211.505029
 20
54.599146
 30
0.0
 11
209.705028
 21
54.599146
 31
0.0
  0
LINE
  5
11B
330
1F
100
AcDbEntity
  8
0
  6
CONTINUOUS
 62
     7
100
AcDbLine
 10
222.455028
 20
54.599146
 30
0.0
 11
217.455033
 21
54.599146
 31
0.0
  0
LINE
  5
11C
330
1F
100
AcDbEntity
  8
0
  6
CONTINUOUS
 62
     7
100
AcDbLine
 10
222.455028
 20
36.699147
 30
0.0
 11
222.955021
 21
37.199146
 31
0.0
  0
LINE
  5
11D
330
1F
100
AcDbEntity
  8
0
  6
CONTINUOUS
 62
     7
100
AcDbLine
 10
222.955021
 20
54.099146
 30
0.0
 11
222.455028
 21
54.599146
 31
0.0
  0
LINE
  5
11E
330
1F
100
AcDbEntity
  8
0
  6
CONTINUOUS
 62
     7
100
AcDbLine
 10
226.155046
 20
36.849146
 30
0.0
 11
227.155033
 21
36.849146
 31
0.0
  0
LINE
  5
11F
330
1F
100
AcDbEntity
  8
0
  6
CONTINUOUS
 62
     7
100
AcDbLine
 10
227.155033
 20
54.449146
 30
0.0
 11
226.155046
 21
54.449146
 31
0.0
  0
LINE
  5
120
330
1F
100
AcDbEntity
  8
0
  6
CONTINUOUS
 62
     7
100
AcDbLine
 10
231.355044
 20
36.849146
 30
0.0
 11
233.855042
 21
36.849146
 31
0.0
  0
LINE
  5
121
330
1F
100
AcDbEntity
  8
0
  6
CONTINUOUS
 62
     7
100
AcDbLine
 10
233.855042
 20
54.449146
 30
0.0
 11
231.355044
 21
54.449146
 31
0.0
  0
LINE
  5
122
330
1F
100
AcDbEntity
  8
0
  6
CONTINUOUS
 62
     7
100
AcDbLine
 10
238.855037
 20
36.849146
 30
0.0
 11
239.955041
 21
36.849146
 31
0.0
  0
LINE
  5
123
330
1F
100
AcDbEntity
  8
0
  6
CONTINUOUS
 62
     7
100
AcDbLine
 10
239.955041
 20
54.449146
 30
0.0
 11
238.855037
 21
54.449146
 31
0.0
  0
LINE
  5
124
330
1F
100
AcDbEntity
  8
0
  6
CONTINUOUS
 62
     7
100
AcDbLine
 10
222.955021
 20
37.199146
 30
0.0
 11
226.155046
 21
37.199146
 31
0.0
  0
LINE
  5
125
330
1F
100
AcDbEntity
  8
0
  6
CONTINUOUS
 62
     7
100
AcDbLine
 10
226.155046
 20
54.099146
 30
0.0
 11
222.955021
 21
54.099146
 31
0.0
  0
LINE
  5
126
330
1F
100
AcDbEntity
  8
0
  6
CONTINUOUS
 62
     7
100
AcDbLine
 10
239.955041
 20
37.649146
 30
0.0
 11
244.355026
 21
37.649146
 31
0.0
  0
LINE
  5
127
330
1F
100
AcDbEntity
  8
0
  6
CONTINUOUS
 62
     7
100
AcDbLine
 10
244.355026
 20
53.649146
 30
0.0
 11
239.955041
 21
53.649146
 31
0.0
  0
LINE
  5
128
330
1F
100
AcDbEntity
  8
0
  6
CONTINUOUS
 62
     7
100
AcDbLine
 10
194.855038
 20
38.149146
 30
0.0
 11
200.905028
 21
38.149146
 31
0.0
  0
LINE
  5
129
330
1F
100
AcDbEntity
  8
0
  6
CONTINUOUS
 62
     7
100
AcDbLine
 10
200.905028
 20
53.149146
 30
0.0
 11
194.855038
 21
53.149146
 31
0.0
  0
LINE
  5
12A
330
1F
100
AcDbEntity
  8
0
  6
CONTINUOUS
 62
     7
100
AcDbLine
 10
244.355026
 20
38.799146
 30
0.0
 11
248.855028
 21
38.799146
 31
0.0
  0
LINE
  5
12B
330
1F
100
AcDbEntity
  8
0
  6
CONTINUOUS
 62
     7
100
AcDbLine
 10
248.855028
 20
52.499146
 30
0.0
 11
244.355026
 21
52.499146
 31
0.0
  0
LINE
  5
12C
330
1F
100
AcDbEntity
  8
0
  6
CONTINUOUS
 62
     7
100
AcDbLine
 10
122.760947
 20
41.649146
 30
0.0
 11
191.855046
 21
41.649146
 31
0.0
  0
LINE
  5
12D
330
1F
100
AcDbEntity
  8
0
  6
CONTINUOUS
 62
     7
100
AcDbLine
 10
191.855046
 20
49.649146
 30
0.0
 11
122.111838
 21
49.649146
 31
0.0
  0
LINE
  5
12E
330
1F
100
AcDbEntity
  8
0
  6
CONTINUOUS
 62
     7
100
AcDbLine
 10
191.855046
 20
45.762798
 30
0.0
 11
194.855038
 21
45.762798
 31
0.0
  0
LINE
  5
12F
330
1F
100
AcDbEntity
  8
0
  6
CONTINUOUS
 62
     7
100
AcDbLine
 10
194.855038
 20
45.535494
 30
0.0
 11
191.855046
 21
45.535494
 31
0.0
  0
LINE
  5
130
330
1F
100
AcDbEntity
  8
0
  6
CONTINUOUS
 62
     7
100
AcDbLine
 10
194.855038
 20
45.535494
 30
0.0
 11
194.855038
 21
45.762798
 31
0.0
  0
LINE
  5
131
330
1F
100
AcDbEntity
  8
0
  6
CONTINUOUS
 62
     7
100
AcDbLine
 10
191.855046
 20
45.535494
 30
0.0
 11
191.855046
 21
45.762798
 31
0.0
  0
LINE
  5
132
330
1F
100
AcDbEntity
  8
0
  6
CONTINUOUS
 62
     7
100
AcDbLine
 10
191.855046
 20
37.262798
 30
0.0
 11
194.855038
 21
37.262798
 31
0.0
  0
LINE
  5
133
330
1F
100
AcDbEntity
  8
0
  6
CONTINUOUS
 62
     7
100
AcDbLine
 10
194.855038
 20
37.262798
 30
0.0
 11
194.855038
 21
45.535494
 31
0.0
  0
LINE
  5
134
330
1F
100
AcDbEntity
  8
0
  6
CONTINUOUS
 62
     7
100
AcDbLine
 10
191.855046
 20
37.262798
 30
0.0
 11
191.855046
 21
45.535494
 31
0.0
  0
LINE
  5
135
330
1F
100
AcDbEntity
  8
0
  6
CONTINUOUS
 62
     7
100
AcDbLine
 10
194.855038
 20
54.035494
 30
0.0
 11
191.855046
 21
54.035494
 31
0.0
  0
LINE
  5
136
330
1F
100
AcDbEntity
  8
0
  6
CONTINUOUS
 62
     7
100
AcDbLine
 10
194.855038
 20
45.762798
 30
0.0
 11
194.855038
 21
54.035494
 31
0.0
  0
LINE
  5
137
330
1F
100
AcDbEntity
  8
0
  6
CONTINUOUS
 62
     7
100
AcDbLine
 10
191.855046
 20
45.762798
 30
0.0
 11
191.855046
 21
54.035494
 31
0.0
  0
LINE
  5
138
330
1F
100
AcDbEntity
  8
0
  6
CONTINUOUS
 62
     7
100
AcDbLine
 10
231.355044
 20
45.649145
 30
0.0
 11
231.355044
 21
54.699146
 31
0.0
  0
LINE
  5
139
330
1F
100
AcDbEntity
  8
0
  6
CONTINUOUS
 62
     7
100
AcDbLine
 10
231.355044
 20
36.599147
 30
0.0
 11
231.355044
 21
45.649145
 31
0.0
  0
LINE
  5
13A
330
1F
100
AcDbEntity
  8
0
  6
CONTINUOUS
 62
     7
100
AcDbLine
 10
227.155033
 20
45.649145
 30
0.0
 11
227.155033
 21
54.699146
 31
0.0
  0
LINE
  5
13B
330
1F
100
AcDbEntity
  8
0
  6
CONTINUOUS
 62
     7
100
AcDbLine
 10
227.155033
 20
36.599147
 30
0.0
 11
227.155033
 21
45.649145
 31
0.0
  0
LINE
  5
13C
330
1F
100
AcDbEntity
  8
0
  6
CONTINUOUS
 62
     7
100
AcDbLine
 10
238.855037
 20
45.649145
 30
0.0
 11
238.855037
 21
54.699146
 31
0.0
  0
LINE
  5
13D
330
1F
100
AcDbEntity
  8
0
  6
CONTINUOUS
 62
     7
100
AcDbLine
 10
238.855037
 20
36.599147
 30
0.0
 11
238.855037
 21
45.649145
 31
0.0
  0
LINE
  5
13E
330
1F
100
AcDbEntity
  8
0
  6
CONTINUOUS
 62
     7
100
AcDbLine
 10
233.855042
 20
45.649145
 30
0.0
 11
233.855042
 21
54.699146
 31
0.0
  0
LINE
  5
13F
330
1F
100
AcDbEntity
  8
0
  6
CONTINUOUS
 62
     7
100
AcDbLine
 10
233.855042
 20
36.599147
 30
0.0
 11
233.855042
 21
45.649145
 31
0.0
  0
LINE
  5
140
330
1F
100
AcDbEntity
  8
0
  6
CONTINUOUS
 62
     7
100
AcDbLine
 10
209.705028
 20
45.649145
 30
0.0
 11
209.705028
 21
54.599146
 31
0.0
  0
LINE
  5
141
330
1F
100
AcDbEntity
  8
0
  6
CONTINUOUS
 62
     7
100
AcDbLine
 10
209.705028
 20
36.699147
 30
0.0
 11
209.705028
 21
45.649145
 31
0.0
  0
LINE
  5
142
330
1F
100
AcDbEntity
  8
0
  6
CONTINUOUS
 62
     7
100
AcDbLine
 10
200.905028
 20
45.649145
 30
0.0
 11
200.905028
 21
54.149146
 31
0.0
  0
LINE
  5
143
330
1F
100
AcDbEntity
  8
0
  6
CONTINUOUS
 62
     7
100
AcDbLine
 10
200.905028
 20
37.149147
 30
0.0
 11
200.905028
 21
45.649145
 31
0.0
  0
LINE
  5
144
330
1F
100
AcDbEntity
  8
0
  6
CONTINUOUS
 62
     7
100
AcDbLine
 10
222.455028
 20
45.649145
 30
0.0
 11
222.455028
 21
54.599146
 31
0.0
  0
LINE
  5
145
330
1F
100
AcDbEntity
  8
0
  6
CONTINUOUS
 62
     7
100
AcDbLine
 10
222.455028
 20
36.699147
 30
0.0
 11
222.455028
 21
45.649145
 31
0.0
  0
LINE
  5
146
330
1F
100
AcDbEntity
  8
0
  6
CONTINUOUS
 62
     7
100
AcDbLine
 10
211.505029
 20
53.624146
 30
0.0
 11
211.505029
 21
54.599146
 31
0.0
  0
LINE
  5
147
330
1F
100
AcDbEntity
  8
0
  6
CONTINUOUS
 62
     7
100
AcDbLine
 10
217.455033
 20
53.624146
 30
0.0
 11
211.505029
 21
53.624146
 31
0.0
  0
LINE
  5
148
330
1F
100
AcDbEntity
  8
0
  6
CONTINUOUS
 62
     7
100
AcDbLine
 10
217.455033
 20
54.599146
 30
0.0
 11
217.455033
 21
53.624146
 31
0.0
  0
LINE
  5
149
330
1F
100
AcDbEntity
  8
0
  6
CONTINUOUS
 62
     7
100
AcDbLine
 10
217.455033
 20
37.674147
 30
0.0
 11
217.455033
 21
36.699147
 31
0.0
  0
LINE
  5
14A
330
1F
100
AcDbEntity
  8
0
  6
CONTINUOUS
 62
     7
100
AcDbLine
 10
211.505029
 20
37.674147
 30
0.0
 11
217.455033
 21
37.674147
 31
0.0
  0
LINE
  5
14B
330
1F
100
AcDbEntity
  8
0
  6
CONTINUOUS
 62
     7
100
AcDbLine
 10
211.505029
 20
36.699147
 30
0.0
 11
211.505029
 21
37.674147
 31
0.0
  0
LINE
  5
14C
330
1F
100
AcDbEntity
  8
0
  6
CONTINUOUS
 62
     7
100
AcDbLine
 10
222.955021
 20
45.649145
 30
0.0
 11
222.955021
 21
54.099146
 31
0.0
  0
LINE
  5
14D
330
1F
100
AcDbEntity
  8
0
  6
CONTINUOUS
 62
     7
100
AcDbLine
 10
222.955021
 20
37.199146
 30
0.0
 11
222.955021
 21
45.649145
 31
0.0
  0
LINE
  5
14E
330
1F
100
AcDbEntity
  8
0
  6
CONTINUOUS
 62
     7
100
AcDbLine
 10
226.155046
 20
45.649145
 30
0.0
 11
226.155046
 21
54.449146
 31
0.0
  0
LINE
  5
14F
330
1F
100
AcDbEntity
  8
0
  6
CONTINUOUS
 62
     7
100
AcDbLine
 10
226.155046
 20
36.849146
 30
0.0
 11
226.155046
 21
45.649145
 31
0.0
  0
LINE
  5
150
330
1F
100
AcDbEntity
  8
0
  6
CONTINUOUS
 62
     7
100
AcDbLine
 10
239.955041
 20
45.649145
 30
0.0
 11
239.955041
 21
54.449146
 31
0.0
  0
LINE
  5
151
330
1F
100
AcDbEntity
  8
0
  6
CONTINUOUS
 62
     7
100
AcDbLine
 10
239.955041
 20
36.849146
 30
0.0
 11
239.955041
 21
45.649145
 31
0.0
  0
LINE
  5
152
330
1F
100
AcDbEntity
  8
0
  6
CONTINUOUS
 62
     7
100
AcDbLine
 10
244.355026
 20
45.649145
 30
0.0
 11
244.355026
 21
53.649146
 31
0.0
  0
LINE
  5
153
330
1F
100
AcDbEntity
  8
0
  6
CONTINUOUS
 62
     7
100
AcDbLine
 10
244.355026
 20
37.649146
 30
0.0
 11
244.355026
 21
45.649145
 31
0.0
  0
LINE
  5
154
330
1F
100
AcDbEntity
  8
0
  6
CONTINUOUS
 62
     7
100
AcDbLine
 10
248.855028
 20
45.649145
 30
0.0
 11
248.855028
 21
52.499146
 31
0.0
  0
LINE
  5
155
330
1F
100
AcDbEntity
  8
0
  6
CONTINUOUS
 62
     7
100
AcDbLine
 10
248.855028
 20
38.799146
 30
0.0
 11
248.855028
 21
45.649145
 31
0.0
  0
LINE
  5
156
330
1F
100
AcDbEntity
  8
0
  6
CONTINUOUS
 62
     7
100
AcDbLine
 10
194.855038
 20
37.149147
 30
0.0
 11
191.855046
 21
37.149147
 31
0.0
  0
LINE
  5
157
330
1F
100
AcDbEntity
  8
0
  6
CONTINUOUS
 62
     7
100
AcDbLine
 10
194.855038
 20
37.149147
 30
0.0
 11
194.855038
 21
37.262798
 31
0.0
  0
LINE
  5
158
330
1F
100
AcDbEntity
  8
0
  6
CONTINUOUS
 62
     7
100
AcDbLine
 10
191.855046
 20
37.149147
 30
0.0
 11
191.855046
 21
37.262798
 31
0.0
  0
LINE
  5
159
330
1F
100
AcDbEntity
  8
0
  6
CONTINUOUS
 62
     7
100
AcDbLine
 10
191.855046
 20
54.149146
 30
0.0
 11
194.855038
 21
54.149146
 31
0.0
  0
LINE
  5
15A
330
1F
100
AcDbEntity
  8
0
  6
CONTINUOUS
 62
     7
100
AcDbLine
 10
194.855038
 20
54.035494
 30
0.0
 11
194.855038
 21
54.149146
 31
0.0
  0
LINE
  5
15B
330
1F
100
AcDbEntity
  8
0
  6
CONTINUOUS
 62
     7
100
AcDbLine
 10
191.855046
 20
54.035494
 30
0.0
 11
191.855046
 21
54.149146
 31
0.0
  0
LINE
  5
15C
330
1F
100
AcDbEntity
  8
0
  6
CONTINUOUS
 62
     7
100
AcDbLine
 10
65.767207
 20
41.649146
 30
0.0
 11
120.760948
 21
41.649146
 31
0.0
  0
LINE
  5
15D
330
1F
100
AcDbEntity
  8
0
  6
CONTINUOUS
 62
     7
100
AcDbLine
 10
120.111839
 20
49.649146
 30
0.0
 11
65.767207
 21
49.649146
 31
0.0
  0
LINE
  5
15E
330
1F
100
AcDbEntity
  8
0
  6
CONTINUOUS
 62
     7
100
AcDbLine
 10
30.917206
 20
53.549146
 30
0.0
 11
31.117209
 21
53.349146
 31
0.0
  0
LINE
  5
15F
330
1F
100
AcDbEntity
  8
0
  6
CONTINUOUS
 62
     7
100
AcDbLine
 10
49.517208
 20
53.349146
 30
0.0
 11
49.717196
 21
53.549146
 31
0.0
  0
LINE
  5
160
330
1F
100
AcDbEntity
  8
0
  6
CONTINUOUS
 62
     7
100
AcDbLine
 10
30.917206
 20
70.149145
 30
0.0
 11
30.917206
 21
53.549146
 31
0.0
  0
LINE
  5
161
330
1F
100
AcDbEntity
  8
0
  6
CONTINUOUS
 62
     7
100
AcDbLine
 10
49.717196
 20
53.549146
 30
0.0
 11
49.717196
 21
70.149145
 31
0.0
  0
LINE
  5
162
330
1F
100
AcDbEntity
  8
0
  6
CONTINUOUS
 62
     7
100
AcDbLine
 10
49.717196
 20
70.149145
 30
0.0
 11
49.517208
 21
70.349147
 31
0.0
  0
LINE
  5
163
330
1F
100
AcDbEntity
  8
0
  6
CONTINUOUS
 62
     7
100
AcDbLine
 10
31.117209
 20
70.349147
 30
0.0
 11
30.917206
 21
70.149145
 31
0.0
  0
LINE
  5
164
330
1F
100
AcDbEntity
  8
0
  6
CONTINUOUS
 62
     7
100
AcDbLine
 10
65.267199
 20
39.149145
 30
0.0
 11
65.767207
 21
39.649146
 31
0.0
  0
LINE
  5
165
330
1F
100
AcDbEntity
  8
0
  6
CONTINUOUS
 62
     7
100
AcDbLine
 10
65.767207
 20
51.649146
 30
0.0
 11
65.267199
 21
52.149146
 31
0.0
  0
LINE
  5
166
330
1F
100
AcDbEntity
  8
0
  6
CONTINUOUS
 62
     7
100
AcDbLine
 10
61.767199
 20
39.349146
 30
0.0
 11
61.967202
 21
39.149145
 31
0.0
  0
LINE
  5
167
330
1F
100
AcDbEntity
  8
0
  6
CONTINUOUS
 62
     7
100
AcDbLine
 10
61.967202
 20
52.149146
 30
0.0
 11
61.767199
 21
51.949146
 31
0.0
  0
LINE
  5
168
330
1F
100
AcDbEntity
  8
0
  6
CONTINUOUS
 62
     7
100
AcDbLine
 10
61.967202
 20
39.149145
 30
0.0
 11
65.267199
 21
39.149145
 31
0.0
  0
LINE
  5
169
330
1F
100
AcDbEntity
  8
0
  6
CONTINUOUS
 62
     7
100
AcDbLine
 10
65.267199
 20
52.149146
 30
0.0
 11
61.967202
 21
52.149146
 31
0.0
  0
LINE
  5
16A
330
1F
100
AcDbEntity
  8
0
  6
CONTINUOUS
 62
     7
100
AcDbLine
 10
61.267205
 20
39.149145
 30
0.0
 11
61.767199
 21
39.649146
 31
0.0
  0
LINE
  5
16B
330
1F
100
AcDbEntity
  8
0
  6
CONTINUOUS
 62
     7
100
AcDbLine
 10
61.767199
 20
51.649146
 30
0.0
 11
61.267205
 21
52.149146
 31
0.0
  0
LINE
  5
16C
330
1F
100
AcDbEntity
  8
0
  6
CONTINUOUS
 62
     7
100
AcDbLine
 10
52.76721
 20
39.149145
 30
0.0
 11
61.267205
 21
39.149145
 31
0.0
  0
LINE
  5
16D
330
1F
100
AcDbEntity
  8
0
  6
CONTINUOUS
 62
     7
100
AcDbLine
 10
61.267205
 20
52.149146
 30
0.0
 11
52.76721
 21
52.149146
 31
0.0
  0
LINE
  5
16E
330
1F
100
AcDbEntity
  8
0
  6
CONTINUOUS
 62
     7
100
AcDbLine
 10
30.867197
 20
38.449146
 30
0.0
 11
31.167202
 21
38.149146
 31
0.0
  0
LINE
  5
16F
330
1F
100
AcDbEntity
  8
0
  6
CONTINUOUS
 62
     7
100
AcDbLine
 10
30.867197
 20
52.849146
 30
0.0
 11
30.867197
 21
38.449146
 31
0.0
  0
LINE
  5
170
330
1F
100
AcDbEntity
  8
0
  6
CONTINUOUS
 62
     7
100
AcDbLine
 10
31.167202
 20
53.149146
 30
0.0
 11
30.867197
 21
52.849146
 31
0.0
  0
LINE
  5
171
330
1F
100
AcDbEntity
  8
0
  6
CONTINUOUS
 62
     7
100
AcDbLine
 10
32.967203
 20
53.349146
 30
0.0
 11
32.967203
 21
53.149146
 31
0.0
  0
LINE
  5
172
330
1F
100
AcDbEntity
  8
0
  6
CONTINUOUS
 62
     7
100
AcDbLine
 10
47.667199
 20
53.149146
 30
0.0
 11
47.667199
 21
53.349146
 31
0.0
  0
LINE
  5
173
330
1F
100
AcDbEntity
  8
0
  6
CONTINUOUS
 62
     7
100
AcDbLine
 10
49.517208
 20
53.349146
 30
0.0
 11
31.117209
 21
53.349146
 31
0.0
  0
LINE
  5
174
330
1F
100
AcDbEntity
  8
0
  6
CONTINUOUS
 62
     7
100
AcDbLine
 10
31.117209
 20
70.349147
 30
0.0
 11
49.517208
 21
70.349147
 31
0.0
  0
LINE
  5
175
330
1F
100
AcDbEntity
  8
0
  6
CONTINUOUS
 62
     7
100
AcDbLine
 10
65.267199
 20
41.702993
 30
0.0
 11
65.267199
 21
43.149145
 31
0.0
  0
INSERT
  5
179
330
1F
100
AcDbEntity
  8
0
100
AcDbBlockReference
  2
BLKF012
 10
0.0
 20
0.0
 30
0.0
  0
INSERT
  5
19E
330
1F
100
AcDbEntity
  8
0
100
AcDbBlockReference
  2
BLKF013
 10
0.0
 20
0.0
 30
0.0
  0
LINE
  5
1E2
330
1F
100
AcDbEntity
  8
0
  6
CONTINUOUS
 62
     7
100
AcDbLine
 10
65.767207
 20
45.649145
 30
0.0
 11
65.767207
 21
40.452993
 31
0.0
  0
LINE
  5
1E3
330
1F
100
AcDbEntity
  8
0
  6
CONTINUOUS
 62
     7
100
AcDbLine
 10
61.967202
 20
43.149145
 30
0.0
 11
61.767199
 21
43.728208
 31
0.0
  0
LINE
  5
1E4
330
1F
100
AcDbEntity
  8
0
  6
CONTINUOUS
 62
     7
100
AcDbLine
 10
61.967202
 20
43.149145
 30
0.0
 11
61.967202
 21
41.702993
 31
0.0
  0
LINE
  5
1E5
330
1F
100
AcDbEntity
  8
0
  6
CONTINUOUS
 62
     7
100
AcDbLine
 10
61.767199
 20
41.413462
 30
0.0
 11
61.967202
 21
41.702993
 31
0.0
  0
LINE
  5
1E6
330
1F
100
AcDbEntity
  8
0
  6
CONTINUOUS
 62
     7
100
AcDbLine
 10
61.767199
 20
41.413462
 30
0.0
 11
61.767199
 21
43.728208
 31
0.0
  0
LINE
  5
1E7
330
1F
100
AcDbEntity
  8
0
  6
CONTINUOUS
 62
     7
100
AcDbLine
 10
65.267199
 20
43.149145
 30
0.0
 11
61.967202
 21
43.149145
 31
0.0
  0
LINE
  5
1E8
330
1F
100
AcDbEntity
  8
0
  6
CONTINUOUS
 62
     7
100
AcDbLine
 10
61.967202
 20
41.702993
 30
0.0
 11
65.267199
 21
41.702993
 31
0.0
  0
LINE
  5
1E9
330
1F
100
AcDbEntity
  8
0
  6
CONTINUOUS
 62
     7
100
AcDbLine
 10
61.767199
 20
47.570083
 30
0.0
 11
61.967202
 21
48.149146
 31
0.0
  0
LINE
  5
1EA
330
1F
100
AcDbEntity
  8
0
  6
CONTINUOUS
 62
     7
100
AcDbLine
 10
61.967202
 20
48.149146
 30
0.0
 11
65.267199
 21
48.149146
 31
0.0
  0
INSERT
  5
1EE
330
1F
100
AcDbEntity
  8
0
100
AcDbBlockReference
  2
BLKF014
 10
0.0
 20
0.0
 30
0.0
  0
LINE
  5
237
330
1F
100
AcDbEntity
  8
0
  6
CONTINUOUS
 62
     7
100
AcDbLine
 10
61.767199
 20
43.728208
 30
0.0
 11
61.767199
 21
47.570083
 31
0.0
  0
LINE
  5
238
330
1F
100
AcDbEntity
  8
0
  6
CONTINUOUS
 62
     7
100
AcDbLine
 10
65.267199
 20
48.149146
 30
0.0
 11
65.267199
 21
49.595299
 31
0.0
  0
LINE
  5
239
330
1F
100
AcDbEntity
  8
0
  6
CONTINUOUS
 62
     7
100
AcDbLine
 10
65.767207
 20
50.845299
 30
0.0
 11
65.267199
 21
49.595299
 31
0.0
  0
LINE
  5
23A
330
1F
100
AcDbEntity
  8
0
  6
CONTINUOUS
 62
     7
100
AcDbLine
 10
65.767207
 20
50.845299
 30
0.0
 11
65.767207
 21
45.649145
 31
0.0
  0
LINE
  5
23B
330
1F
100
AcDbEntity
  8
0
  6
CONTINUOUS
 62
     7
100
AcDbLine
 10
61.967202
 20
49.595299
 30
0.0
 11
61.967202
 21
48.149146
 31
0.0
  0
INSERT
  5
23F
330
1F
100
AcDbEntity
  8
0
100
AcDbBlockReference
  2
BLKF015
 10
0.0
 20
0.0
 30
0.0
  0
LINE
  5
24B
330
1F
100
AcDbEntity
  8
0
  6
CONTINUOUS
 62
     7
100
AcDbLine
 10
61.767199
 20
47.570083
 30
0.0
 11
61.767199
 21
49.88483
 31
0.0
  0
LINE
  5
24C
330
1F
100
AcDbEntity
  8
0
  6
CONTINUOUS
 62
     7
100
AcDbLine
 10
65.267199
 20
49.595299
 30
0.0
 11
61.967202
 21
49.595299
 31
0.0
  0
INSERT
  5
250
330
1F
100
AcDbEntity
  8
0
100
AcDbBlockReference
  2
BLKF016
 10
0.0
 20
0.0
 30
0.0
  0
LINE
  5
261
330
1F
100
AcDbEntity
  8
0
  6
CONTINUOUS
 62
     7
100
AcDbLine
 10
65.767207
 20
40.452993
 30
0.0
 11
65.267199
 21
39.202994
 31
0.0
  0
LINE
  5
262
330
1F
100
AcDbEntity
  8
0
  6
CONTINUOUS
 62
     7
100
AcDbLine
 10
65.267199
 20
39.202994
 30
0.0
 11
61.967202
 21
39.202994
 31
0.0
  0
LINE
  5
263
330
1F
100
AcDbEntity
  8
0
  6
CONTINUOUS
 62
     7
100
AcDbLine
 10
61.767199
 20
39.492525
 30
0.0
 11
61.767199
 21
41.413462
 31
0.0
  0
LINE
  5
264
330
1F
100
AcDbEntity
  8
0
  6
CONTINUOUS
 62
     7
100
AcDbLine
 10
61.767199
 20
51.805767
 30
0.0
 11
61.967202
 21
52.095298
 31
0.0
  0
LINE
  5
265
330
1F
100
AcDbEntity
  8
0
  6
CONTINUOUS
 62
     7
100
AcDbLine
 10
61.967202
 20
52.095298
 30
0.0
 11
65.267199
 21
52.095298
 31
0.0
  0
INSERT
  5
269
330
1F
100
AcDbEntity
  8
0
100
AcDbBlockReference
  2
BLKF017
 10
0.0
 20
0.0
 30
0.0
  0
LINE
  5
2AD
330
1F
100
AcDbEntity
  8
0
  6
CONTINUOUS
 62
     7
100
AcDbLine
 10
61.767199
 20
49.88483
 30
0.0
 11
61.767199
 21
51.805767
 31
0.0
  0
LINE
  5
2AE
330
1F
100
AcDbEntity
  8
0
  6
CONTINUOUS
 62
     7
100
AcDbLine
 10
65.267199
 20
39.149145
 30
0.0
 11
65.267199
 21
39.202994
 31
0.0
  0
LINE
  5
2AF
330
1F
100
AcDbEntity
  8
0
  6
CONTINUOUS
 62
     7
100
AcDbLine
 10
65.767207
 20
40.452993
 30
0.0
 11
65.767207
 21
39.649146
 31
0.0
  0
LINE
  5
2B0
330
1F
100
AcDbEntity
  8
0
  6
CONTINUOUS
 62
     7
100
AcDbLine
 10
65.267199
 20
52.095298
 30
0.0
 11
65.267199
 21
52.149146
 31
0.0
  0
LINE
  5
2B1
330
1F
100
AcDbEntity
  8
0
  6
CONTINUOUS
 62
     7
100
AcDbLine
 10
65.767207
 20
51.649146
 30
0.0
 11
65.767207
 21
50.845299
 31
0.0
  0
LINE
  5
2B2
330
1F
100
AcDbEntity
  8
0
  6
CONTINUOUS
 62
     7
100
AcDbLine
 10
61.967202
 20
39.202994
 30
0.0
 11
61.967202
 21
39.149145
 31
0.0
  0
LINE
  5
2B3
330
1F
100
AcDbEntity
  8
0
  6
CONTINUOUS
 62
     7
100
AcDbLine
 10
61.767199
 20
39.349146
 30
0.0
 11
61.767199
 21
39.492525
 31
0.0
  0
LINE
  5
2B4
330
1F
100
AcDbEntity
  8
0
  6
CONTINUOUS
 62
     7
100
AcDbLine
 10
61.967202
 20
52.149146
 30
0.0
 11
61.967202
 21
52.095298
 31
0.0
  0
LINE
  5
2B5
330
1F
100
AcDbEntity
  8
0
  6
CONTINUOUS
 62
     7
100
AcDbLine
 10
61.767199
 20
51.805767
 30
0.0
 11
61.767199
 21
51.949146
 31
0.0
  0
LINE
  5
2B6
330
1F
100
AcDbEntity
  8
0
  6
CONTINUOUS
 62
     7
100
AcDbLine
 10
61.267205
 20
41.702993
 30
0.0
 11
61.267205
 21
43.149145
 31
0.0
  0
INSERT
  5
2BA
330
1F
100
AcDbEntity
  8
0
100
AcDbBlockReference
  2
BLKF018
 10
0.0
 20
0.0
 30
0.0
  0
INSERT
  5
2E6
330
1F
100
AcDbEntity
  8
0
100
AcDbBlockReference
  2
BLKF019
 10
0.0
 20
0.0
 30
0.0
  0
LINE
  5
32A
330
1F
100
AcDbEntity
  8
0
  6
CONTINUOUS
 62
     7
100
AcDbLine
 10
61.267205
 20
43.149145
 30
0.0
 11
52.76721
 21
43.149145
 31
0.0
  0
LINE
  5
32B
330
1F
100
AcDbEntity
  8
0
  6
CONTINUOUS
 62
     7
100
AcDbLine
 10
52.76721
 20
41.702993
 30
0.0
 11
61.267205
 21
41.702993
 31
0.0
  0
LINE
  5
32C
330
1F
100
AcDbEntity
  8
0
  6
CONTINUOUS
 62
     7
100
AcDbLine
 10
52.76721
 20
48.149146
 30
0.0
 11
61.267205
 21
48.149146
 31
0.0
  0
INSERT
  5
330
330
1F
100
AcDbEntity
  8
0
100
AcDbBlockReference
  2
BLKF020
 10
0.0
 20
0.0
 30
0.0
  0
LINE
  5
352
330
1F
100
AcDbEntity
  8
0
  6
CONTINUOUS
 62
     7
100
AcDbLine
 10
61.267205
 20
48.149146
 30
0.0
 11
61.267205
 21
49.595299
 31
0.0
  0
LINE
  5
353
330
1F
100
AcDbEntity
  8
0
  6
CONTINUOUS
 62
     7
100
AcDbLine
 10
61.767199
 20
50.845299
 30
0.0
 11
61.267205
 21
49.595299
 31
0.0
  0
LINE
  5
354
330
1F
100
AcDbEntity
  8
0
  6
CONTINUOUS
 62
     7
100
AcDbLine
 10
61.267205
 20
49.595299
 30
0.0
 11
52.76721
 21
49.595299
 31
0.0
  0
LINE
  5
355
330
1F
100
AcDbEntity
  8
0
  6
CONTINUOUS
 62
     7
100
AcDbLine
 10
61.267205
 20
39.202994
 30
0.0
 11
52.76721
 21
39.202994
 31
0.0
  0
LINE
  5
356
330
1F
100
AcDbEntity
  8
0
  6
CONTINUOUS
 62
     7
100
AcDbLine
 10
61.767199
 20
40.452993
 30
0.0
 11
61.267205
 21
39.202994
 31
0.0
  0
LINE
  5
357
330
1F
100
AcDbEntity
  8
0
  6
CONTINUOUS
 62
     7
100
AcDbLine
 10
52.76721
 20
52.095298
 30
0.0
 11
61.267205
 21
52.095298
 31
0.0
  0
INSERT
  5
35B
330
1F
100
AcDbEntity
  8
0
100
AcDbBlockReference
  2
BLKF021
 10
0.0
 20
0.0
 30
0.0
  0
LINE
  5
39F
330
1F
100
AcDbEntity
  8
0
  6
CONTINUOUS
 62
     7
100
AcDbLine
 10
61.267205
 20
39.149145
 30
0.0
 11
61.267205
 21
39.202994
 31
0.0
  0
LINE
  5
3A0
330
1F
100
AcDbEntity
  8
0
  6
CONTINUOUS
 62
     7
100
AcDbLine
 10
61.267205
 20
52.095298
 30
0.0
 11
61.267205
 21
52.149146
 31
0.0
  0
LINE
  5
3A1
330
1F
100
AcDbEntity
  8
0
  6
CONTINUOUS
 62
     7
100
AcDbLine
 10
40.317201
 20
38.149146
 30
0.0
 11
31.167202
 21
38.149146
 31
0.0
  0
LINE
  5
3A2
330
1F
100
AcDbEntity
  8
0
  6
CONTINUOUS
 62
     7
100
AcDbLine
 10
40.317201
 20
38.149146
 30
0.0
 11
40.317201
 21
38.449146
 31
0.0
  0
LINE
  5
3A3
330
1F
100
AcDbEntity
  8
0
  6
CONTINUOUS
 62
     7
100
AcDbLine
 10
40.317201
 20
52.849146
 30
0.0
 11
40.317201
 21
38.449146
 31
0.0
  0
LINE
  5
3A4
330
1F
100
AcDbEntity
  8
0
  6
CONTINUOUS
 62
     7
100
AcDbLine
 10
52.203231
 20
38.149146
 30
0.0
 11
40.317201
 21
38.149146
 31
0.0
  0
LINE
  5
3A5
330
1F
100
AcDbEntity
  8
0
  6
CONTINUOUS
 62
     7
100
AcDbLine
 10
52.76721
 20
38.599873
 30
0.0
 11
52.76721
 21
38.449146
 31
0.0
  0
LINE
  5
3A6
330
1F
100
AcDbEntity
  8
0
  6
CONTINUOUS
 62
     7
100
AcDbLine
 10
52.76721
 20
38.449146
 30
0.0
 11
52.467205
 21
38.149146
 31
0.0
  0
LINE
  5
3A7
330
1F
100
AcDbEntity
  8
0
  6
CONTINUOUS
 62
     7
100
AcDbLine
 10
52.203231
 20
38.149146
 30
0.0
 11
52.467205
 21
38.149146
 31
0.0
  0
LINE
  5
3A8
330
1F
100
AcDbEntity
  8
0
  6
CONTINUOUS
 62
     7
100
AcDbLine
 10
52.76721
 20
52.698418
 30
0.0
 11
52.76721
 21
38.599873
 31
0.0
  0
LINE
  5
3A9
330
1F
100
AcDbEntity
  8
0
  6
CONTINUOUS
 62
     7
100
AcDbLine
 10
31.167202
 20
53.149146
 30
0.0
 11
40.317201
 21
53.149146
 31
0.0
  0
LINE
  5
3AA
330
1F
100
AcDbEntity
  8
0
  6
CONTINUOUS
 62
     7
100
AcDbLine
 10
40.317201
 20
52.849146
 30
0.0
 11
40.317201
 21
53.149146
 31
0.0
  0
LINE
  5
3AB
330
1F
100
AcDbEntity
  8
0
  6
CONTINUOUS
 62
     7
100
AcDbLine
 10
40.317201
 20
53.149146
 30
0.0
 11
52.203231
 21
53.149146
 31
0.0
  0
LINE
  5
3AC
330
1F
100
AcDbEntity
  8
0
  6
CONTINUOUS
 62
     7
100
AcDbLine
 10
52.203231
 20
53.149146
 30
0.0
 11
52.467205
 21
53.149146
 31
0.0
  0
LINE
  5
3AD
330
1F
100
AcDbEntity
  8
0
  6
CONTINUOUS
 62
     7
100
AcDbLine
 10
52.467205
 20
53.149146
 30
0.0
 11
52.76721
 21
52.849146
 31
0.0
  0
LINE
  5
3AE
330
1F
100
AcDbEntity
  8
0
  6
CONTINUOUS
 62
     7
100
AcDbLine
 10
52.76721
 20
52.849146
 30
0.0
 11
52.76721
 21
52.698418
 31
0.0
  0
INSERT
  5
3B2
330
1F
100
AcDbEntity
  8
0
100
AcDbBlockReference
  2
BLKF022
 10
0.0
 20
0.0
 30
0.0
  0
INSERT
  5
3C0
330
1F
100
AcDbEntity
  8
0
100
AcDbBlockReference
  2
BLKF023
 10
0.0
 20
0.0
 30
0.0
  0
INSERT
  5
3CE
330
1F
100
AcDbEntity
  8
0
100
AcDbBlockReference
  2
BLKF024
 10
0.0
 20
0.0
 30
0.0
  0
ARC
  5
3D9
330
1F
100
AcDbEntity
  8
0
  6
DASHED
 62
     7
100
AcDbCircle
 10
126.436392
 20
48.149146
 30
0.0
 40
6.499999641627062
100
AcDbArc
 50
157.380135
 51
202.619865
  0
ARC
  5
3DA
330
1F
100
AcDbEntity
  8
0
  6
DASHED
 62
     7
100
AcDbCircle
 10
114.436393
 20
43.149146
 30
0.0
 40
6.499999641627076
100
AcDbArc
 50
-22.619865
 51
22.619865
  0
ARC
  5
3DB
330
1F
100
AcDbEntity
  8
0
  6
DASHED
 62
     7
100
AcDbCircle
 10
128.436392
 20
48.149146
 30
0.0
 40
6.499999641627062
100
AcDbArc
 50
157.380135
 51
202.619865
  0
ARC
  5
3DC
330
1F
100
AcDbEntity
  8
0
  6
DASHED
 62
     7
100
AcDbCircle
 10
116.436393
 20
43.149146
 30
0.0
 40
6.499999641627076
100
AcDbArc
 50
-22.619865
 51
22.619865
  0
INSERT
  5
3E0
330
1F
100
AcDbEntity
  8
0
100
AcDbBlockReference
  2
BLKF025
 10
0.0
 20
0.0
 30
0.0
  0
LINE
  5
439
330
1F
100
AcDbEntity
  8
0
  6
CONTINUOUS
 62
     7
100
AcDbLine
 10
188.855025
 20
114.834455
 30
0.0
 11
122.073911
 21
114.834455
 31
0.0
  0
LINE
  5
43A
330
1F
100
AcDbEntity
  8
0
  6
CONTINUOUS
 62
     7
100
AcDbLine
 10
121.585085
 20
110.834455
 30
0.0
 11
188.855025
 21
110.834455
 31
0.0
  0
LINE
  5
43B
330
1F
100
AcDbEntity
  8
0
  6
CONTINUOUS
 62
     7
100
AcDbLine
 10
233.855042
 20
94.384454
 30
0.0
 11
238.855037
 21
94.384454
 31
0.0
  0
LINE
  5
43C
330
1F
100
AcDbEntity
  8
0
  6
CONTINUOUS
 62
     7
100
AcDbLine
 10
238.855037
 20
112.484455
 30
0.0
 11
233.855042
 21
112.484455
 31
0.0
  0
LINE
  5
43D
330
1F
100
AcDbEntity
  8
0
  6
CONTINUOUS
 62
     7
100
AcDbLine
 10
227.155033
 20
94.384454
 30
0.0
 11
231.355044
 21
94.384454
 31
0.0
  0
LINE
  5
43E
330
1F
100
AcDbEntity
  8
0
  6
CONTINUOUS
 62
     7
100
AcDbLine
 10
231.355044
 20
112.484455
 30
0.0
 11
227.155033
 21
112.484455
 31
0.0
  0
LINE
  5
43F
330
1F
100
AcDbEntity
  8
0
  6
CONTINUOUS
 62
     7
100
AcDbLine
 10
222.455028
 20
94.484455
 30
0.0
 11
222.955021
 21
94.984454
 31
0.0
  0
LINE
  5
440
330
1F
100
AcDbEntity
  8
0
  6
CONTINUOUS
 62
     7
100
AcDbLine
 10
222.955021
 20
111.884455
 30
0.0
 11
222.455028
 21
112.384455
 31
0.0
  0
LINE
  5
441
330
1F
100
AcDbEntity
  8
0
  6
CONTINUOUS
 62
     7
100
AcDbLine
 10
209.705028
 20
94.484455
 30
0.0
 11
222.455028
 21
94.484455
 31
0.0
  0
LINE
  5
442
330
1F
100
AcDbEntity
  8
0
  6
CONTINUOUS
 62
     7
100
AcDbLine
 10
222.455028
 20
112.384455
 30
0.0
 11
209.705028
 21
112.384455
 31
0.0
  0
LINE
  5
443
330
1F
100
AcDbEntity
  8
0
  6
CONTINUOUS
 62
     7
100
AcDbLine
 10
209.705028
 20
112.384455
 30
0.0
 11
200.905028
 21
111.934455
 31
0.0
  0
LINE
  5
444
330
1F
100
AcDbEntity
  8
0
  6
CONTINUOUS
 62
     7
100
AcDbLine
 10
200.905028
 20
94.934454
 30
0.0
 11
209.705028
 21
94.484455
 31
0.0
  0
LINE
  5
445
330
1F
100
AcDbEntity
  8
0
  6
CONTINUOUS
 62
     7
100
AcDbLine
 10
238.855037
 20
94.634455
 30
0.0
 11
239.955041
 21
94.634455
 31
0.0
  0
LINE
  5
446
330
1F
100
AcDbEntity
  8
0
  6
CONTINUOUS
 62
     7
100
AcDbLine
 10
239.955041
 20
112.234455
 30
0.0
 11
238.855037
 21
112.234455
 31
0.0
  0
LINE
  5
447
330
1F
100
AcDbEntity
  8
0
  6
CONTINUOUS
 62
     7
100
AcDbLine
 10
231.355044
 20
94.634455
 30
0.0
 11
233.855042
 21
94.634455
 31
0.0
  0
LINE
  5
448
330
1F
100
AcDbEntity
  8
0
  6
CONTINUOUS
 62
     7
100
AcDbLine
 10
233.855042
 20
112.234455
 30
0.0
 11
231.355044
 21
112.234455
 31
0.0
  0
LINE
  5
449
330
1F
100
AcDbEntity
  8
0
  6
CONTINUOUS
 62
     7
100
AcDbLine
 10
226.155046
 20
94.634455
 30
0.0
 11
227.155033
 21
94.634455
 31
0.0
  0
LINE
  5
44A
330
1F
100
AcDbEntity
  8
0
  6
CONTINUOUS
 62
     7
100
AcDbLine
 10
227.155033
 20
112.234455
 30
0.0
 11
226.155046
 21
112.234455
 31
0.0
  0
LINE
  5
44B
330
1F
100
AcDbEntity
  8
0
  6
CONTINUOUS
 62
     7
100
AcDbLine
 10
222.955021
 20
94.984454
 30
0.0
 11
226.155046
 21
94.984454
 31
0.0
  0
LINE
  5
44C
330
1F
100
AcDbEntity
  8
0
  6
CONTINUOUS
 62
     7
100
AcDbLine
 10
226.155046
 20
111.884455
 30
0.0
 11
222.955021
 21
111.884455
 31
0.0
  0
LINE
  5
44D
330
1F
100
AcDbEntity
  8
0
  6
CONTINUOUS
 62
     7
100
AcDbLine
 10
239.955041
 20
95.434455
 30
0.0
 11
244.355026
 21
95.434455
 31
0.0
  0
LINE
  5
44E
330
1F
100
AcDbEntity
  8
0
  6
CONTINUOUS
 62
     7
100
AcDbLine
 10
244.355026
 20
111.434455
 30
0.0
 11
239.955041
 21
111.434455
 31
0.0
  0
LINE
  5
44F
330
1F
100
AcDbEntity
  8
0
  6
CONTINUOUS
 62
     7
100
AcDbLine
 10
194.855038
 20
95.934455
 30
0.0
 11
200.905028
 21
95.934455
 31
0.0
  0
LINE
  5
450
330
1F
100
AcDbEntity
  8
0
  6
CONTINUOUS
 62
     7
100
AcDbLine
 10
200.905028
 20
110.934455
 30
0.0
 11
194.855038
 21
110.934455
 31
0.0
  0
LINE
  5
451
330
1F
100
AcDbEntity
  8
0
  6
CONTINUOUS
 62
     7
100
AcDbLine
 10
244.355026
 20
96.584454
 30
0.0
 11
248.855028
 21
96.584454
 31
0.0
  0
LINE
  5
452
330
1F
100
AcDbEntity
  8
0
  6
CONTINUOUS
 62
     7
100
AcDbLine
 10
248.855028
 20
110.284455
 30
0.0
 11
244.355026
 21
110.284455
 31
0.0
  0
LINE
  5
453
330
1F
100
AcDbEntity
  8
0
  6
CONTINUOUS
 62
     7
100
AcDbLine
 10
191.855046
 20
93.684455
 30
0.0
 11
194.855038
 21
93.684455
 31
0.0
  0
LINE
  5
454
330
1F
100
AcDbEntity
  8
0
  6
CONTINUOUS
 62
     7
100
AcDbLine
 10
194.855038
 20
113.184454
 30
0.0
 11
191.855046
 21
113.184454
 31
0.0
  0
LINE
  5
455
330
1F
100
AcDbEntity
  8
0
  6
CONTINUOUS
 62
     7
100
AcDbLine
 10
122.798874
 20
99.434455
 30
0.0
 11
191.855046
 21
99.434455
 31
0.0
  0
LINE
  5
456
330
1F
100
AcDbEntity
  8
0
  6
CONTINUOUS
 62
     7
100
AcDbLine
 10
191.855046
 20
107.434455
 30
0.0
 11
122.316393
 21
107.434455
 31
0.0
  0
LINE
  5
457
330
1F
100
AcDbEntity
  8
0
  6
CONTINUOUS
 62
     7
100
AcDbLine
 10
188.855025
 20
114.834455
 30
0.0
 11
188.855025
 21
110.834455
 31
0.0
  0
LINE
  5
458
330
1F
100
AcDbEntity
  8
0
  6
CONTINUOUS
 62
     7
100
AcDbLine
 10
233.855042
 20
94.384454
 30
0.0
 11
233.855042
 21
112.484455
 31
0.0
  0
LINE
  5
459
330
1F
100
AcDbEntity
  8
0
  6
CONTINUOUS
 62
     7
100
AcDbLine
 10
238.855037
 20
94.384454
 30
0.0
 11
238.855037
 21
112.484455
 31
0.0
  0
LINE
  5
45A
330
1F
100
AcDbEntity
  8
0
  6
CONTINUOUS
 62
     7
100
AcDbLine
 10
227.155033
 20
94.384454
 30
0.0
 11
227.155033
 21
112.484455
 31
0.0
  0
LINE
  5
45B
330
1F
100
AcDbEntity
  8
0
  6
CONTINUOUS
 62
     7
100
AcDbLine
 10
231.355044
 20
94.384454
 30
0.0
 11
231.355044
 21
112.484455
 31
0.0
  0
LINE
  5
45C
330
1F
100
AcDbEntity
  8
0
  6
CONTINUOUS
 62
     7
100
AcDbLine
 10
222.955021
 20
94.984454
 30
0.0
 11
222.955021
 21
111.884455
 31
0.0
  0
LINE
  5
45D
330
1F
100
AcDbEntity
  8
0
  6
CONTINUOUS
 62
     7
100
AcDbLine
 10
222.455028
 20
94.484455
 30
0.0
 11
222.455028
 21
112.384455
 31
0.0
  0
LINE
  5
45E
330
1F
100
AcDbEntity
  8
0
  6
CONTINUOUS
 62
     7
100
AcDbLine
 10
209.705028
 20
94.484455
 30
0.0
 11
209.705028
 21
112.384455
 31
0.0
  0
LINE
  5
45F
330
1F
100
AcDbEntity
  8
0
  6
CONTINUOUS
 62
     7
100
AcDbLine
 10
211.505029
 20
107.496705
 30
0.0
 11
217.455033
 21
107.496705
 31
0.0
  0
LINE
  5
460
330
1F
100
AcDbEntity
  8
0
  6
CONTINUOUS
 62
     7
100
AcDbLine
 10
211.505029
 20
99.372205
 30
0.0
 11
211.505029
 21
107.496705
 31
0.0
  0
LINE
  5
461
330
1F
100
AcDbEntity
  8
0
  6
CONTINUOUS
 62
     7
100
AcDbLine
 10
217.455033
 20
99.372205
 30
0.0
 11
211.505029
 21
99.372205
 31
0.0
  0
LINE
  5
462
330
1F
100
AcDbEntity
  8
0
  6
CONTINUOUS
 62
     7
100
AcDbLine
 10
217.455033
 20
107.496705
 30
0.0
 11
217.455033
 21
99.372205
 31
0.0
  0
LINE
  5
463
330
1F
100
AcDbEntity
  8
0
  6
CONTINUOUS
 62
     7
100
AcDbLine
 10
200.905028
 20
94.934454
 30
0.0
 11
200.905028
 21
111.934455
 31
0.0
  0
LINE
  5
464
330
1F
100
AcDbEntity
  8
0
  6
CONTINUOUS
 62
     7
100
AcDbLine
 10
239.955041
 20
94.634455
 30
0.0
 11
239.955041
 21
112.234455
 31
0.0
  0
LINE
  5
465
330
1F
100
AcDbEntity
  8
0
  6
CONTINUOUS
 62
     7
100
AcDbLine
 10
226.155046
 20
94.634455
 30
0.0
 11
226.155046
 21
112.234455
 31
0.0
  0
LINE
  5
466
330
1F
100
AcDbEntity
  8
0
  6
CONTINUOUS
 62
     7
100
AcDbLine
 10
191.855046
 20
98.658211
 30
0.0
 11
194.855038
 21
98.658211
 31
0.0
  0
LINE
  5
467
330
1F
100
AcDbEntity
  8
0
  6
CONTINUOUS
 62
     7
100
AcDbLine
 10
194.855038
 20
108.210698
 30
0.0
 11
191.855046
 21
108.210698
 31
0.0
  0
LINE
  5
468
330
1F
100
AcDbEntity
  8
0
  6
CONTINUOUS
 62
     7
100
AcDbLine
 10
191.855046
 20
98.658211
 30
0.0
 11
191.855046
 21
108.210698
 31
0.0
  0
LINE
  5
469
330
1F
100
AcDbEntity
  8
0
  6
CONTINUOUS
 62
     7
100
AcDbLine
 10
194.855038
 20
98.658211
 30
0.0
 11
194.855038
 21
108.210698
 31
0.0
  0
LINE
  5
46A
330
1F
100
AcDbEntity
  8
0
  6
CONTINUOUS
 62
     7
100
AcDbLine
 10
194.855038
 20
98.46136
 30
0.0
 11
191.855046
 21
98.46136
 31
0.0
  0
LINE
  5
46B
330
1F
100
AcDbEntity
  8
0
  6
CONTINUOUS
 62
     7
100
AcDbLine
 10
191.855046
 20
98.46136
 30
0.0
 11
191.855046
 21
98.658211
 31
0.0
  0
LINE
  5
46C
330
1F
100
AcDbEntity
  8
0
  6
CONTINUOUS
 62
     7
100
AcDbLine
 10
194.855038
 20
98.46136
 30
0.0
 11
194.855038
 21
98.658211
 31
0.0
  0
LINE
  5
46D
330
1F
100
AcDbEntity
  8
0
  6
CONTINUOUS
 62
     7
100
AcDbLine
 10
191.855046
 20
108.407549
 30
0.0
 11
194.855038
 21
108.407549
 31
0.0
  0
LINE
  5
46E
330
1F
100
AcDbEntity
  8
0
  6
CONTINUOUS
 62
     7
100
AcDbLine
 10
191.855046
 20
108.210698
 30
0.0
 11
191.855046
 21
108.407549
 31
0.0
  0
LINE
  5
46F
330
1F
100
AcDbEntity
  8
0
  6
CONTINUOUS
 62
     7
100
AcDbLine
 10
194.855038
 20
108.210698
 30
0.0
 11
194.855038
 21
108.407549
 31
0.0
  0
LINE
  5
470
330
1F
100
AcDbEntity
  8
0
  6
CONTINUOUS
 62
     7
100
AcDbLine
 10
191.855046
 20
93.685117
 30
0.0
 11
194.855038
 21
93.685117
 31
0.0
  0
LINE
  5
471
330
1F
100
AcDbEntity
  8
0
  6
CONTINUOUS
 62
     7
100
AcDbLine
 10
191.855046
 20
93.685117
 30
0.0
 11
191.855046
 21
98.46136
 31
0.0
  0
LINE
  5
472
330
1F
100
AcDbEntity
  8
0
  6
CONTINUOUS
 62
     7
100
AcDbLine
 10
194.855038
 20
93.685117
 30
0.0
 11
194.855038
 21
98.46136
 31
0.0
  0
LINE
  5
473
330
1F
100
AcDbEntity
  8
0
  6
CONTINUOUS
 62
     7
100
AcDbLine
 10
194.855038
 20
113.183792
 30
0.0
 11
191.855046
 21
113.183792
 31
0.0
  0
LINE
  5
474
330
1F
100
AcDbEntity
  8
0
  6
CONTINUOUS
 62
     7
100
AcDbLine
 10
191.855046
 20
108.407549
 30
0.0
 11
191.855046
 21
113.183792
 31
0.0
  0
LINE
  5
475
330
1F
100
AcDbEntity
  8
0
  6
CONTINUOUS
 62
     7
100
AcDbLine
 10
194.855038
 20
108.407549
 30
0.0
 11
194.855038
 21
113.183792
 31
0.0
  0
LINE
  5
476
330
1F
100
AcDbEntity
  8
0
  6
CONTINUOUS
 62
     7
100
AcDbLine
 10
244.355026
 20
95.434455
 30
0.0
 11
244.355026
 21
111.434455
 31
0.0
  0
LINE
  5
477
330
1F
100
AcDbEntity
  8
0
  6
CONTINUOUS
 62
     7
100
AcDbLine
 10
248.855028
 20
96.584454
 30
0.0
 11
248.855028
 21
110.284455
 31
0.0
  0
LINE
  5
478
330
1F
100
AcDbEntity
  8
0
  6
CONTINUOUS
 62
     7
100
AcDbLine
 10
120.073908
 20
114.834455
 30
0.0
 11
62.967204
 21
114.834455
 31
0.0
  0
LINE
  5
479
330
1F
100
AcDbEntity
  8
0
  6
CONTINUOUS
 62
     7
100
AcDbLine
 10
62.967204
 20
110.834455
 30
0.0
 11
119.585083
 21
110.834455
 31
0.0
  0
LINE
  5
47A
330
1F
100
AcDbEntity
  8
0
  6
CONTINUOUS
 62
     7
100
AcDbLine
 10
62.967204
 20
115.334455
 30
0.0
 11
54.967203
 21
115.334455
 31
0.0
  0
LINE
  5
47B
330
1F
100
AcDbEntity
  8
0
  6
CONTINUOUS
 62
     7
100
AcDbLine
 10
54.967203
 20
110.334455
 30
0.0
 11
62.967204
 21
110.334455
 31
0.0
  0
LINE
  5
47C
330
1F
100
AcDbEntity
  8
0
  6
CONTINUOUS
 62
     7
100
AcDbLine
 10
65.767207
 20
99.434455
 30
0.0
 11
120.798872
 21
99.434455
 31
0.0
  0
LINE
  5
47D
330
1F
100
AcDbEntity
  8
0
  6
CONTINUOUS
 62
     7
100
AcDbLine
 10
120.316394
 20
107.434455
 30
0.0
 11
65.767207
 21
107.434455
 31
0.0
  0
CIRCLE
  5
47E
330
1F
100
AcDbEntity
  8
0
  6
CONTINUOUS
 62
     7
100
AcDbCircle
 10
43.917197
 20
106.234453
 30
0.0
 40
0.4000024046758473
  0
CIRCLE
  5
47F
330
1F
100
AcDbEntity
  8
0
  6
CONTINUOUS
 62
     7
100
AcDbCircle
 10
37.771617
 20
103.688872
 30
0.0
 40
0.3999995265254919
  0
CIRCLE
  5
480
330
1F
100
AcDbEntity
  8
0
  6
CONTINUOUS
 62
     7
100
AcDbCircle
 10
42.862793
 20
103.688872
 30
0.0
 40
0.3999995265254919
  0
CIRCLE
  5
481
330
1F
100
AcDbEntity
  8
0
  6
CONTINUOUS
 62
     7
100
AcDbCircle
 10
42.862793
 20
108.780041
 30
0.0
 40
0.3999995534137659
  0
CIRCLE
  5
482
330
1F
100
AcDbEntity
  8
0
  6
CONTINUOUS
 62
     7
100
AcDbCircle
 10
40.317199
 20
109.834451
 30
0.0
 40
0.3999997686095683
  0
CIRCLE
  5
483
330
1F
100
AcDbEntity
  8
0
  6
CONTINUOUS
 62
     7
100
AcDbCircle
 10
40.3172
 20
102.634451
 30
0.0
 40
0.399999714827679
  0
CIRCLE
  5
484
330
1F
100
AcDbEntity
  8
0
  6
CONTINUOUS
 62
     7
100
AcDbCircle
 10
37.771617
 20
108.780041
 30
0.0
 40
0.3999995534137659
  0
CIRCLE
  5
485
330
1F
100
AcDbEntity
  8
0
  6
CONTINUOUS
 62
     7
100
AcDbCircle
 10
40.317202
 20
106.234454
 30
0.0
 40
7.114999090956823
  0
LINE
  5
486
330
1F
100
AcDbEntity
  8
0
  6
CONTINUOUS
 62
     7
100
AcDbLine
 10
54.967203
 20
115.334455
 30
0.0
 11
54.967203
 21
110.334455
 31
0.0
  0
LINE
  5
487
330
1F
100
AcDbEntity
  8
0
  6
CONTINUOUS
 62
     7
100
AcDbLine
 10
62.967204
 20
115.334455
 30
0.0
 11
62.967204
 21
110.334455
 31
0.0
  0
LINE
  5
488
330
1F
100
AcDbEntity
  8
0
  6
CONTINUOUS
 62
     7
100
AcDbLine
 10
54.867201
 20
110.584455
 30
0.0
 11
54.867201
 21
111.74473
 31
0.0
  0
LINE
  5
489
330
1F
100
AcDbEntity
  8
0
  6
CONTINUOUS
 62
     7
100
AcDbLine
 10
52.867197
 20
110.584455
 30
0.0
 11
54.867201
 21
110.584455
 31
0.0
  0
LINE
  5
48A
330
1F
100
AcDbEntity
  8
0
  6
CONTINUOUS
 62
     7
100
AcDbLine
 10
52.867197
 20
111.74473
 30
0.0
 11
52.867197
 21
110.584455
 31
0.0
  0
LINE
  5
48B
330
1F
100
AcDbEntity
  8
0
  6
CONTINUOUS
 62
     7
100
AcDbLine
 10
52.867197
 20
111.74473
 30
0.0
 11
54.867201
 21
111.74473
 31
0.0
  0
LINE
  5
48C
330
1F
100
AcDbEntity
  8
0
  6
CONTINUOUS
 62
     7
100
AcDbLine
 10
54.867201
 20
110.584455
 30
0.0
 11
54.967203
 21
110.584455
 31
0.0
  0
LINE
  5
48D
330
1F
100
AcDbEntity
  8
0
  6
CONTINUOUS
 62
     7
100
AcDbLine
 10
54.967203
 20
111.99929
 30
0.0
 11
54.867201
 21
111.74473
 31
0.0
  0
LINE
  5
48E
330
1F
100
AcDbEntity
  8
0
  6
CONTINUOUS
 62
     7
100
AcDbLine
 10
52.867197
 20
113.924179
 30
0.0
 11
54.867201
 21
113.924179
 31
0.0
  0
LINE
  5
48F
330
1F
100
AcDbEntity
  8
0
  6
CONTINUOUS
 62
     7
100
AcDbLine
 10
54.867201
 20
113.924179
 30
0.0
 11
54.967203
 21
113.669619
 31
0.0
  0
LINE
  5
490
330
1F
100
AcDbEntity
  8
0
  6
CONTINUOUS
 62
     7
100
AcDbLine
 10
54.967203
 20
115.084455
 30
0.0
 11
54.867201
 21
115.084455
 31
0.0
  0
LINE
  5
491
330
1F
100
AcDbEntity
  8
0
  6
CONTINUOUS
 62
     7
100
AcDbLine
 10
54.867201
 20
113.924179
 30
0.0
 11
54.867201
 21
115.084455
 31
0.0
  0
LINE
  5
492
330
1F
100
AcDbEntity
  8
0
  6
CONTINUOUS
 62
     7
100
AcDbLine
 10
52.867197
 20
115.084455
 30
0.0
 11
52.867197
 21
113.924179
 31
0.0
  0
LINE
  5
493
330
1F
100
AcDbEntity
  8
0
  6
CONTINUOUS
 62
     7
100
AcDbLine
 10
52.867197
 20
115.084455
 30
0.0
 11
54.867201
 21
115.084455
 31
0.0
  0
CIRCLE
  5
494
330
1F
100
AcDbEntity
  8
0
  6
CONTINUOUS
 62
     7
100
AcDbCircle
 10
40.317209
 20
106.234457
 30
0.0
 40
5.560941825912
  0
CIRCLE
  5
495
330
1F
100
AcDbEntity
  8
0
  6
CONTINUOUS
 62
     7
100
AcDbCircle
 10
43.917206
 20
106.234456
 30
0.0
 40
0.9499978432241947
  0
CIRCLE
  5
496
330
1F
100
AcDbEntity
  8
0
  6
CONTINUOUS
 62
     7
100
AcDbCircle
 10
42.862789
 20
103.68887
 30
0.0
 40
0.9500007280253973
  0
CIRCLE
  5
497
330
1F
100
AcDbEntity
  8
0
  6
CONTINUOUS
 62
     7
100
AcDbCircle
 10
40.317209
 20
102.634455
 30
0.0
 40
0.9500008019686418
  0
CIRCLE
  5
498
330
1F
100
AcDbEntity
  8
0
  6
CONTINUOUS
 62
     7
100
AcDbCircle
 10
37.771614
 20
103.68887
 30
0.0
 40
0.9500007280253973
  0
CIRCLE
  5
499
330
1F
100
AcDbEntity
  8
0
  6
CONTINUOUS
 62
     7
100
AcDbCircle
 10
37.771614
 20
108.780039
 30
0.0
 40
0.9500007481917194
  0
CIRCLE
  5
49A
330
1F
100
AcDbEntity
  8
0
  6
CONTINUOUS
 62
     7
100
AcDbCircle
 10
40.317209
 20
109.834455
 30
0.0
 40
0.9500007481916828
  0
CIRCLE
  5
49B
330
1F
100
AcDbEntity
  8
0
  6
CONTINUOUS
 62
     7
100
AcDbCircle
 10
42.862789
 20
108.780039
 30
0.0
 40
0.9500007481917194
  0
CIRCLE
  5
49C
330
1F
100
AcDbEntity
  8
0
  6
CONTINUOUS
 62
     7
100
AcDbCircle
 10
37.317202
 20
106.234455
 30
0.0
 40
1.199998633275886
  0
CIRCLE
  5
49D
330
1F
100
AcDbEntity
  8
0
  6
CONTINUOUS
 62
     7
100
AcDbCircle
 10
40.317197
 20
106.234453
 30
0.0
 40
1.549998511508972
  0
CIRCLE
  5
49E
330
1F
100
AcDbEntity
  8
0
  6
CONTINUOUS
 62
     7
100
AcDbCircle
 10
40.317196
 20
102.634456
 30
0.0
 40
0.6500004779198877
  0
CIRCLE
  5
49F
330
1F
100
AcDbEntity
  8
0
  6
CONTINUOUS
 62
     7
100
AcDbCircle
 10
42.862789
 20
103.688867
 30
0.0
 40
0.6500002897430305
  0
CIRCLE
  5
4A0
330
1F
100
AcDbEntity
  8
0
  6
CONTINUOUS
 62
     7
100
AcDbCircle
 10
37.771616
 20
103.688872
 30
0.0
 40
0.650000289700111
  0
CIRCLE
  5
4A1
330
1F
100
AcDbEntity
  8
0
  6
CONTINUOUS
 62
     7
100
AcDbCircle
 10
40.317205
 20
106.234453
 30
0.0
 40
1.250001099153936
  0
CIRCLE
  5
4A2
330
1F
100
AcDbEntity
  8
0
  6
CONTINUOUS
 62
     7
100
AcDbCircle
 10
43.917198
 20
106.234456
 30
0.0
 40
0.6500002896999526
  0
CIRCLE
  5
4A3
330
1F
100
AcDbEntity
  8
0
  6
CONTINUOUS
 62
     7
100
AcDbCircle
 10
37.317202
 20
106.234455
 30
0.0
 40
0.8000019311123823
  0
CIRCLE
  5
4A4
330
1F
100
AcDbEntity
  8
0
  6
CONTINUOUS
 62
     7
100
AcDbCircle
 10
42.862789
 20
108.780036
 30
0.0
 40
0.6500003166324643
  0
CIRCLE
  5
4A5
330
1F
100
AcDbEntity
  8
0
  6
CONTINUOUS
 62
     7
100
AcDbCircle
 10
37.771616
 20
108.780041
 30
0.0
 40
0.6500003165879932
  0
CIRCLE
  5
4A6
330
1F
100
AcDbEntity
  8
0
  6
CONTINUOUS
 62
     7
100
AcDbCircle
 10
40.317196
 20
109.834457
 30
0.0
 40
0.6500005316976756
  0
CIRCLE
  5
4A7
330
1F
100
AcDbEntity
  8
0
  6
CONTINUOUS
 62
     7
100
AcDbCircle
 10
40.317198
 20
106.234453
 30
0.0
 40
5.649999371299431
  0
CIRCLE
  5
4A8
330
1F
100
AcDbEntity
  8
0
  6
CONTINUOUS
 62
     7
100
AcDbCircle
 10
40.317198
 20
106.234456
 30
0.0
 40
6.599999518271465
  0
CIRCLE
  5
4A9
330
1F
100
AcDbEntity
  8
0
  6
CONTINUOUS
 62
     7
100
AcDbCircle
 10
40.317197
 20
106.234454
 30
0.0
 40
7.099999138011873
  0
CIRCLE
  5
4AA
330
1F
100
AcDbEntity
  8
0
  6
CONTINUOUS
 62
     7
100
AcDbCircle
 10
40.317202
 20
106.234455
 30
0.0
 40
5.699999705919647
  0
CIRCLE
  5
4AB
330
1F
100
AcDbEntity
  8
0
  6
CONTINUOUS
 62
     7
100
AcDbCircle
 10
40.317209
 20
106.234453
 30
0.0
 40
7.949999717908225
  0
CIRCLE
  5
4AC
330
1F
100
AcDbEntity
  8
0
  6
CONTINUOUS
 62
     7
100
AcDbCircle
 10
40.3172
 20
106.234457
 30
0.0
 40
9.399996663842268
  0
CIRCLE
  5
4AD
330
1F
100
AcDbEntity
  8
0
  6
CONTINUOUS
 62
     7
100
AcDbCircle
 10
40.317204
 20
106.234454
 30
0.0
 40
8.999999317369611
  0
CIRCLE
  5
4AE
330
1F
100
AcDbEntity
  8
0
  6
CONTINUOUS
 62
     7
100
AcDbCircle
 10
40.317202
 20
106.234458
 30
0.0
 40
8.284998961842376
  0
LINE
  5
4AF
330
1F
100
AcDbEntity
  8
0
  6
CONTINUOUS
 62
     7
100
AcDbLine
 10
65.267199
 20
102.599518
 30
0.0
 11
65.267199
 21
104.269391
 31
0.0
  0
LINE
  5
4B0
330
1F
100
AcDbEntity
  8
0
  6
CONTINUOUS
 62
     7
100
AcDbLine
 10
65.767207
 20
106.434455
 30
0.0
 11
65.267199
 21
104.269391
 31
0.0
  0
LINE
  5
4B1
330
1F
100
AcDbEntity
  8
0
  6
CONTINUOUS
 62
     7
100
AcDbLine
 10
65.767207
 20
106.434455
 30
0.0
 11
65.767207
 21
100.434455
 31
0.0
  0
INSERT
  5
4B5
330
1F
100
AcDbEntity
  8
0
100
AcDbBlockReference
  2
BLKF026
 10
0.0
 20
0.0
 30
0.0
  0
LINE
  5
4F6
330
1F
100
AcDbEntity
  8
0
  6
CONTINUOUS
 62
     7
100
AcDbLine
 10
61.967202
 20
104.269391
 30
0.0
 11
61.967202
 21
102.599518
 31
0.0
  0
LINE
  5
4F7
330
1F
100
AcDbEntity
  8
0
  6
CONTINUOUS
 62
     7
100
AcDbLine
 10
65.267199
 20
104.269391
 30
0.0
 11
61.967202
 21
104.269391
 31
0.0
  0
LINE
  5
4F8
330
1F
100
AcDbEntity
  8
0
  6
CONTINUOUS
 62
     7
100
AcDbLine
 10
61.967202
 20
102.599518
 30
0.0
 11
65.267199
 21
102.599518
 31
0.0
  0
LINE
  5
4F9
330
1F
100
AcDbEntity
  8
0
  6
CONTINUOUS
 62
     7
100
AcDbLine
 10
61.767199
 20
102.098035
 30
0.0
 11
61.767199
 21
104.770874
 31
0.0
  0
LINE
  5
4FA
330
1F
100
AcDbEntity
  8
0
  6
CONTINUOUS
 62
     7
100
AcDbLine
 10
61.967202
 20
104.269391
 30
0.0
 11
61.767199
 21
104.770874
 31
0.0
  0
LINE
  5
4FB
330
1F
100
AcDbEntity
  8
0
  6
CONTINUOUS
 62
     7
100
AcDbLine
 10
61.767199
 20
102.098035
 30
0.0
 11
61.967202
 21
102.599518
 31
0.0
  0
INSERT
  5
4FF
330
1F
100
AcDbEntity
  8
0
100
AcDbBlockReference
  2
BLKF027
 10
0.0
 20
0.0
 30
0.0
  0
LINE
  5
50B
330
1F
100
AcDbEntity
  8
0
  6
CONTINUOUS
 62
     7
100
AcDbLine
 10
61.767199
 20
98.770874
 30
0.0
 11
61.767199
 21
102.098035
 31
0.0
  0
LINE
  5
50C
330
1F
100
AcDbEntity
  8
0
  6
CONTINUOUS
 62
     7
100
AcDbLine
 10
65.767207
 20
100.434455
 30
0.0
 11
65.267199
 21
98.269391
 31
0.0
  0
LINE
  5
50D
330
1F
100
AcDbEntity
  8
0
  6
CONTINUOUS
 62
     7
100
AcDbLine
 10
65.267199
 20
98.269391
 30
0.0
 11
61.967202
 21
98.269391
 31
0.0
  0
LINE
  5
50E
330
1F
100
AcDbEntity
  8
0
  6
CONTINUOUS
 62
     7
100
AcDbLine
 10
61.767199
 20
104.770874
 30
0.0
 11
61.767199
 21
108.098035
 31
0.0
  0
LINE
  5
50F
330
1F
100
AcDbEntity
  8
0
  6
CONTINUOUS
 62
     7
100
AcDbLine
 10
61.767199
 20
108.098035
 30
0.0
 11
61.967202
 21
108.599518
 31
0.0
  0
LINE
  5
510
330
1F
100
AcDbEntity
  8
0
  6
CONTINUOUS
 62
     7
100
AcDbLine
 10
61.967202
 20
108.599518
 30
0.0
 11
65.267199
 21
108.599518
 31
0.0
  0
INSERT
  5
514
330
1F
100
AcDbEntity
  8
0
100
AcDbBlockReference
  2
BLKF028
 10
0.0
 20
0.0
 30
0.0
  0
LINE
  5
555
330
1F
100
AcDbEntity
  8
0
  6
CONTINUOUS
 62
     7
100
AcDbLine
 10
65.267199
 20
97.434455
 30
0.0
 11
65.767207
 21
97.434455
 31
0.0
  0
LINE
  5
556
330
1F
100
AcDbEntity
  8
0
  6
CONTINUOUS
 62
     7
100
AcDbLine
 10
65.267199
 20
97.434455
 30
0.0
 11
65.267199
 21
98.269391
 31
0.0
  0
LINE
  5
557
330
1F
100
AcDbEntity
  8
0
  6
CONTINUOUS
 62
     7
100
AcDbLine
 10
65.767207
 20
100.434455
 30
0.0
 11
65.767207
 21
97.434455
 31
0.0
  0
LINE
  5
558
330
1F
100
AcDbEntity
  8
0
  6
CONTINUOUS
 62
     7
100
AcDbLine
 10
65.267199
 20
108.599518
 30
0.0
 11
65.267199
 21
109.434455
 31
0.0
  0
LINE
  5
559
330
1F
100
AcDbEntity
  8
0
  6
CONTINUOUS
 62
     7
100
AcDbLine
 10
65.767207
 20
109.434455
 30
0.0
 11
65.267199
 21
109.434455
 31
0.0
  0
LINE
  5
55A
330
1F
100
AcDbEntity
  8
0
  6
CONTINUOUS
 62
     7
100
AcDbLine
 10
65.767207
 20
109.434455
 30
0.0
 11
65.767207
 21
106.434455
 31
0.0
  0
LINE
  5
55B
330
1F
100
AcDbEntity
  8
0
  6
CONTINUOUS
 62
     7
100
AcDbLine
 10
61.967202
 20
98.269391
 30
0.0
 11
61.967202
 21
97.434455
 31
0.0
  0
LINE
  5
55C
330
1F
100
AcDbEntity
  8
0
  6
CONTINUOUS
 62
     7
100
AcDbLine
 10
61.767199
 20
97.434455
 30
0.0
 11
61.967202
 21
97.434455
 31
0.0
  0
LINE
  5
55D
330
1F
100
AcDbEntity
  8
0
  6
CONTINUOUS
 62
     7
100
AcDbLine
 10
61.767199
 20
97.434455
 30
0.0
 11
61.767199
 21
98.770874
 31
0.0
  0
LINE
  5
55E
330
1F
100
AcDbEntity
  8
0
  6
CONTINUOUS
 62
     7
100
AcDbLine
 10
61.967202
 20
109.434455
 30
0.0
 11
61.767199
 21
109.434455
 31
0.0
  0
LINE
  5
55F
330
1F
100
AcDbEntity
  8
0
  6
CONTINUOUS
 62
     7
100
AcDbLine
 10
61.967202
 20
109.434455
 30
0.0
 11
61.967202
 21
108.599518
 31
0.0
  0
LINE
  5
560
330
1F
100
AcDbEntity
  8
0
  6
CONTINUOUS
 62
     7
100
AcDbLine
 10
61.767199
 20
108.098035
 30
0.0
 11
61.767199
 21
109.434455
 31
0.0
  0
LINE
  5
561
330
1F
100
AcDbEntity
  8
0
  6
CONTINUOUS
 62
     7
100
AcDbLine
 10
61.967202
 20
97.434455
 30
0.0
 11
65.267199
 21
97.434455
 31
0.0
  0
LINE
  5
562
330
1F
100
AcDbEntity
  8
0
  6
CONTINUOUS
 62
     7
100
AcDbLine
 10
65.267199
 20
109.434455
 30
0.0
 11
61.967202
 21
109.434455
 31
0.0
  0
INSERT
  5
566
330
1F
100
AcDbEntity
  8
0
100
AcDbBlockReference
  2
BLKF029
 10
0.0
 20
0.0
 30
0.0
  0
LINE
  5
5A7
330
1F
100
AcDbEntity
  8
0
  6
CONTINUOUS
 62
     7
100
AcDbLine
 10
61.267205
 20
102.599518
 30
0.0
 11
61.267205
 21
104.269391
 31
0.0
  0
LINE
  5
5A8
330
1F
100
AcDbEntity
  8
0
  6
CONTINUOUS
 62
     7
100
AcDbLine
 10
61.767199
 20
106.434455
 30
0.0
 11
61.267205
 21
104.269391
 31
0.0
  0
LINE
  5
5A9
330
1F
100
AcDbEntity
  8
0
  6
CONTINUOUS
 62
     7
100
AcDbLine
 10
52.76721
 20
102.599518
 30
0.0
 11
61.267205
 21
102.599518
 31
0.0
  0
LINE
  5
5AA
330
1F
100
AcDbEntity
  8
0
  6
CONTINUOUS
 62
     7
100
AcDbLine
 10
61.267205
 20
104.269391
 30
0.0
 11
52.76721
 21
104.269391
 31
0.0
  0
LINE
  5
5AB
330
1F
100
AcDbEntity
  8
0
  6
CONTINUOUS
 62
     7
100
AcDbLine
 10
61.267205
 20
98.269391
 30
0.0
 11
52.76721
 21
98.269391
 31
0.0
  0
LINE
  5
5AC
330
1F
100
AcDbEntity
  8
0
  6
CONTINUOUS
 62
     7
100
AcDbLine
 10
61.767199
 20
100.434455
 30
0.0
 11
61.267205
 21
98.269391
 31
0.0
  0
LINE
  5
5AD
330
1F
100
AcDbEntity
  8
0
  6
CONTINUOUS
 62
     7
100
AcDbLine
 10
52.76721
 20
108.599518
 30
0.0
 11
61.267205
 21
108.599518
 31
0.0
  0
INSERT
  5
5B1
330
1F
100
AcDbEntity
  8
0
100
AcDbBlockReference
  2
BLKF030
 10
0.0
 20
0.0
 30
0.0
  0
LINE
  5
5F2
330
1F
100
AcDbEntity
  8
0
  6
CONTINUOUS
 62
     7
100
AcDbLine
 10
61.267205
 20
97.434455
 30
0.0
 11
61.767199
 21
97.434455
 31
0.0
  0
LINE
  5
5F3
330
1F
100
AcDbEntity
  8
0
  6
CONTINUOUS
 62
     7
100
AcDbLine
 10
61.267205
 20
97.434455
 30
0.0
 11
61.267205
 21
98.269391
 31
0.0
  0
LINE
  5
5F4
330
1F
100
AcDbEntity
  8
0
  6
CONTINUOUS
 62
     7
100
AcDbLine
 10
61.267205
 20
108.599518
 30
0.0
 11
61.267205
 21
109.434455
 31
0.0
  0
LINE
  5
5F5
330
1F
100
AcDbEntity
  8
0
  6
CONTINUOUS
 62
     7
100
AcDbLine
 10
61.767199
 20
109.434455
 30
0.0
 11
61.267205
 21
109.434455
 31
0.0
  0
LINE
  5
5F6
330
1F
100
AcDbEntity
  8
0
  6
CONTINUOUS
 62
     7
100
AcDbLine
 10
52.76721
 20
97.434455
 30
0.0
 11
61.267205
 21
97.434455
 31
0.0
  0
LINE
  5
5F7
330
1F
100
AcDbEntity
  8
0
  6
CONTINUOUS
 62
     7
100
AcDbLine
 10
61.267205
 20
109.434455
 30
0.0
 11
52.76721
 21
109.434455
 31
0.0
  0
LINE
  5
5F8
330
1F
100
AcDbEntity
  8
0
  6
CONTINUOUS
 62
     7
100
AcDbLine
 10
52.76721
 20
97.341339
 30
0.0
 11
52.76721
 21
97.084455
 31
0.0
  0
LINE
  5
5F9
330
1F
100
AcDbEntity
  8
0
  6
CONTINUOUS
 62
     7
100
AcDbLine
 10
52.76721
 20
97.084455
 30
0.0
 11
52.467205
 21
96.784455
 31
0.0
  0
LINE
  5
5FA
330
1F
100
AcDbEntity
  8
0
  6
CONTINUOUS
 62
     7
100
AcDbLine
 10
52.467205
 20
96.784455
 30
0.0
 11
52.349978
 21
96.784455
 31
0.0
  0
LINE
  5
5FB
330
1F
100
AcDbEntity
  8
0
  6
CONTINUOUS
 62
     7
100
AcDbLine
 10
52.349978
 20
96.784455
 30
0.0
 11
40.317201
 21
96.784455
 31
0.0
  0
LINE
  5
5FC
330
1F
100
AcDbEntity
  8
0
  6
CONTINUOUS
 62
     7
100
AcDbLine
 10
52.76721
 20
115.12757
 30
0.0
 11
52.76721
 21
97.341339
 31
0.0
  0
ARC
  5
5FD
330
1F
100
AcDbEntity
  8
0
  6
CONTINUOUS
 62
     7
100
AcDbCircle
 10
40.317197
 20
106.234455
 30
0.0
 40
9.44999977946355
100
AcDbArc
 50
89.999977
 51
270.000023
  0
LINE
  5
5FE
330
1F
100
AcDbEntity
  8
0
  6
CONTINUOUS
 62
     7
100
AcDbLine
 10
52.349978
 20
115.684455
 30
0.0
 11
52.467205
 21
115.684455
 31
0.0
  0
LINE
  5
5FF
330
1F
100
AcDbEntity
  8
0
  6
CONTINUOUS
 62
     7
100
AcDbLine
 10
52.467205
 20
115.684455
 30
0.0
 11
52.76721
 21
115.384455
 31
0.0
  0
LINE
  5
600
330
1F
100
AcDbEntity
  8
0
  6
CONTINUOUS
 62
     7
100
AcDbLine
 10
52.76721
 20
115.384455
 30
0.0
 11
52.76721
 21
115.12757
 31
0.0
  0
LINE
  5
601
330
1F
100
AcDbEntity
  8
0
  6
CONTINUOUS
 62
     7
100
AcDbLine
 10
40.317201
 20
115.684455
 30
0.0
 11
52.349978
 21
115.684455
 31
0.0
  0
LINE
  5
602
330
1F
100
AcDbEntity
  8
0
  6
CONTINUOUS
 62
     8
100
AcDbLine
 10
40.317201
 20
96.784455
 30
0.0
 11
40.317201
 21
96.834455
 31
0.0
  0
LINE
  5
603
330
1F
100
AcDbEntity
  8
0
  6
CONTINUOUS
 62
     8
100
AcDbLine
 10
40.317201
 20
115.684455
 30
0.0
 11
40.317201
 21
115.634455
 31
0.0
  0
INSERT
  5
607
330
1F
100
AcDbEntity
  8
0
100
AcDbBlockReference
  2
BLKF031
 10
0.0
 20
0.0
 30
0.0
  0
ARC
  5
612
330
1F
100
AcDbEntity
  8
0
  6
DASHED
 62
     7
100
AcDbCircle
 10
130.876393
 20
111.484455
 30
0.0
 40
11.3100002484396
100
AcDbArc
 50
157.380135
 51
202.619865
  0
ARC
  5
613
330
1F
100
AcDbEntity
  8
0
  6
DASHED
 62
     7
100
AcDbCircle
 10
109.996392
 20
102.784455
 30
0.0
 40
11.31000024843961
100
AcDbArc
 50
-22.619865
 51
22.619865
  0
ARC
  5
614
330
1F
100
AcDbEntity
  8
0
  6
DASHED
 62
     7
100
AcDbCircle
 10
132.876393
 20
111.484455
 30
0.0
 40
11.3100002484396
100
AcDbArc
 50
157.380135
 51
202.619865
  0
ARC
  5
615
330
1F
100
AcDbEntity
  8
0
  6
DASHED
 62
     7
100
AcDbCircle
 10
111.996392
 20
102.784455
 30
0.0
 40
11.3100002484396
100
AcDbArc
 50
-22.619865
 51
22.619865
  0
ENDSEC
  0
SECTION
  2
OBJECTS
  0
DICTIONARY
  5
C
330
0
100
AcDbDictionary
  3
ACAD_GROUP
350
D
  3
ACAD_LAYOUT
350
1A
  3
ACAD_MLINESTYLE
350
17
  3
ACAD_PLOTSETTINGS
350
19
1001
ACAD
1000
TREAT_AS_HARD
1070
     0
  0
DICTIONARY
  5
D
102
{ACAD_REACTORS
330
C
102
}
330
C
100
AcDbDictionary
1001
ACAD
1000
TREAT_AS_HARD
1070
     0
  0
DICTIONARY
  5
1A
102
{ACAD_REACTORS
330
C
102
}
330
C
100
AcDbDictionary
1001
ACAD
1000
TREAT_AS_HARD
1070
     0
  0
DICTIONARY
  5
17
102
{ACAD_REACTORS
330
C
102
}
330
C
100
AcDbDictionary
  3
STANDARD
350
18
1001
ACAD
1000
TREAT_AS_HARD
1070
     0
  0
DICTIONARY
  5
19
102
{ACAD_REACTORS
330
C
102
}
330
C
100
AcDbDictionary
1001
ACAD
1000
TREAT_AS_HARD
1070
     0
  0
MLINESTYLE
  5
18
102
{ACAD_REACTORS
330
17
102
}
330
17
100
AcDbMlineStyle
  2
Standard
 70
     0
  3

 62
   256
 51
90.0
 52
90.0
 71
     2
 49
0.5
 62
   256
  6
BYLAYER
 49
-0.5
 62
   256
  6
BYLAYER
  0
ENDSEC
  0
EOF
